  0
SECTION
  2
HEADER
  9
$ACADVER
  1
AC1009
  9
$INSBASE
 10
0
 20
0
 30
0
  9
$EXTMIN
 10
0
 20
0
  9
$EXTMAX
 10
1485
 20
1050
  9
$LIMMIN
 10
0
 20
0
  9
$LIMMAX
 10
1485
 20
1050
  9
$LTSCALE
 40
5
  0
ENDSEC
  0
SECTION
  2
TABLES
  0
TABLE
  2
LTYPE
 70
     9
  0
LTYPE
  2
CONTINUOUS
 70
    64
  3
実線
 72
    65
 73
     0
 40
0.0
  0
LTYPE
  2
DASHED1
 70
    64
  3
--  --  --  --  --  --  --  --  
 72
    65
 73
     2
 40
2.5
 49
1.25
 49
-1.25
  0
LTYPE
  2
DASHED2
 70
    64
  3
----    ----    ----    ----    
 72
    65
 73
     2
 40
5.0
 49
2.5
 49
-2.5
  0
LTYPE
  2
DASHED3
 70
    64
  3
------  ------  ------  ------  
 72
    65
 73
     2
 40
5.0
 49
3.75
 49
-1.25
  0
LTYPE
  2
CENTER1
 70
    64
  3
----- - ----- - ----- - ----- - 
 72
    65
 73
     4
 40
10.0
 49
6.25
 49
-1.25
 49
1.25
 49
-1.25
  0
LTYPE
  2
CENTER2
 70
    64
  3
----------  --  ----------  --  
 72
    65
 73
     4
 40
20.0
 49
12.5
 49
-2.5
 49
2.5
 49
-2.5
  0
LTYPE
  2
PHANTOM1
 70
    64
  3
--- - - --- - - --- - - --- - - 
 72
    65
 73
     6
 40
10.0
 49
3.25
 49
-1.25
 49
1.25
 49
-1.25
 49
1.25
 49
-1.25
  0
LTYPE
  2
PHANTOM2
 70
    64
  3
--------  -  -  --------  -  -  
 72
    65
 73
     6
 40
20.0
 49
10.0
 49
-2.5
 49
1.25
 49
-2.5
 49
1.25
 49
-2.5
  0
LTYPE
  2
DOT
 70
    64
  3
-   -   -   -   -   -   -   -   
 72
    65
 73
     2
 40
2.5
 49
0.625
 49
-1.875
  0
LTYPE
  2
DUMMY
 70
    64
  3
ダミー
 72
    65
 73
     0
 40
0.0
  0
LTYPE
  2
RAND1
 70
    64
  3
ランダム線1
 72
    65
 73
     4
 40
10.0
 49
1.0
 49
-2.0
 49
3.0
 49
-4.0
  0
LTYPE
  2
RAND2
 70
    64
  3
ランダム線2
 72
    65
 73
     4
 40
14.0
 49
2.0
 49
-3.0
 49
4.0
 49
-5.0
  0
LTYPE
  2
RAND3
 70
    64
  3
ランダム線3
 72
    65
 73
     4
 40
18.0
 49
3.0
 49
-4.0
 49
5.0
 49
-6.0
  0
LTYPE
  2
RAND4
 70
    64
  3
ランダム線4
 72
    65
 73
     4
 40
22.0
 49
4.0
 49
-5.0
 49
6.0
 49
-7.0
  0
LTYPE
  2
RAND5
 70
    64
  3
ランダム線5
 72
    65
 73
     4
 40
26.0
 49
5.0
 49
-6.0
 49
7.0
 49
-8.0
  0
LTYPE
  2
LONG1
 70
    64
  3
----------  --  ----------  --  
 72
    65
 73
     4
 40
40.0
 49
32.5
 49
-2.5
 49
2.5
 49
-2.5
  0
LTYPE
  2
LONG2
 70
    64
  3
--------  -  -  --------  -  -  
 72
    65
 73
     6
 40
40.0
 49
30.0
 49
-2.5
 49
1.25
 49
-2.5
 49
1.25
 49
-2.5
  0
LTYPE
  2
LONG3
 70
    64
  3
+++++++++++++++..+++++++++++++++
 72
    65
 73
     2
 40
40.0
 49
37.5
 49
-2.5
  0
LTYPE
  2
LONG4
 70
    64
  3
+++++++++++++++..+++++++++++++++
 72
    65
 73
     2
 40
80.0
 49
75.0
 49
-5.0
  0
LTYPE
  2
LONG5
 70
    64
  3
----------  --  ----------  --  
 72
    65
 73
     4
 40
60.0
 49
37.5
 49
-7.5
 49
7.5
 49
-7.5
  0
LTYPE
  2
dashed
 70
   64
  3
-------   -------------   ------
 72
   65
 73
    2
 40
7.5
 49
6
 49
-1.5
  0
LTYPE
  2
dashed_spaced
 70
   64
  3
----        --------        ----
 72
   65
 73
    2
 40
12
 49
6
 49
-6
  0
LTYPE
  2
long_dashed_dotted
 70
   64
  3
------------- --- --------------
 72
   65
 73
    4
 40
15.25
 49
12
 49
-1.5
 49
0.25
 49
-1.5
  0
LTYPE
  2
long_dashed_double-dotted
 70
   64
  3
----------- --- --- ------------
 72
   65
 73
    6
 40
17
 49
12
 49
-1.5
 49
0.25
 49
-1.5
 49
0.25
 49
-1.5
  0
LTYPE
  2
long_dashed_triplicate-dotted
 70
   64
  3
--------- --- --- --- ----------
 72
   65
 73
    8
 40
18.75
 49
12
 49
-1.5
 49
0.25
 49
-1.5
 49
0.25
 49
-1.5
 49
0.25
 49
-1.5
  0
LTYPE
  2
dotted
 70
   64
  3
   -       -       -       -    
 72
   65
 73
    2
 40
1.75
 49
0.25
 49
-1.5
  0
LTYPE
  2
chain
 70
   64
  3
-------------- -- --------------
 72
   65
 73
    4
 40
18.5
 49
12
 49
-1.5
 49
3.5
 49
-1.5
  0
LTYPE
  2
chain_double_dash
 70
   64
  3
------------ -- -- -------------
 72
   65
 73
    6
 40
23.5
 49
12
 49
-1.5
 49
3.5
 49
-1.5
 49
3.5
 49
-1.5
  0
LTYPE
  2
dashed_dotted
 70
   64
  3
-----------     -     ----------
 72
   65
 73
    4
 40
9.25
 49
6
 49
-1.5
 49
0.25
 49
-1.5
  0
LTYPE
  2
double-dashed_dotted
 70
   64
  3
------   -----------   -   -----
 72
   65
 73
    6
 40
16.75
 49
6
 49
-1.5
 49
6
 49
-1.5
 49
0.25
 49
-1.5
  0
LTYPE
  2
dashed_double-dotted
 70
   64
  3
---------    -    -    ---------
 72
   65
 73
    6
 40
11
 49
6
 49
-1.5
 49
0.25
 49
-1.5
 49
0.25
 49
-1.5
  0
LTYPE
  2
double-dashed_double-dotted
 70
   64
  3
-----   ---------   -   -   ----
 72
   65
 73
    8
 40
18.5
 49
6
 49
-1.5
 49
6
 49
-1.5
 49
0.25
 49
-1.5
 49
0.25
 49
-1.5
  0
LTYPE
  2
dashed_triplicate-dotted
 70
   64
  3
-------    -    -    -    ------
 72
   65
 73
    8
 40
12.75
 49
6
 49
-1.5
 49
0.25
 49
-1.5
 49
0.25
 49
-1.5
 49
0.25
 49
-1.5
  0
LTYPE
  2
double-dashed_triplicate-dotted
 70
   64
  3
-----  ---------  -  -  -  -----
 72
   65
 73
   10
 40
20.25
 49
6
 49
-1.5
 49
6
 49
-1.5
 49
0.25
 49
-1.5
 49
0.25
 49
-1.5
 49
0.25
 49
-1.5
  0
LTYPE
  2
undefined
 70
   64
  3
--------------------------------
 72
   65
 73
    0
 40
0
  0
ENDTAB
  0
TABLE
  2
STYLE
  5
3
100
AcDbSymbolTable
 70
     1
  0
STYLE
  5
10
100
AcDbSymbolTableRecord
100
AcDbTextStyleTableRecord
  2
STANDARD
 70
     0
 40
0.0
 41
1.0
 50
0.0
 71
     0
 42
0.2
  3
txt
  4
bigfont.shx
  0
STYLE
  5
26
100
AcDbSymbolTableRecord
100
AcDbTextStyleTableRecord
  2
TATEGAKI
 70
    68
 40
0.0
 41
1.0
 50
0.0
 71
     0
 42
1.0
  3
txt
  4
bigfont.shx
  0
ENDTAB
  0
TABLE
  2
LAYER
 70
    8
  0
LAYER
  2
_0-0_
 70
   64
 62
    7
  6
CONTINUOUS
  0
LAYER
  2
_1-0_
 70
   64
 62
    7
  6
CONTINUOUS
  0
LAYER
  2
_2-0_
 70
   64
 62
    7
  6
CONTINUOUS
  0
LAYER
  2
_3-0_
 70
   64
 62
    7
  6
CONTINUOUS
  0
LAYER
  2
_5-0_
 70
   64
 62
    7
  6
CONTINUOUS
  0
LAYER
  2
_7-0_
 70
   64
 62
    7
  6
CONTINUOUS
  0
LAYER
  2
_e-0_
 70
   64
 62
    7
  6
CONTINUOUS
  0
LAYER
  2
ADD_LINE
 70
   64
 62
    7
  6
CONTINUOUS
  0
ENDTAB
  0
ENDSEC
  0
SECTION
  2
BLOCKS
  0
ENDSEC
  0
SECTION
  2
ENTITIES
  0
LINE
  8
_3-0_
  6
CONTINUOUS
 62
    7
 10
338.85183004206101
 20
417.74026352074634
 11
337.51359274521849
 21
418.9964941825869
  0
ARC
  8
_3-0_
  6
CONTINUOUS
 62
    7
 10
336.14476363810911
 20
417.53830802316486
 40
2
 50
46.810417517358779
 51
90.219207292547381
  0
LINE
  8
_2-0_
  6
CONTINUOUS
 62
    7
 10
175.52140377569458
 20
764.12313432835845
 11
176.0214037756939
 21
764.62313432835776
  0
LINE
  8
_2-0_
  6
CONTINUOUS
 62
    7
 10
176.01865671641789
 20
764.62313432835811
 11
146.01865671641789
 21
764.62313432835811
  0
LINE
  8
_0-0_
  6
CONTINUOUS
 62
    7
 10
295.01865671641787
 20
414.12313432835816
 11
1343.8992537313434
 21
414.12313432835816
  0
LINE
  8
_0-0_
  6
CONTINUOUS
 62
    7
 10
345.01865671641787
 20
264.12313432835816
 11
1343.8992537313434
 21
264.12313432835816
  0
LINE
  8
_0-0_
  6
CONTINUOUS
 62
    7
 10
145.01865671641787
 20
328.98380753805077
 11
295.01865671641781
 21
478.98380753805071
  0
LINE
  8
_0-0_
  6
CONTINUOUS
 62
    7
 10
145.01865671641795
 20
324.74116685093168
 11
295.01865671641792
 21
474.74116685093156
  0
LINE
  8
_0-0_
  6
CONTINUOUS
 62
    7
 10
145.01865671641787
 20
333.2264482251702
 11
295.01865671641781
 21
483.22644822517009
  0
LINE
  8
_0-0_
  6
CONTINUOUS
 62
    7
 10
388.17409507849618
 20
264.12313432835816
 11
538.17409507849618
 21
414.12313432835816
  0
LINE
  8
_0-0_
  6
CONTINUOUS
 62
    7
 10
392.4167357656155
 20
264.12313432835816
 11
542.4167357656155
 21
414.12313432835816
  0
LINE
  8
_0-0_
  6
CONTINUOUS
 62
    7
 10
396.6593764527347
 20
264.12313432835816
 11
546.6593764527347
 21
414.12313432835816
  0
LINE
  8
_0-0_
  6
CONTINUOUS
 62
    7
 10
888.17409507849618
 20
264.12313432835816
 11
1038.1740950784961
 21
414.12313432835816
  0
LINE
  8
_0-0_
  6
CONTINUOUS
 62
    7
 10
892.4167357656155
 20
264.12313432835816
 11
1042.4167357656156
 21
414.12313432835816
  0
LINE
  8
_0-0_
  6
CONTINUOUS
 62
    7
 10
896.6593764527347
 20
264.12313432835816
 11
1046.6593764527347
 21
414.12313432835816
  0
LINE
  8
_0-0_
  6
CONTINUOUS
 62
    7
 10
345.01865671641787
 20
264.12313432835816
 11
345.01865671641787
 21
134.14073536637824
  0
LINE
  8
_0-0_
  6
CONTINUOUS
 62
    7
 10
145.01865671641787
 20
764.12313432835822
 11
145.01865671641787
 21
134.14073536637824
  0
LINE
  8
_0-0_
  6
CONTINUOUS
 62
    7
 10
145.01865671641787
 20
625.52582116473548
 11
283.61596988004067
 21
764.12313432835822
  0
LINE
  8
_0-0_
  6
CONTINUOUS
 62
    7
 10
145.01865671641787
 20
629.76846185185468
 11
279.37332919292135
 21
764.12313432835822
  0
LINE
  8
_0-0_
  6
CONTINUOUS
 62
    7
 10
285.01865671641787
 20
764.12313432835822
 11
145.01865671641787
 21
764.12313432835822
  0
LINE
  8
_0-0_
  6
CONTINUOUS
 62
    7
 10
285.01865671641787
 20
764.12313432835822
 11
295.01865671641787
 21
754.12313432835822
  0
LINE
  8
_0-0_
  6
CONTINUOUS
 62
    7
 10
145.01865671641787
 20
621.28318047761616
 11
286.43863364178884
 21
762.70315740298713
  0
LINE
  8
_1-0_
  6
CONTINUOUS
 62
    7
 10
285.84708384116414
 20
766.12313432835822
 11
297.01865671641792
 21
754.95156145310432
  0
LINE
  8
_2-0_
  6
CONTINUOUS
 62
    7
 10
171.98586986976125
 20
764.12313432835845
 11
172.48586986976056
 21
764.62313432835776
  0
LINE
  8
_2-0_
  6
CONTINUOUS
 62
    7
 10
168.45033596382615
 20
764.12313432835674
 11
168.95033596382541
 21
764.62313432835595
  0
LINE
  8
_2-0_
  6
CONTINUOUS
 62
    7
 10
164.91480205788989
 20
764.12313432835379
 11
165.41480205789185
 21
764.62313432835572
  0
LINE
  8
_2-0_
  6
CONTINUOUS
 62
    7
 10
161.37926815195675
 20
764.12313432835401
 11
161.8792681519588
 21
764.62313432835595
  0
LINE
  8
_2-0_
  6
CONTINUOUS
 62
    7
 10
157.8437342460237
 20
764.12313432835413
 11
158.34373424602569
 21
764.62313432835629
  0
LINE
  8
_2-0_
  6
CONTINUOUS
 62
    7
 10
154.30820034009059
 20
764.12313432835447
 11
154.80820034009264
 21
764.62313432835663
  0
LINE
  8
_2-0_
  6
CONTINUOUS
 62
    7
 10
150.77266643415754
 20
764.12313432835481
 11
151.2726664341595
 21
764.62313432835685
  0
LINE
  8
_2-0_
  6
CONTINUOUS
 62
    7
 10
147.23713252822947
 20
764.12313432835549
 11
147.73713252823143
 21
764.62313432835742
  0
LINE
  8
_1-0_
  6
CONTINUOUS
 62
    9
 10
146.01865671641789
 20
766.12313432835822
 11
146.01865671641789
 21
764.12313432835822
  0
LINE
  8
_1-0_
  6
CONTINUOUS
 62
    7
 10
146.01865671641789
 20
766.12313432835822
 11
146.01865671641789
 21
764.12313432835822
  0
LINE
  8
_1-0_
  6
CONTINUOUS
 62
    7
 10
176.01865671641789
 20
764.12313432835822
 11
176.01865671641789
 21
764.62313432835811
  0
LINE
  8
_1-0_
  6
CONTINUOUS
 62
    7
 10
285.84708384116414
 20
766.12313432835822
 11
146.01865671641789
 21
766.12313432835822
  0
LINE
  8
_3-0_
  6
CONTINUOUS
 62
    7
 10
145.01865671641787
 20
765.0902190052293
 11
145.01865671641787
 21
764.12313432835822
  0
ARC
  8
_3-0_
  6
CONTINUOUS
 62
    7
 10
147.01865671641792
 20
765.0902190052293
 40
2
 50
90
 51
180
  0
LINE
  8
_3-0_
  6
CONTINUOUS
 62
    7
 10
147.01865671641792
 20
767.0902190052293
 11
151.52616734062343
 21
766.12313432835822
  0
LINE
  8
_1-0_
  6
CONTINUOUS
 62
    7
 10
297.01865671641792
 20
419.12313432835816
 11
297.01865671641792
 21
754.95156145310432
  0
LINE
  8
_0-0_
  6
CONTINUOUS
 62
    7
 10
295.01865671641787
 20
417.12313432835811
 11
295.01865671641787
 21
754.12313432835822
  0
LINE
  8
_1-0_
  6
CONTINUOUS
 62
    7
 10
296.01774415031713
 20
416.12313516113574
 11
295.01865671641787
 21
416.12313516113574
  0
LINE
  8
_1-0_
  6
CONTINUOUS
 62
    7
 10
298.01865671641792
 20
418.12313432835816
 11
335.01865671641787
 21
418.12313432835816
  0
ARC
  8
_1-0_
  6
CONTINUOUS
 62
    7
 10
298.01865671641792
 20
419.12313432835816
 40
1
 50
180
 51
270
  0
LINE
  8
_1-0_
  6
CONTINUOUS
 62
    7
 10
295.01865671641787
 20
417.12313432835811
 11
295.01865671641787
 21
418.99761455932355
  0
LINE
  8
_1-0_
  6
CONTINUOUS
 62
    7
 10
296.01865671641792
 20
416.12313432835822
 11
1343.8992537313434
 21
416.12313432835822
  0
ARC
  8
_1-0_
  6
CONTINUOUS
 62
    7
 10
296.01865671641792
 20
417.12313432835811
 40
1
 50
180
 51
270
  0
LINE
  8
_0-0_
  6
CONTINUOUS
 62
    7
 10
295.01865671641787
 20
414.12313432835816
 11
295.01865671641787
 21
417.12313432835811
  0
LINE
  8
_1-0_
  6
CONTINUOUS
 62
    7
 10
335.01865671641787
 20
416.12313432835822
 11
335.01865671641787
 21
418.12313432835816
  0
LINE
  8
_2-0_
  6
CONTINUOUS
 62
    7
 10
146.01865671641789
 20
764.62313432835811
 11
146.01865671641789
 21
764.12313432835822
  0
LINE
  8
_2-0_
  6
CONTINUOUS
 62
    7
 10
176.01865671641789
 20
764.12313432835822
 11
146.01865671641789
 21
764.12313432835822
  0
LINE
  8
_2-0_
  6
CONTINUOUS
 62
    7
 10
176.01865671641789
 20
764.62313432835811
 11
176.01865671641789
 21
764.12313432835822
  0
LINE
  8
_3-0_
  6
CONTINUOUS
 62
    7
 10
151.52616734062343
 20
766.12313432835822
 11
146.01865671641789
 21
766.12313432835822
  0
LINE
  8
_3-0_
  6
CONTINUOUS
 62
    7
 10
146.01865671641789
 20
766.12313432835822
 11
146.01865671641789
 21
764.12313432835822
  0
LINE
  8
_3-0_
  6
CONTINUOUS
 62
    7
 10
146.01865671641789
 20
764.12313432835822
 11
145.01865671641787
 21
764.12313432835822
  0
LINE
  8
_3-0_
  6
CONTINUOUS
 62
    7
 10
333.41235322621037
 20
419.15369259561891
 11
331.98542639461857
 21
418.12313432835816
  0
ARC
  8
_3-0_
  6
CONTINUOUS
 62
    7
 10
334.58333433389907
 20
417.53233413881912
 40
2
 50
90.21920729254758
 51
125.83765295427852
  0
LINE
  8
_3-0_
  6
CONTINUOUS
 62
    7
 10
336.13711187877743
 20
419.53829338575599
 11
334.57568257456751
 21
419.53231950141037
  0
LINE
  8
_3-0_
  6
CONTINUOUS
 62
    7
 10
339.28159438813168
 20
417.15675535360344
 11
339.78425693343377
 21
416.12313432835822
  0
ARC
  8
_3-0_
  6
CONTINUOUS
 62
    7
 10
337.48300093495152
 20
416.2820773613243
 40
2
 50
25.934221485997547
 51
46.810417517359113
  0
LINE
  8
_3-0_
  6
CONTINUOUS
 62
    7
 10
331.98542639461857
 20
418.12313432835816
 11
335.01865671641787
 21
418.12313432835816
  0
LINE
  8
_3-0_
  6
CONTINUOUS
 62
    7
 10
335.01865671641787
 20
418.12313432835816
 11
335.01865671641787
 21
416.12313432835822
  0
LINE
  8
_3-0_
  6
CONTINUOUS
 62
    7
 10
335.01865671641787
 20
416.12313432835822
 11
339.78425693343377
 21
416.12313432835822
  0
LINE
  8
_e-0_
  6
CONTINUOUS
 62
    7
 10
670.24938727840447
 20
500.30354982122304
 11
693.34339804598949
 21
500.30354982122304
  0
LINE
  8
_e-0_
  6
CONTINUOUS
 62
    7
 10
652.92887920271573
 20
470.30354982122304
 11
676.02288997030075
 21
470.30354982122304
  0
TEXT
  8
_e-0_
 62
    7
 10
682.93403716489001
 20
460.19011698540214
 40
20
 41
1
 50
0
  1
ＡＹボンド５８０ＮＦ
  0
LINE
  8
_e-0_
  6
CONTINUOUS
 62
    7
 10
620.35414164250199
 20
413.88244932371066
 11
670.24938727840447
 21
500.30354982122304
  0
LINE
  8
_e-0_
  6
CONTINUOUS
 62
    7
 10
224.18175878701936
 20
893.4993916892281
 11
247.27576955460444
 21
893.4993916892281
  0
LINE
  8
_e-0_
  6
CONTINUOUS
 62
    7
 10
206.86125071133048
 20
863.4993916892281
 11
229.95526147891559
 21
863.4993916892281
  0
LINE
  8
_e-0_
  6
CONTINUOUS
 62
    7
 10
149.98442203083002
 20
764.98583464121054
 11
224.18175878701936
 21
893.4993916892281
  0
TEXT
  8
_e-0_
 62
    7
 10
233.78653581566525
 20
852.58700691310878
 40
20
 41
1
 50
0
  1
ＡＹブチルテープ
  0
TEXT
  8
_e-0_
 62
    7
 10
252.65184875319974
 20
883.29798146258349
 40
20
 41
1
 50
0
  1
ＡＹシールＭＳ－１
  0
LINE
  8
_e-0_
  6
CONTINUOUS
 62
    7
 10
346.76008423873202
 20
672.21280513139982
 11
369.85409500631704
 21
672.21280513139982
  0
LINE
  8
_e-0_
  6
CONTINUOUS
 62
    7
 10
329.43957616304311
 20
642.21280513139982
 11
352.53358693062819
 21
642.21280513139982
  0
LINE
  8
_e-0_
  6
CONTINUOUS
 62
    7
 10
296.86483860282942
 20
585.79170463388743
 11
346.76008423873202
 21
672.21280513139982
  0
TEXT
  8
_e-0_
 62
    7
 10
359.44473412521745
 20
632.09937229557897
 40
20
 41
1
 50
0
  1
ＡＹボンド５８０ＮＦ
  0
LINE
  8
_e-0_
  6
CONTINUOUS
 62
    7
 10
376.35428122732975
 20
483.48567977518286
 11
396.35428122732975
 21
483.48567977518286
  0
TEXT
  8
_e-0_
 62
    7
 10
403.49693953185908
 20
475.32329751249222
 40
20
 41
1
 50
0
  1
ＦＬシール
  0
LINE
  8
_e-0_
  6
CONTINUOUS
 62
    7
 10
337.88924917518989
 20
416.86228994611128
 11
376.35428122732975
 21
483.48567977518286
  0
LINE
  8
_e-0_
  6
CONTINUOUS
 62
    7
 10
1456.7094782354384
 20
217.11386430366667
 11
1456.7094782354384
 21
37.113864303666659
  0
TEXT
  8
_e-0_
 62
    7
 10
1076.7094782354384
 20
162.11386430366667
 40
20.000000000000018
 41
0.9999999999999986
 50
0
  1
ﾘﾍﾞｯﾄﾙｰﾌ ﾅｲﾝ
  0
TEXT
  8
_e-0_
 62
    7
 10
1076.7094782354384
 20
132.11386430366667
 40
20.000000000000018
 41
0.9999999999999986
 50
0
  1
ﾘﾍﾞｯﾄﾙｰﾌ SGM
  0
TEXT
  8
_e-0_
 62
    7
 10
1076.7094782354384
 20
102.11386430366666
 40
20
 41
1.0000000000000002
 50
0
  1
ﾘﾍﾞｯﾄﾙｰﾌ COOL
  0
TEXT
  8
_e-0_
 62
    7
 10
1076.7094782354384
 20
72.113864303666659
 40
19.999999999999996
 41
1.0000000000000002
 50
0
  1
ﾘﾍﾞｯﾄﾙｰﾌ SW
  0
TEXT
  8
_e-0_
 62
    7
 10
1076.7094782354384
 20
42.113864303666659
 40
19.999999999999972
 41
1.0000000000000013
 50
0
  1
ﾘﾍﾞｯﾄﾙｰﾌ HP
  0
LINE
  8
_e-0_
  6
CONTINUOUS
 62
    7
 10
1056.7094782354384
 20
217.11386430366667
 11
1056.7094782354384
 21
37.113864303666659
  0
TEXT
  8
_e-0_
 62
    7
 10
1076.7094782354384
 20
192.11386430366667
 40
20.000000000000018
 41
0.9999999999999993
 50
0
  1
シート名称
  0
LINE
  8
_e-0_
  6
CONTINUOUS
 62
    7
 10
1227.3133539510823
 20
217.11386430366667
 11
1227.3133539510823
 21
37.113864303666659
  0
LINE
  8
_e-0_
  6
CONTINUOUS
 62
    9
 10
1287.3133539510823
 20
217.11386430366667
 11
1287.3133539510823
 21
37.113864303666659
  0
TEXT
  8
_e-0_
 62
    7
 10
1247.3133539510823
 20
162.11386430366667
 40
20.000000000000018
 41
0.9999999999999988
 50
0
  1
○
  0
TEXT
  8
_e-0_
 62
    7
 10
1247.3133539510823
 20
132.11386430366667
 40
20.000000000000018
 41
0.9999999999999988
 50
0
  1
○
  0
TEXT
  8
_e-0_
 62
    7
 10
1247.3133539510823
 20
102.11386430366666
 40
20
 41
0.9999999999999997
 50
0
  1
○
  0
TEXT
  8
_e-0_
 62
    7
 10
1247.3133539510823
 20
72.113864303666659
 40
19.999999999999996
 41
1
 50
0
  1
○
  0
TEXT
  8
_e-0_
 62
    7
 10
1247.3133539510823
 20
42.113864303666659
 40
19.999999999999972
 41
1.0000000000000011
 50
0
  1
○
  0
LINE
  8
_e-0_
  6
CONTINUOUS
 62
    7
 10
1287.3133539510823
 20
37.113864303666659
 11
1287.3133539510823
 21
217.11386430366667
  0
TEXT
  8
_e-0_
 62
    7
 10
1237.3133539510823
 20
192.11386430366667
 40
20.000000000000018
 41
0.9999999999999993
 50
0
  1
対応
  0
TEXT
  8
_e-0_
 62
    7
 10
1308.4394166762686
 20
191.17664412322318
 40
20.000000000000018
 41
0.9999999999999991
 50
0
  1
シート厚み
  0
TEXT
  8
_e-0_
 62
    7
 10
1298.08477804159
 20
162.11386430366667
 40
20.000000000000018
 41
0.9999999999999995
 50
0
  1
1.5㎜、2.0㎜
  0
TEXT
  8
_e-0_
 62
    7
 10
1298.08477804159
 20
132.11386430366667
 40
20.000000000000018
 41
0.9999999999999995
 50
0
  1
1.5㎜、2.0㎜
  0
TEXT
  8
_e-0_
 62
    7
 10
1298.08477804159
 20
102.11386430366666
 40
20
 41
1.0000000000000004
 50
0
  1
1.5㎜、2.0㎜
  0
TEXT
  8
_e-0_
 62
    7
 10
1298.08477804159
 20
72.113864303666659
 40
19.999999999999996
 41
1.0000000000000007
 50
0
  1
1.5㎜、2.0㎜
  0
TEXT
  8
_e-0_
 62
    7
 10
1333.08477804159
 20
42.113864303666659
 40
19.999999999999972
 41
1.0000000000000009
 50
0
  1
2.0㎜
  0
TEXT
  8
_e-0_
 62
    7
 10
1418.2873049797549
 20
112.49817553199023
 40
10
 41
1.0000000000000053
 50
0
  1
※
  0
TEXT
  8
_e-0_
 62
    7
 10
1418.5330740221152
 20
82.858429023348279
 40
9.9999999999999858
 41
1.0000000000000067
 50
0
  1
※
  0
TEXT
  8
_e-0_
 62
    7
 10
1360.9141298235636
 20
22.317321588615187
 40
9.9999999999999645
 41
1.0000000000000044
 50
0
  1
※印は受注生産品
  0
LINE
  8
_e-0_
  6
CONTINUOUS
 62
    7
 10
1056.7094782354384
 20
217.11386430366667
 11
1456.7094782354384
 21
217.11386430366667
  0
LINE
  8
_e-0_
  6
CONTINUOUS
 62
    7
 10
1056.7094782354384
 20
37.113864303666659
 11
1456.7094782354384
 21
37.113864303666659
  0
LINE
  8
_e-0_
  6
CONTINUOUS
 62
    7
 10
1056.7094782354384
 20
187.11386430366667
 11
1456.7094782354384
 21
187.11386430366667
  0
LINE
  8
_e-0_
  6
CONTINUOUS
 62
    7
 10
1056.7094782354384
 20
157.11386430366667
 11
1456.7094782354384
 21
157.11386430366667
  0
LINE
  8
_e-0_
  6
CONTINUOUS
 62
    7
 10
1056.7094782354384
 20
127.11386430366666
 11
1456.7094782354384
 21
127.11386430366666
  0
LINE
  8
_e-0_
  6
CONTINUOUS
 62
    7
 10
1056.7094782354384
 20
97.113864303666659
 11
1456.7094782354384
 21
97.113864303666659
  0
LINE
  8
_e-0_
  6
CONTINUOUS
 62
    7
 10
1056.7094782354384
 20
67.113864303666659
 11
1456.7094782354384
 21
67.113864303666659
  0
LINE
  8
_e-0_
  6
CONTINUOUS
 62
    9
 10
1227.3133539510823
 20
172.11386430366667
 11
1287.3133539510823
 21
172.11386430366667
  0
LINE
  8
_e-0_
  6
CONTINUOUS
 62
    9
 10
1227.3133539510823
 20
142.11386430366667
 11
1287.3133539510823
 21
142.11386430366667
  0
LINE
  8
_e-0_
  6
CONTINUOUS
 62
    9
 10
1257.3133539510823
 20
187.11386430366667
 11
1257.3133539510823
 21
37.113864303666659
  0
LINE
  8
_e-0_
  6
CONTINUOUS
 62
    9
 10
1227.3133539510823
 20
52.113864303666659
 11
1287.3133539510823
 21
52.113864303666659
  0
LINE
  8
_e-0_
  6
CONTINUOUS
 62
    9
 10
1227.3133539510823
 20
82.113864303666659
 11
1287.3133539510823
 21
82.113864303666659
  0
LINE
  8
_e-0_
  6
CONTINUOUS
 62
    9
 10
1227.3133539510823
 20
112.11386430366666
 11
1287.3133539510823
 21
112.11386430366666
  0
TEXT
  8
_e-0_
 62
    7
 10
372.92931123964536
 20
661.87781342327389
 40
20
 41
1
 50
0
  1
リベットルーフ
  0
TEXT
  8
_e-0_
 62
    7
 10
696.41861427931781
 20
489.968558113097
 40
20
 41
1
 50
0
  1
リベットルーフ
  0
LINE
  8
_7-0_
  6
CONTINUOUS
 62
    7
 10
140.02088711716084
 20
754.00067655745477
 11
140.02088711716084
 21
763.30461834648281
  0
LINE
  8
_7-0_
  6
CONTINUOUS
 62
    7
 10
138.82088711716094
 20
770.66252935487751
 11
138.82088711716094
 21
725.66560893227643
  0
LINE
  8
_7-0_
  6
CONTINUOUS
 62
    7
 10
135.02088622813289
 20
720.66252935487751
 11
138.82088711716094
 21
725.66560893227643
  0
LINE
  8
_7-0_
  6
CONTINUOUS
 62
    7
 10
210.32088795457327
 20
769.46252935487769
 11
210.32088795457327
 21
770.66252935487751
  0
LINE
  8
_7-0_
  6
CONTINUOUS
 62
    7
 10
208.82088795457321
 20
769.46252935487769
 11
210.32088795457327
 21
769.46252935487769
  0
LINE
  8
_7-0_
  6
CONTINUOUS
 62
    7
 10
179.82088809683418
 20
770.66252935487751
 11
138.82088711716094
 21
770.66252935487751
  0
LINE
  8
_7-0_
  6
CONTINUOUS
 62
    7
 10
179.82088809683418
 20
770.66252935487751
 11
180.32089682264314
 21
770.36253181395455
  0
LINE
  8
_7-0_
  6
CONTINUOUS
 62
    7
 10
180.32089682264314
 20
770.36253181395455
 11
180.82089042019533
 21
770.66252935487751
  0
LINE
  8
_7-0_
  6
CONTINUOUS
 62
    7
 10
180.82089042019533
 20
770.66252935487751
 11
191.82089257616127
 21
770.66252935487751
  0
LINE
  8
_7-0_
  6
CONTINUOUS
 62
    7
 10
191.82089257616127
 20
770.66252935487751
 11
192.32090130197008
 21
770.36253181395455
  0
LINE
  8
_7-0_
  6
CONTINUOUS
 62
    7
 10
192.32090130197008
 20
770.36253181395455
 11
192.82089489952241
 21
770.66252935487751
  0
LINE
  8
_7-0_
  6
CONTINUOUS
 62
    7
 10
192.82089489952241
 20
770.66252935487751
 11
210.32088074754199
 21
770.66252935487751
  0
LINE
  8
_7-0_
  6
CONTINUOUS
 62
    7
 10
197.42088656341835
 20
769.46252935487769
 11
207.62088795457331
 21
769.46252935487769
  0
LINE
  8
_7-0_
  6
CONTINUOUS
 62
    7
 10
186.02088749040036
 20
769.46252935487769
 11
196.2208865634183
 21
769.46252935487769
  0
LINE
  8
_7-0_
  6
CONTINUOUS
 62
    7
 10
151.82088765794489
 20
769.46252935487769
 11
162.02089020409034
 21
769.46252935487769
  0
LINE
  8
_7-0_
  6
CONTINUOUS
 62
    7
 10
163.22089020409038
 20
769.46252935487769
 11
173.42088684975295
 21
769.46252935487769
  0
LINE
  8
_7-0_
  6
CONTINUOUS
 62
    7
 10
174.62088684975299
 20
769.46252935487769
 11
184.82088749040045
 21
769.46252935487769
  0
LINE
  8
_7-0_
  6
CONTINUOUS
 62
    7
 10
135.02088622813289
 20
720.66252935487751
 11
136.26601439152751
 21
720.66252935487751
  0
LINE
  8
_7-0_
  6
CONTINUOUS
 62
    7
 10
136.26601439152751
 20
720.66252935487751
 11
139.15223739776124
 21
724.46252935487769
  0
LINE
  8
_7-0_
  6
CONTINUOUS
 62
    7
 10
140.02088711716084
 20
768.26252935487764
 11
140.02088711716084
 21
725.66252935487751
  0
LINE
  8
_7-0_
  6
CONTINUOUS
 62
    7
 10
141.22088711716088
 20
769.46252935487769
 11
150.62088765794499
 21
769.46252935487769
  0
ARC
  8
_7-0_
  6
CONTINUOUS
 62
    7
 10
141.22088711716088
 20
768.26252935487764
 40
1.2
 50
90
 51
180
  0
LINE
  8
_7-0_
  6
CONTINUOUS
 62
    7
 10
139.15223739776124
 20
724.46252935487769
 11
144.39699561038978
 21
724.46252935487769
  0
LINE
  8
_7-0_
  6
CONTINUOUS
 62
    7
 10
140.02088711716084
 20
725.66252935487751
 11
144.39699561038978
 21
725.66252935487751
  0
ARC
  8
_7-0_
  6
CONTINUOUS
 62
    7
 10
144.39699561038978
 20
725.0625293548776
 40
0.5999999999999943
 50
270
 51
90
  0
LINE
  8
_7-0_
  6
CONTINUOUS
 62
    7
 10
150.62088765794499
 20
766.78588844277033
 11
150.62088765794499
 21
769.46252935487769
  0
ARC
  8
_7-0_
  6
CONTINUOUS
 62
    7
 10
151.22088765794501
 20
766.78588844277033
 40
0.5999999999999943
 50
180
 51
0
  0
LINE
  8
_7-0_
  6
CONTINUOUS
 62
    7
 10
151.82088765794489
 20
766.78588844277033
 11
151.82088765794489
 21
769.46252935487769
  0
LINE
  8
_7-0_
  6
CONTINUOUS
 62
    7
 10
162.02089020409034
 20
769.46252935487769
 11
162.02089020409034
 21
766.78588844277033
  0
LINE
  8
_7-0_
  6
CONTINUOUS
 62
    7
 10
163.22089020409038
 20
769.46252935487769
 11
163.22089020409038
 21
766.78588844277033
  0
LINE
  8
_7-0_
  6
CONTINUOUS
 62
    7
 10
173.42088684975295
 20
769.46252935487769
 11
173.42088684975295
 21
766.78588844277033
  0
LINE
  8
_7-0_
  6
CONTINUOUS
 62
    7
 10
174.62088684975299
 20
769.46252935487769
 11
174.62088684975299
 21
766.78588844277033
  0
LINE
  8
_7-0_
  6
CONTINUOUS
 62
    7
 10
184.82088749040045
 20
769.46252935487769
 11
184.82088749040045
 21
766.78588844277033
  0
LINE
  8
_7-0_
  6
CONTINUOUS
 62
    7
 10
186.02088749040036
 20
769.46252935487769
 11
186.02088749040036
 21
766.78588844277033
  0
LINE
  8
_7-0_
  6
CONTINUOUS
 62
    7
 10
196.2208865634183
 20
769.46252935487769
 11
196.2208865634183
 21
766.78588844277033
  0
LINE
  8
_7-0_
  6
CONTINUOUS
 62
    7
 10
197.42088656341835
 20
769.46252935487769
 11
197.42088656341835
 21
766.78588844277033
  0
LINE
  8
_7-0_
  6
CONTINUOUS
 62
    7
 10
207.62088795457331
 20
769.46252935487769
 11
207.62088795457331
 21
766.78588844277033
  0
LINE
  8
_7-0_
  6
CONTINUOUS
 62
    7
 10
208.82088795457321
 20
769.46252935487769
 11
208.82088795457321
 21
766.78588844277033
  0
ARC
  8
_7-0_
  6
CONTINUOUS
 62
    7
 10
162.62089020409036
 20
766.78588844277033
 40
0.5999999999999943
 50
180
 51
0
  0
ARC
  8
_7-0_
  6
CONTINUOUS
 62
    7
 10
174.02088684975297
 20
766.78588844277033
 40
0.5999999999999943
 50
180
 51
0
  0
ARC
  8
_7-0_
  6
CONTINUOUS
 62
    7
 10
185.42088749040047
 20
766.78588844277033
 40
0.5999999999999943
 50
180
 51
0
  0
ARC
  8
_7-0_
  6
CONTINUOUS
 62
    7
 10
196.82088656341833
 20
766.78588844277033
 40
0.5999999999999943
 50
180
 51
0
  0
ARC
  8
_7-0_
  6
CONTINUOUS
 62
    7
 10
208.22088795457319
 20
766.78588844277033
 40
0.5999999999999943
 50
180
 51
0
  0
SOLID
  8
_3-0_
  6
CONTINUOUS
 62
   70
 10
174.93897129144713
 20
769.16811338543766
 11
174.93897129144713
 21
766.47195101072384
 12
184.47183111632825
 22
769.16811338543766
 13
184.47183111632825
 23
766.47195101072384
  0
LINE
  8
_5-0_
  6
CONTINUOUS
 62
    7
 10
181.85751252131473
 20
768.59236153958341
 11
181.85751252131473
 21
769.1173615395835
  0
LINE
  8
_5-0_
  6
CONTINUOUS
 62
    7
 10
181.85751252131473
 20
764.19236153958332
 11
181.85751252131473
 21
767.19236153958354
  0
LINE
  8
_5-0_
  6
CONTINUOUS
 62
    7
 10
178.70751252131475
 20
767.19236153958354
 11
178.70751252131475
 21
764.19236153958332
  0
LINE
  8
_5-0_
  6
CONTINUOUS
 62
    7
 10
178.70751252131475
 20
769.1173615395835
 11
178.70751252131475
 21
768.59236153958341
  0
LINE
  8
_5-0_
  6
CONTINUOUS
 62
    7
 10
178.70751252131498
 20
764.19236153958332
 11
177.78462096715941
 21
764.19236153958332
  0
LINE
  8
_5-0_
  6
CONTINUOUS
 62
    7
 10
182.78040511555758
 20
764.19236153958332
 11
181.85751252131496
 21
764.19236153958332
  0
LINE
  8
_5-0_
  6
CONTINUOUS
 62
    7
 10
178.70751252131475
 20
764.89236153958348
 11
177.78462096715955
 21
764.89236153958348
  0
LINE
  8
_5-0_
  6
CONTINUOUS
 62
    7
 10
182.78040511555764
 20
764.89236153958348
 11
181.85751252131473
 21
764.89236153958348
  0
LINE
  8
_5-0_
  6
CONTINUOUS
 62
    7
 10
178.70751252131475
 20
765.39236153958336
 11
177.78462096715955
 21
765.39236153958336
  0
LINE
  8
_5-0_
  6
CONTINUOUS
 62
    7
 10
182.78040511555764
 20
765.39236153958336
 11
181.85751252131473
 21
765.39236153958336
  0
LINE
  8
_5-0_
  6
CONTINUOUS
 62
    7
 10
178.70751252131475
 20
765.89236153958336
 11
177.78462096715955
 21
765.89236153958359
  0
LINE
  8
_5-0_
  6
CONTINUOUS
 62
    7
 10
182.78040511555764
 20
765.89236153958336
 11
181.85751252131473
 21
765.89236153958336
  0
LINE
  8
_5-0_
  6
CONTINUOUS
 62
    7
 10
178.70751252131475
 20
766.39236153958336
 11
177.78462096715955
 21
766.39236153958348
  0
LINE
  8
_5-0_
  6
CONTINUOUS
 62
    7
 10
182.78040511555764
 20
766.39236153958336
 11
181.85751252131473
 21
766.39236153958336
  0
LINE
  8
_5-0_
  6
CONTINUOUS
 62
    7
 10
178.70751252131475
 20
766.89236153958348
 11
177.78462096715955
 21
766.89236153958348
  0
LINE
  8
_5-0_
  6
CONTINUOUS
 62
    7
 10
182.78040511555764
 20
766.89236153958348
 11
181.85751252131473
 21
766.89236153958348
  0
LINE
  8
_5-0_
  6
CONTINUOUS
 62
    7
 10
181.85751252131473
 20
767.19236153958354
 11
182.78040511555764
 21
767.19236153958354
  0
LINE
  8
_5-0_
  6
CONTINUOUS
 62
    7
 10
177.78462096715955
 20
767.19236153958354
 11
178.70751252131475
 21
767.19236153958354
  0
LINE
  8
_5-0_
  6
CONTINUOUS
 62
    7
 10
178.70751252131475
 20
769.09236153958341
 11
177.78462096715955
 21
769.09236153958341
  0
LINE
  8
_5-0_
  6
CONTINUOUS
 62
    7
 10
182.78040511555764
 20
769.09236153958341
 11
181.85751252131473
 21
769.09236153958341
  0
LINE
  8
_5-0_
  6
CONTINUOUS
 62
    7
 10
178.78084677954661
 20
769.59236153958341
 11
177.78462096715955
 21
769.59236153958341
  0
LINE
  8
_5-0_
  6
CONTINUOUS
 62
    7
 10
182.78040511555764
 20
769.59236153958341
 11
181.78417826308282
 21
769.59236153958341
  0
LINE
  8
_5-0_
  6
CONTINUOUS
 62
    7
 10
179.04558083362957
 20
770.09236153958341
 11
177.78462096715955
 21
770.09236153958341
  0
LINE
  8
_5-0_
  6
CONTINUOUS
 62
    7
 10
182.78040511555764
 20
770.09236153958341
 11
181.51944420900008
 21
770.09236153958341
  0
LINE
  8
_5-0_
  6
CONTINUOUS
 62
    7
 10
181.85751252131473
 20
767.19236153958354
 11
182.78040511555764
 21
767.19236153958354
  0
LINE
  8
_5-0_
  6
CONTINUOUS
 62
    7
 10
177.78462096715955
 20
767.19236153958354
 11
178.70751252131498
 21
767.19236153958354
  0
LINE
  8
_5-0_
  6
CONTINUOUS
 62
    7
 10
181.85751252131496
 20
768.59236153958341
 11
182.78040511555764
 21
768.59236153958341
  0
LINE
  8
_5-0_
  6
CONTINUOUS
 62
    7
 10
177.78462096715955
 20
768.59236153958341
 11
178.70751252131498
 21
768.59236153958341
  0
ARC
  8
_5-0_
  6
CONTINUOUS
 62
    7
 10
182.44885867516098
 20
767.89236153958336
 40
0.9163461538461776
 50
130.19046238381176
 51
229.80953761619006
  0
ARC
  8
_5-0_
  6
CONTINUOUS
 62
    7
 10
178.11616636746857
 20
767.89236153958336
 40
0.9163461538461765
 50
310.19046238380901
 51
49.809537616188521
  0
ARC
  8
_5-0_
  6
CONTINUOUS
 62
    7
 10
180.28251252131474
 20
769.1173615395835
 40
1.5749999999999891
 50
0
 51
180
  0
ARC
  8
_5-0_
  6
CONTINUOUS
 62
    7
 10
180.28251252131474
 20
764.19236153958332
 40
1.5749999999999891
 50
180
 51
0
  0
LINE
  8
_5-0_
  6
CONTINUOUS
 62
    7
 10
182.78040511555764
 20
767.19236153958354
 11
182.78040511555764
 21
770.69236153958343
  0
LINE
  8
_5-0_
  6
CONTINUOUS
 62
    7
 10
177.78462096715955
 20
767.19236153958354
 11
177.78462096715955
 21
770.69236153958343
  0
LINE
  8
_5-0_
  6
CONTINUOUS
 62
    7
 10
182.78040511555764
 20
767.19236153958354
 11
182.78040511555764
 21
764.89236153958348
  0
LINE
  8
_5-0_
  6
CONTINUOUS
 62
    7
 10
177.78462096715955
 20
767.19236153958354
 11
177.78462096715955
 21
764.89236153958348
  0
LINE
  8
_5-0_
  6
CONTINUOUS
 62
    7
 10
177.78462491550911
 20
757.30618947837002
 11
177.78487785206471
 21
757.30474522589827
  0
LINE
  8
_5-0_
  6
CONTINUOUS
 62
    7
 10
177.7846247286252
 20
754.20753855088265
 11
177.78487766518077
 21
754.2060942984109
  0
LINE
  8
_5-0_
  6
CONTINUOUS
 62
    7
 10
177.78462454174127
 20
751.10888762339528
 11
177.78487747829672
 21
751.10744337092353
  0
LINE
  8
_5-0_
  6
CONTINUOUS
 62
    7
 10
177.78462435485721
 20
748.01023669590791
 11
177.78487753161144
 21
748.00879255532459
  0
LINE
  8
_5-0_
  6
CONTINUOUS
 62
    7
 10
177.78462408833855
 20
744.97482354245096
 11
177.78487968445182
 21
744.97336467160244
  0
LINE
  8
_5-0_
  6
CONTINUOUS
 62
    7
 10
182.78040095429091
 20
744.97482354245096
 11
182.78014535817761
 21
744.97336467160244
  0
LINE
  8
_5-0_
  6
CONTINUOUS
 62
    7
 10
182.78040095429091
 20
744.97482354245096
 11
181.70602915953418
 21
744.97482354245096
  0
LINE
  8
_5-0_
  6
CONTINUOUS
 62
    7
 10
182.78040068777221
 20
748.01023669590791
 11
182.78014751101807
 21
748.00879255532459
  0
LINE
  8
_5-0_
  6
CONTINUOUS
 62
    7
 10
182.78040068777221
 20
748.01023669590791
 11
181.70592729259624
 21
748.01023669590791
  0
LINE
  8
_5-0_
  6
CONTINUOUS
 62
    7
 10
182.78040050088828
 20
751.10888762339528
 11
182.78014756433271
 21
751.10744337092353
  0
LINE
  8
_5-0_
  6
CONTINUOUS
 62
    7
 10
182.78040050088828
 20
751.10888762339528
 11
181.70592762440486
 21
751.10888762339528
  0
LINE
  8
_5-0_
  6
CONTINUOUS
 62
    7
 10
182.78040031400423
 20
754.20753855088265
 11
182.78014737744877
 21
754.2060942984109
  0
LINE
  8
_5-0_
  6
CONTINUOUS
 62
    7
 10
182.78040031400423
 20
754.20753855088265
 11
181.7059278112888
 21
754.20753855088265
  0
LINE
  8
_5-0_
  6
CONTINUOUS
 62
    7
 10
182.78040012712034
 20
757.30618947837002
 11
182.78014719056472
 21
757.30474522589827
  0
LINE
  8
_5-0_
  6
CONTINUOUS
 62
    7
 10
182.15751252131474
 20
752.57244948823222
 11
182.15751252131474
 21
751.10888762339528
  0
LINE
  8
_5-0_
  6
CONTINUOUS
 62
    7
 10
178.40751252131474
 20
752.57244983509622
 11
178.40751252131474
 21
751.10888762339528
  0
LINE
  8
_5-0_
  6
CONTINUOUS
 62
    7
 10
182.15751252131474
 20
749.47379865803055
 11
182.15751252131474
 21
748.01023669590791
  0
LINE
  8
_5-0_
  6
CONTINUOUS
 62
    7
 10
178.40751252131474
 20
749.47379881032339
 11
178.40751252131474
 21
748.01023669590791
  0
LINE
  8
_5-0_
  6
CONTINUOUS
 62
    7
 10
182.15751252131474
 20
746.4383855045736
 11
182.15751252131474
 21
744.97482354245096
  0
LINE
  8
_5-0_
  6
CONTINUOUS
 62
    7
 10
178.40751252131474
 20
746.43838565686633
 11
178.40751252131474
 21
744.97482354245096
  0
LINE
  8
_5-0_
  6
CONTINUOUS
 62
    7
 10
179.27580216994301
 20
751.88828289198227
 11
179.0403381827285
 21
752.24302164702067
  0
LINE
  8
_5-0_
  6
CONTINUOUS
 62
    7
 10
179.0403381827285
 20
752.24302164702067
 11
179.05112848045115
 21
752.2372335788441
  0
LINE
  8
_5-0_
  6
CONTINUOUS
 62
    7
 10
179.05112848045115
 20
752.2372335788441
 11
179.06199488311535
 21
752.23102514274819
  0
LINE
  8
_5-0_
  6
CONTINUOUS
 62
    7
 10
179.06199488311535
 20
752.23102514274819
 11
179.07308784429745
 21
752.22425987641623
  0
LINE
  8
_5-0_
  6
CONTINUOUS
 62
    7
 10
179.07308784429745
 20
752.22425987641623
 11
179.08455781757397
 21
752.21680131753237
  0
LINE
  8
_5-0_
  6
CONTINUOUS
 62
    7
 10
179.08455781757397
 20
752.21680131753237
 11
179.09655525652113
 21
752.20851300377967
  0
LINE
  8
_5-0_
  6
CONTINUOUS
 62
    7
 10
179.09655525652113
 20
752.20851300377967
 11
179.10923061471544
 21
752.1992584728423
  0
LINE
  8
_5-0_
  6
CONTINUOUS
 62
    7
 10
179.10923061471544
 20
752.1992584728423
 11
179.12273434573314
 21
752.18890126240365
  0
LINE
  8
_5-0_
  6
CONTINUOUS
 62
    7
 10
179.12273434573314
 20
752.18890126240365
 11
179.13721690315072
 21
752.1773049101472
  0
LINE
  8
_5-0_
  6
CONTINUOUS
 62
    7
 10
179.13721690315072
 20
752.1773049101472
 11
179.14262106931844
 21
752.1722513771266
  0
LINE
  8
_5-0_
  6
CONTINUOUS
 62
    7
 10
179.14262106931844
 20
752.1722513771266
 11
179.1488683006132
 21
752.16618163901376
  0
LINE
  8
_5-0_
  6
CONTINUOUS
 62
    7
 10
179.1488683006132
 20
752.16618163901376
 11
179.15566169342918
 21
752.15940147821993
  0
LINE
  8
_5-0_
  6
CONTINUOUS
 62
    7
 10
179.15566169342918
 20
752.15940147821993
 11
179.16270434416006
 21
752.1522166771565
  0
LINE
  8
_5-0_
  6
CONTINUOUS
 62
    7
 10
179.16270434416006
 20
752.1522166771565
 11
179.16969934920004
 21
752.14493301823427
  0
LINE
  8
_5-0_
  6
CONTINUOUS
 62
    7
 10
179.16969934920004
 20
752.14493301823427
 11
179.17634980494313
 21
752.13785628386449
  0
LINE
  8
_5-0_
  6
CONTINUOUS
 62
    7
 10
179.17634980494313
 20
752.13785628386449
 11
179.18235880778332
 21
752.13129225645821
  0
LINE
  8
_5-0_
  6
CONTINUOUS
 62
    7
 10
179.18235880778332
 20
752.13129225645821
 11
179.18742945411446
 21
752.12554671842645
  0
LINE
  8
_5-0_
  6
CONTINUOUS
 62
    7
 10
179.18742945411446
 20
752.12554671842645
 11
179.19527968600448
 21
752.11496804302919
  0
LINE
  8
_5-0_
  6
CONTINUOUS
 62
    7
 10
179.19527968600448
 20
752.11496804302919
 11
179.20224755076447
 21
752.10531778774623
  0
LINE
  8
_5-0_
  6
CONTINUOUS
 62
    7
 10
179.20224755076447
 20
752.10531778774623
 11
179.20857171478764
 21
752.09621980905922
  0
LINE
  8
_5-0_
  6
CONTINUOUS
 62
    7
 10
179.20857171478764
 20
752.09621980905922
 11
179.21449084446692
 21
752.08729796344983
  0
LINE
  8
_5-0_
  6
CONTINUOUS
 62
    7
 10
179.21449084446692
 20
752.08729796344983
 11
179.22024360619574
 21
752.07817610739971
  0
LINE
  8
_5-0_
  6
CONTINUOUS
 62
    7
 10
179.22024360619574
 20
752.07817610739971
 11
179.22606866636698
 21
752.06847809739065
  0
LINE
  8
_5-0_
  6
CONTINUOUS
 62
    7
 10
179.22606866636698
 20
752.06847809739065
 11
179.23220469137385
 21
752.0578277899042
  0
LINE
  8
_5-0_
  6
CONTINUOUS
 62
    7
 10
179.23220469137385
 20
752.0578277899042
 11
179.23889034760933
 21
752.04584904142212
  0
LINE
  8
_5-0_
  6
CONTINUOUS
 62
    7
 10
179.23889034760933
 20
752.04584904142212
 11
179.24223364533225
 21
752.03823546246508
  0
LINE
  8
_5-0_
  6
CONTINUOUS
 62
    7
 10
179.24223364533225
 20
752.03823546246508
 11
179.24592095765334
 21
752.02923896984862
  0
LINE
  8
_5-0_
  6
CONTINUOUS
 62
    7
 10
179.24592095765334
 20
752.02923896984862
 11
179.24979311863041
 21
752.0192960480133
  0
LINE
  8
_5-0_
  6
CONTINUOUS
 62
    7
 10
179.24979311863041
 20
752.0192960480133
 11
179.25369096232123
 21
752.00884318139947
  0
LINE
  8
_5-0_
  6
CONTINUOUS
 62
    7
 10
179.25369096232123
 20
752.00884318139947
 11
179.25745532278341
 21
751.99831685444769
  0
LINE
  8
_5-0_
  6
CONTINUOUS
 62
    7
 10
179.25745532278341
 20
751.99831685444769
 11
179.26092703407491
 21
751.9881535515982
  0
LINE
  8
_5-0_
  6
CONTINUOUS
 62
    7
 10
179.26092703407491
 20
751.9881535515982
 11
179.26394693025338
 21
751.97878975729168
  0
LINE
  8
_5-0_
  6
CONTINUOUS
 62
    7
 10
179.26394693025338
 20
751.97878975729168
 11
179.26635584537655
 21
751.97066195596835
  0
LINE
  8
_5-0_
  6
CONTINUOUS
 62
    7
 10
179.26635584537655
 20
751.97066195596835
 11
179.26891213508227
 21
751.95628693033598
  0
LINE
  8
_5-0_
  6
CONTINUOUS
 62
    7
 10
179.26891213508227
 20
751.95628693033598
 11
179.27099159465507
 21
751.94355505805459
  0
LINE
  8
_5-0_
  6
CONTINUOUS
 62
    7
 10
179.27099159465507
 20
751.94355505805459
 11
179.27263613928488
 21
751.9322272828249
  0
LINE
  8
_5-0_
  6
CONTINUOUS
 62
    7
 10
179.27263613928488
 20
751.9322272828249
 11
179.27388768416193
 21
751.92206454834786
  0
LINE
  8
_5-0_
  6
CONTINUOUS
 62
    7
 10
179.27388768416193
 20
751.92206454834786
 11
179.27478814447625
 21
751.9128277983242
  0
LINE
  8
_5-0_
  6
CONTINUOUS
 62
    7
 10
179.27478814447625
 20
751.9128277983242
 11
179.27537943541785
 21
751.90427797645498
  0
LINE
  8
_5-0_
  6
CONTINUOUS
 62
    7
 10
179.27537943541785
 20
751.90427797645498
 11
179.27570347217676
 21
751.89617602644057
  0
LINE
  8
_5-0_
  6
CONTINUOUS
 62
    7
 10
179.27570347217676
 20
751.89617602644057
 11
179.27580216994301
 21
751.88828289198227
  0
LINE
  8
_5-0_
  6
CONTINUOUS
 62
    7
 10
181.52468752622065
 20
752.24302164702067
 11
181.28922353900612
 21
751.88828289198227
  0
LINE
  8
_5-0_
  6
CONTINUOUS
 62
    7
 10
181.28922353900612
 20
751.88828289198227
 11
181.28932185381061
 21
751.89616947658646
  0
LINE
  8
_5-0_
  6
CONTINUOUS
 62
    7
 10
181.28932185381061
 20
751.89616947658646
 11
181.28964351544354
 21
751.90424643122242
  0
LINE
  8
_5-0_
  6
CONTINUOUS
 62
    7
 10
181.28964351544354
 20
751.90424643122242
 11
181.29022859973423
 21
751.91274981896231
  0
LINE
  8
_5-0_
  6
CONTINUOUS
 62
    7
 10
181.29022859973423
 20
751.91274981896231
 11
181.29111718251224
 21
751.92191570287775
  0
LINE
  8
_5-0_
  6
CONTINUOUS
 62
    7
 10
181.29111718251224
 20
751.92191570287775
 11
181.29234933960674
 21
751.93198014604104
  0
LINE
  8
_5-0_
  6
CONTINUOUS
 62
    7
 10
181.29234933960674
 20
751.93198014604104
 11
181.29396514684709
 21
751.9431792115239
  0
LINE
  8
_5-0_
  6
CONTINUOUS
 62
    7
 10
181.29396514684709
 20
751.9431792115239
 11
181.29600468006274
 21
751.9557489623985
  0
LINE
  8
_5-0_
  6
CONTINUOUS
 62
    7
 10
181.29600468006274
 20
751.9557489623985
 11
181.29850801508297
 21
751.96992546173658
  0
LINE
  8
_5-0_
  6
CONTINUOUS
 62
    7
 10
181.29850801508297
 20
751.96992546173658
 11
181.30091783226595
 21
751.97813619708791
  0
LINE
  8
_5-0_
  6
CONTINUOUS
 62
    7
 10
181.30091783226595
 20
751.97813619708791
 11
181.30393985370446
 21
751.98757823839765
  0
LINE
  8
_5-0_
  6
CONTINUOUS
 62
    7
 10
181.30393985370446
 20
751.98757823839765
 11
181.30741277053005
 21
751.99780987961674
  0
LINE
  8
_5-0_
  6
CONTINUOUS
 62
    7
 10
181.30741277053005
 20
751.99780987961674
 11
181.31117527387465
 21
752.00838941469613
  0
LINE
  8
_5-0_
  6
CONTINUOUS
 62
    7
 10
181.31117527387465
 20
752.00838941469613
 11
181.3150660548699
 21
752.01887513758652
  0
LINE
  8
_5-0_
  6
CONTINUOUS
 62
    7
 10
181.3150660548699
 20
752.01887513758652
 11
181.31892380464785
 21
752.02882534223909
  0
LINE
  8
_5-0_
  6
CONTINUOUS
 62
    7
 10
181.31892380464785
 20
752.02882534223909
 11
181.32258721433993
 21
752.03779832260466
  0
LINE
  8
_5-0_
  6
CONTINUOUS
 62
    7
 10
181.32258721433993
 20
752.03779832260466
 11
181.32589497507803
 21
752.04535237263428
  0
LINE
  8
_5-0_
  6
CONTINUOUS
 62
    7
 10
181.32589497507803
 20
752.04535237263428
 11
181.3325574290711
 21
752.05732888088642
  0
LINE
  8
_5-0_
  6
CONTINUOUS
 62
    7
 10
181.3325574290711
 20
752.05732888088642
 11
181.33868717206781
 21
752.06799898105771
  0
LINE
  8
_5-0_
  6
CONTINUOUS
 62
    7
 10
181.33868717206781
 20
752.06799898105771
 11
181.34451819374254
 21
752.07773232422664
  0
LINE
  8
_5-0_
  6
CONTINUOUS
 62
    7
 10
181.34451819374254
 20
752.07773232422664
 11
181.35028448376943
 21
752.08689856147191
  0
LINE
  8
_5-0_
  6
CONTINUOUS
 62
    7
 10
181.35028448376943
 20
752.08689856147191
 11
181.35622003182306
 21
752.09586734387199
  0
LINE
  8
_5-0_
  6
CONTINUOUS
 62
    7
 10
181.35622003182306
 20
752.09586734387199
 11
181.36255882757752
 21
752.10500832250568
  0
LINE
  8
_5-0_
  6
CONTINUOUS
 62
    7
 10
181.36255882757752
 20
752.10500832250568
 11
181.36953486070723
 21
752.11469114845147
  0
LINE
  8
_5-0_
  6
CONTINUOUS
 62
    7
 10
181.36953486070723
 20
752.11469114845147
 11
181.37738212088658
 21
752.12528547278794
  0
LINE
  8
_5-0_
  6
CONTINUOUS
 62
    7
 10
181.37738212088658
 20
752.12528547278794
 11
181.38239564489845
 21
752.13097551333067
  0
LINE
  8
_5-0_
  6
CONTINUOUS
 62
    7
 10
181.38239564489845
 20
752.13097551333067
 11
181.38834108115901
 21
752.13748372413875
  0
LINE
  8
_5-0_
  6
CONTINUOUS
 62
    7
 10
181.38834108115901
 20
752.13748372413875
 11
181.39492708304056
 21
752.14450873480348
  0
LINE
  8
_5-0_
  6
CONTINUOUS
 62
    7
 10
181.39492708304056
 20
752.14450873480348
 11
181.40186230391464
 21
752.15174917491595
  0
LINE
  8
_5-0_
  6
CONTINUOUS
 62
    7
 10
181.40186230391464
 20
752.15174917491595
 11
181.40885539715342
 21
752.15890367406712
  0
LINE
  8
_5-0_
  6
CONTINUOUS
 62
    7
 10
181.40885539715342
 20
752.15890367406712
 11
181.41561501612884
 21
752.16567086184841
  0
LINE
  8
_5-0_
  6
CONTINUOUS
 62
    7
 10
181.41561501612884
 20
752.16567086184841
 11
181.42184981421275
 21
752.17174936785057
  0
LINE
  8
_5-0_
  6
CONTINUOUS
 62
    7
 10
181.42184981421275
 20
752.17174936785057
 11
181.42726844477716
 21
752.17683782166489
  0
LINE
  8
_5-0_
  6
CONTINUOUS
 62
    7
 10
181.42726844477716
 20
752.17683782166489
 11
181.44188284077785
 21
752.18856521632699
  0
LINE
  8
_5-0_
  6
CONTINUOUS
 62
    7
 10
181.44188284077785
 20
752.18856521632699
 11
181.45549724898387
 21
752.19902663662424
  0
LINE
  8
_5-0_
  6
CONTINUOUS
 62
    7
 10
181.45549724898387
 20
752.19902663662424
 11
181.46826351888956
 21
752.20836158166867
  0
LINE
  8
_5-0_
  6
CONTINUOUS
 62
    7
 10
181.46826351888956
 20
752.20836158166867
 11
181.48033349998954
 21
752.2167095505722
  0
LINE
  8
_5-0_
  6
CONTINUOUS
 62
    7
 10
181.48033349998954
 20
752.2167095505722
 11
181.49185904177813
 21
752.22421004244711
  0
LINE
  8
_5-0_
  6
CONTINUOUS
 62
    7
 10
181.49185904177813
 20
752.22421004244711
 11
181.50299199374984
 21
752.23100255640543
  0
LINE
  8
_5-0_
  6
CONTINUOUS
 62
    7
 10
181.50299199374984
 20
752.23100255640543
 11
181.51388420539922
 21
752.23722659155919
  0
LINE
  8
_5-0_
  6
CONTINUOUS
 62
    7
 10
181.51388420539922
 20
752.23722659155919
 11
181.52468752622065
 21
752.24302164702067
  0
LINE
  8
_5-0_
  6
CONTINUOUS
 62
    7
 10
179.27580212641124
 20
751.88828280855489
 11
179.27580212641124
 21
751.48831432204565
  0
LINE
  8
_5-0_
  6
CONTINUOUS
 62
    7
 10
181.28922360617514
 20
751.48831432204565
 11
181.28922360617514
 21
751.88828280855489
  0
LINE
  8
_5-0_
  6
CONTINUOUS
 62
    7
 10
177.7846247286252
 20
754.20753855088265
 11
177.78475394208542
 21
754.20753855088265
  0
LINE
  8
_5-0_
  6
CONTINUOUS
 62
    7
 10
177.78475394208542
 20
754.20753855088265
 11
177.78509459575318
 21
754.20753855088265
  0
LINE
  8
_5-0_
  6
CONTINUOUS
 62
    7
 10
177.78509459575318
 20
754.20753855088265
 11
177.78557620955917
 21
754.20753855088265
  0
LINE
  8
_5-0_
  6
CONTINUOUS
 62
    7
 10
177.78557620955917
 20
754.20753855088265
 11
177.78612830343434
 21
754.20753855088265
  0
LINE
  8
_5-0_
  6
CONTINUOUS
 62
    7
 10
177.78612830343434
 20
754.20753855088265
 11
177.78668039730968
 21
754.20753855088265
  0
LINE
  8
_5-0_
  6
CONTINUOUS
 62
    7
 10
177.78668039730968
 20
754.20753855088265
 11
177.78716201111578
 21
754.20753855088265
  0
LINE
  8
_5-0_
  6
CONTINUOUS
 62
    7
 10
177.78716201111578
 20
754.20753855088265
 11
177.7875026647834
 21
754.20753855088265
  0
LINE
  8
_5-0_
  6
CONTINUOUS
 62
    7
 10
177.7875026647834
 20
754.20753855088265
 11
177.78763187824353
 21
754.20753855088265
  0
LINE
  8
_5-0_
  6
CONTINUOUS
 62
    7
 10
177.78763187824353
 20
754.20753855088265
 11
177.83189718712251
 21
754.20753855088265
  0
LINE
  8
_5-0_
  6
CONTINUOUS
 62
    7
 10
177.83189718712251
 20
754.20753855088265
 11
177.94859663780363
 21
754.20753855088265
  0
LINE
  8
_5-0_
  6
CONTINUOUS
 62
    7
 10
177.94859663780363
 20
754.20753855088265
 11
178.11358551635288
 21
754.20753855088265
  0
LINE
  8
_5-0_
  6
CONTINUOUS
 62
    7
 10
178.11358551635288
 20
754.20753855088265
 11
178.30271910883596
 21
754.20753855088265
  0
LINE
  8
_5-0_
  6
CONTINUOUS
 62
    7
 10
178.30271910883596
 20
754.20753855088265
 11
178.49185270131903
 21
754.20753855088265
  0
LINE
  8
_5-0_
  6
CONTINUOUS
 62
    7
 10
178.49185270131903
 20
754.20753855088265
 11
178.65684157986828
 21
754.20753855088265
  0
LINE
  8
_5-0_
  6
CONTINUOUS
 62
    7
 10
178.65684157986828
 20
754.20753855088265
 11
178.77354103054932
 21
754.20753855088265
  0
LINE
  8
_5-0_
  6
CONTINUOUS
 62
    7
 10
178.77354103054932
 20
754.20753855088265
 11
178.81780633942833
 21
754.20753855088265
  0
LINE
  8
_5-0_
  6
CONTINUOUS
 62
    7
 10
178.81780633942833
 20
754.20753855088265
 11
178.81958058186243
 21
754.20753855088265
  0
LINE
  8
_5-0_
  6
CONTINUOUS
 62
    7
 10
178.81958058186243
 20
754.20753855088265
 11
178.8242581300976
 21
754.20753855088265
  0
LINE
  8
_5-0_
  6
CONTINUOUS
 62
    7
 10
178.8242581300976
 20
754.20753855088265
 11
178.83087121553373
 21
754.20753855088265
  0
LINE
  8
_5-0_
  6
CONTINUOUS
 62
    7
 10
178.83087121553373
 20
754.20753855088265
 11
178.83845206957028
 21
754.20753855088265
  0
LINE
  8
_5-0_
  6
CONTINUOUS
 62
    7
 10
178.83845206957028
 20
754.20753855088265
 11
178.84603292360674
 21
754.20753855088265
  0
LINE
  8
_5-0_
  6
CONTINUOUS
 62
    7
 10
178.84603292360674
 20
754.20753855088265
 11
178.85264600904287
 21
754.20753855088265
  0
LINE
  8
_5-0_
  6
CONTINUOUS
 62
    7
 10
178.85264600904287
 20
754.20753855088265
 11
178.85732355727811
 21
754.20753855088265
  0
LINE
  8
_5-0_
  6
CONTINUOUS
 62
    7
 10
178.85732355727811
 20
754.20753855088265
 11
178.85909779971223
 21
754.20753855088265
  0
LINE
  8
_5-0_
  6
CONTINUOUS
 62
    7
 10
178.03913542165901
 20
752.76421481535499
 11
178.04190336619143
 21
752.76277391463373
  0
LINE
  8
_5-0_
  6
CONTINUOUS
 62
    7
 10
178.04190336619143
 20
752.76277391463373
 11
178.04559622232418
 21
752.76085153540862
  0
LINE
  8
_5-0_
  6
CONTINUOUS
 62
    7
 10
178.04559622232418
 20
752.76085153540862
 11
178.04993660105495
 21
752.75859207725432
  0
LINE
  8
_5-0_
  6
CONTINUOUS
 62
    7
 10
178.04993660105495
 20
752.75859207725432
 11
178.05464711338203
 21
752.75613993974559
  0
LINE
  8
_5-0_
  6
CONTINUOUS
 62
    7
 10
178.05464711338203
 20
752.75613993974559
 11
178.05945037030355
 21
752.75363952245698
  0
LINE
  8
_5-0_
  6
CONTINUOUS
 62
    7
 10
178.05945037030355
 20
752.75363952245698
 11
178.06406898281722
 21
752.75123522496312
  0
LINE
  8
_5-0_
  6
CONTINUOUS
 62
    7
 10
178.06406898281722
 20
752.75123522496312
 11
178.06822556192145
 21
752.74907144683857
  0
LINE
  8
_5-0_
  6
CONTINUOUS
 62
    7
 10
178.06822556192145
 20
752.74907144683857
 11
178.07164271861382
 21
752.74729258765774
  0
LINE
  8
_5-0_
  6
CONTINUOUS
 62
    7
 10
178.07164271861382
 20
752.74729258765774
 11
178.07835114322791
 21
752.74380040284257
  0
LINE
  8
_5-0_
  6
CONTINUOUS
 62
    7
 10
178.07835114322791
 20
752.74380040284257
 11
178.08471792610447
 21
752.74048606545898
  0
LINE
  8
_5-0_
  6
CONTINUOUS
 62
    7
 10
178.08471792610447
 20
752.74048606545898
 11
178.09113895630452
 21
752.73714348870635
  0
LINE
  8
_5-0_
  6
CONTINUOUS
 62
    7
 10
178.09113895630452
 20
752.73714348870635
 11
178.09801012288892
 21
752.73356658578359
  0
LINE
  8
_5-0_
  6
CONTINUOUS
 62
    7
 10
178.09801012288892
 20
752.73356658578359
 11
178.10572731491868
 21
752.7295492698903
  0
LINE
  8
_5-0_
  6
CONTINUOUS
 62
    7
 10
178.10572731491868
 20
752.7295492698903
 11
178.11468642145456
 21
752.72488545422516
  0
LINE
  8
_5-0_
  6
CONTINUOUS
 62
    7
 10
178.11468642145456
 20
752.72488545422516
 11
178.12528333155768
 21
752.71936905198788
  0
LINE
  8
_5-0_
  6
CONTINUOUS
 62
    7
 10
178.12528333155768
 20
752.71936905198788
 11
178.13791393428863
 21
752.7127939763775
  0
LINE
  8
_5-0_
  6
CONTINUOUS
 62
    7
 10
178.13791393428863
 20
752.7127939763775
 11
178.15019524017742
 21
752.70640073319419
  0
LINE
  8
_5-0_
  6
CONTINUOUS
 62
    7
 10
178.15019524017742
 20
752.70640073319419
 11
178.16396644103321
 21
752.69923189978203
  0
LINE
  8
_5-0_
  6
CONTINUOUS
 62
    7
 10
178.16396644103321
 20
752.69923189978203
 11
178.17855743366835
 21
752.6916363097813
  0
LINE
  8
_5-0_
  6
CONTINUOUS
 62
    7
 10
178.17855743366835
 20
752.6916363097813
 11
178.19329811489547
 21
752.68396279683179
  0
LINE
  8
_5-0_
  6
CONTINUOUS
 62
    7
 10
178.19329811489547
 20
752.68396279683179
 11
178.20751838152688
 21
752.67656019457354
  0
LINE
  8
_5-0_
  6
CONTINUOUS
 62
    7
 10
178.20751838152688
 20
752.67656019457354
 11
178.22054813037505
 21
752.66977733664612
  0
LINE
  8
_5-0_
  6
CONTINUOUS
 62
    7
 10
178.22054813037505
 20
752.66977733664612
 11
178.23171725825233
 21
752.66396305668979
  0
LINE
  8
_5-0_
  6
CONTINUOUS
 62
    7
 10
178.23171725825233
 20
752.66396305668979
 11
178.24035566197131
 21
752.65946618834414
  0
LINE
  8
_5-0_
  6
CONTINUOUS
 62
    7
 10
178.24035566197131
 20
752.65946618834414
 11
178.25495384080057
 21
752.65186685744777
  0
LINE
  8
_5-0_
  6
CONTINUOUS
 62
    7
 10
178.25495384080057
 20
752.65186685744777
 11
178.26906007643728
 21
752.64452361596796
  0
LINE
  8
_5-0_
  6
CONTINUOUS
 62
    7
 10
178.26906007643728
 20
752.64452361596796
 11
178.28397039499635
 21
752.63676179541278
  0
LINE
  8
_5-0_
  6
CONTINUOUS
 62
    7
 10
178.28397039499635
 20
752.63676179541278
 11
178.30098082259298
 21
752.62790672729022
  0
LINE
  8
_5-0_
  6
CONTINUOUS
 62
    7
 10
178.30098082259298
 20
752.62790672729022
 11
178.32138738534206
 21
752.61728374310803
  0
LINE
  8
_5-0_
  6
CONTINUOUS
 62
    7
 10
178.32138738534206
 20
752.61728374310803
 11
178.34648610935858
 21
752.60421817437418
  0
LINE
  8
_5-0_
  6
CONTINUOUS
 62
    7
 10
178.34648610935858
 20
752.60421817437418
 11
178.37757302075758
 21
752.58803535259642
  0
LINE
  8
_5-0_
  6
CONTINUOUS
 62
    7
 10
178.37757302075758
 20
752.58803535259642
 11
178.41594414565392
 21
752.56806060928284
  0
LINE
  8
_5-0_
  6
CONTINUOUS
 62
    7
 10
178.41594414565392
 20
752.56806060928284
 11
178.45911815116736
 21
752.54558564457216
  0
LINE
  8
_5-0_
  6
CONTINUOUS
 62
    7
 10
178.45911815116736
 20
752.54558564457216
 11
178.50694507092038
 21
752.5206885260194
  0
LINE
  8
_5-0_
  6
CONTINUOUS
 62
    7
 10
178.50694507092038
 20
752.5206885260194
 11
178.55719607163223
 21
752.49452951079149
  0
LINE
  8
_5-0_
  6
CONTINUOUS
 62
    7
 10
178.55719607163223
 20
752.49452951079149
 11
178.60764232002231
 21
752.46826885605572
  0
LINE
  8
_5-0_
  6
CONTINUOUS
 62
    7
 10
178.60764232002231
 20
752.46826885605572
 11
178.65605498281008
 21
752.44306681897899
  0
LINE
  8
_5-0_
  6
CONTINUOUS
 62
    7
 10
178.65605498281008
 20
752.44306681897899
 11
178.70020522671433
 21
752.42008365672848
  0
LINE
  8
_5-0_
  6
CONTINUOUS
 62
    7
 10
178.70020522671433
 20
752.42008365672848
 11
178.737864218455
 21
752.40047962647145
  0
LINE
  8
_5-0_
  6
CONTINUOUS
 62
    7
 10
178.737864218455
 20
752.40047962647145
 11
178.76680312475102
 21
752.38541498537461
  0
LINE
  8
_5-0_
  6
CONTINUOUS
 62
    7
 10
178.76680312475102
 20
752.38541498537461
 11
178.81382715810082
 21
752.36093582302851
  0
LINE
  8
_5-0_
  6
CONTINUOUS
 62
    7
 10
178.81382715810082
 20
752.36093582302851
 11
178.85563092233511
 21
752.33917416077929
  0
LINE
  8
_5-0_
  6
CONTINUOUS
 62
    7
 10
178.85563092233511
 20
752.33917416077929
 11
178.89299138750246
 21
752.3197255336197
  0
LINE
  8
_5-0_
  6
CONTINUOUS
 62
    7
 10
178.89299138750246
 20
752.3197255336197
 11
178.92668552365137
 21
752.30218547654385
  0
LINE
  8
_5-0_
  6
CONTINUOUS
 62
    7
 10
178.92668552365137
 20
752.30218547654385
 11
178.95749030083033
 21
752.28614952454495
  0
LINE
  8
_5-0_
  6
CONTINUOUS
 62
    7
 10
178.95749030083033
 20
752.28614952454495
 11
178.98618268908777
 21
752.27121321261643
  0
LINE
  8
_5-0_
  6
CONTINUOUS
 62
    7
 10
178.98618268908777
 20
752.27121321261643
 11
179.01353965847221
 21
752.25697207575195
  0
LINE
  8
_5-0_
  6
CONTINUOUS
 62
    7
 10
179.01353965847221
 20
752.25697207575195
 11
179.04033817903212
 21
752.24302164894493
  0
LINE
  8
_5-0_
  6
CONTINUOUS
 62
    7
 10
181.52468752991723
 20
752.24302164894493
 11
181.57768626933503
 21
752.27061104640666
  0
LINE
  8
_5-0_
  6
CONTINUOUS
 62
    7
 10
181.57768626933503
 20
752.27061104640666
 11
181.63036837854946
 21
752.2980356166172
  0
LINE
  8
_5-0_
  6
CONTINUOUS
 62
    7
 10
181.63036837854946
 20
752.2980356166172
 11
181.68341448045453
 21
752.32564966942937
  0
LINE
  8
_5-0_
  6
CONTINUOUS
 62
    7
 10
181.68341448045453
 20
752.32564966942937
 11
181.7375051979443
 21
752.35380751469518
  0
LINE
  8
_5-0_
  6
CONTINUOUS
 62
    7
 10
181.7375051979443
 20
752.35380751469518
 11
181.79332115391298
 21
752.38286346226744
  0
LINE
  8
_5-0_
  6
CONTINUOUS
 62
    7
 10
181.79332115391298
 20
752.38286346226744
 11
181.85154297125422
 21
752.41317182199862
  0
LINE
  8
_5-0_
  6
CONTINUOUS
 62
    7
 10
181.85154297125422
 20
752.41317182199862
 11
181.91285127286244
 21
752.44508690374118
  0
LINE
  8
_5-0_
  6
CONTINUOUS
 62
    7
 10
181.91285127286244
 20
752.44508690374118
 11
181.97792668163146
 21
752.47896301734738
  0
LINE
  8
_5-0_
  6
CONTINUOUS
 62
    7
 10
181.97792668163146
 20
752.47896301734738
 11
182.00128660373275
 21
752.49112342309684
  0
LINE
  8
_5-0_
  6
CONTINUOUS
 62
    7
 10
182.00128660373275
 20
752.49112342309684
 11
182.02806291016046
 21
752.50506228595873
  0
LINE
  8
_5-0_
  6
CONTINUOUS
 62
    7
 10
182.02806291016046
 20
752.50506228595873
 11
182.05700949658805
 21
752.52013092507866
  0
LINE
  8
_5-0_
  6
CONTINUOUS
 62
    7
 10
182.05700949658805
 20
752.52013092507866
 11
182.08688025868881
 21
752.53568065960337
  0
LINE
  8
_5-0_
  6
CONTINUOUS
 62
    7
 10
182.08688025868881
 20
752.53568065960337
 11
182.11642909213623
 21
752.55106280867835
  0
LINE
  8
_5-0_
  6
CONTINUOUS
 62
    7
 10
182.11642909213623
 20
752.55106280867835
 11
182.14440989260373
 21
752.56562869144977
  0
LINE
  8
_5-0_
  6
CONTINUOUS
 62
    7
 10
182.14440989260373
 20
752.56562869144977
 11
182.16957655576465
 21
752.57872962706358
  0
LINE
  8
_5-0_
  6
CONTINUOUS
 62
    7
 10
182.16957655576465
 20
752.57872962706358
 11
182.19068297729251
 21
752.58971693466606
  0
LINE
  8
_5-0_
  6
CONTINUOUS
 62
    7
 10
182.19068297729251
 20
752.58971693466606
 11
182.23918304675811
 21
752.61496447277932
  0
LINE
  8
_5-0_
  6
CONTINUOUS
 62
    7
 10
182.23918304675811
 20
752.61496447277932
 11
182.2822133459681
 21
752.63736462872339
  0
LINE
  8
_5-0_
  6
CONTINUOUS
 62
    7
 10
182.2822133459681
 20
752.63736462872339
 11
182.32042369025828
 21
752.6572556749511
  0
LINE
  8
_5-0_
  6
CONTINUOUS
 62
    7
 10
182.32042369025828
 20
752.6572556749511
 11
182.35446389496423
 21
752.67497588391507
  0
LINE
  8
_5-0_
  6
CONTINUOUS
 62
    7
 10
182.35446389496423
 20
752.67497588391507
 11
182.38498377542172
 21
752.69086352806812
  0
LINE
  8
_5-0_
  6
CONTINUOUS
 62
    7
 10
182.38498377542172
 20
752.69086352806812
 11
182.41263314696647
 21
752.70525687986276
  0
LINE
  8
_5-0_
  6
CONTINUOUS
 62
    7
 10
182.41263314696647
 20
752.70525687986276
 11
182.43806182493421
 21
752.71849421175193
  0
LINE
  8
_5-0_
  6
CONTINUOUS
 62
    7
 10
182.43806182493421
 20
752.71849421175193
 11
182.46191962466071
 21
752.73091379618813
  0
LINE
  8
_5-0_
  6
CONTINUOUS
 62
    7
 10
182.46191962466071
 20
752.73091379618813
 11
182.46639208657228
 21
752.73324201249409
  0
LINE
  8
_5-0_
  6
CONTINUOUS
 62
    7
 10
182.46639208657228
 20
752.73324201249409
 11
182.47139666950147
 21
752.7358472334688
  0
LINE
  8
_5-0_
  6
CONTINUOUS
 62
    7
 10
182.47139666950147
 20
752.7358472334688
 11
182.47670913700844
 21
752.73861272901013
  0
LINE
  8
_5-0_
  6
CONTINUOUS
 62
    7
 10
182.47670913700844
 20
752.73861272901013
 11
182.48210525265407
 21
752.74142176901614
  0
LINE
  8
_5-0_
  6
CONTINUOUS
 62
    7
 10
182.48210525265407
 20
752.74142176901614
 11
182.48736077999843
 21
752.74415762338492
  0
LINE
  8
_5-0_
  6
CONTINUOUS
 62
    7
 10
182.48736077999843
 20
752.74415762338492
 11
182.49225148260223
 21
752.74670356201455
  0
LINE
  8
_5-0_
  6
CONTINUOUS
 62
    7
 10
182.49225148260223
 20
752.74670356201455
 11
182.49655312402567
 21
752.74894285480286
  0
LINE
  8
_5-0_
  6
CONTINUOUS
 62
    7
 10
182.49655312402567
 20
752.74894285480286
 11
182.50004146782936
 21
752.75075877164795
  0
LINE
  8
_5-0_
  6
CONTINUOUS
 62
    7
 10
182.50004146782936
 20
752.75075877164795
 11
182.50663181555026
 21
752.75418948952324
  0
LINE
  8
_5-0_
  6
CONTINUOUS
 62
    7
 10
182.50663181555026
 20
752.75418948952324
 11
182.51207948924923
 21
752.75702536895312
  0
LINE
  8
_5-0_
  6
CONTINUOUS
 62
    7
 10
182.51207948924923
 20
752.75702536895312
 11
182.51648573088858
 21
752.75931911316718
  0
LINE
  8
_5-0_
  6
CONTINUOUS
 62
    7
 10
182.51648573088858
 20
752.75931911316718
 11
182.51995178243055
 21
752.76112342539545
  0
LINE
  8
_5-0_
  6
CONTINUOUS
 62
    7
 10
182.51995178243055
 20
752.76112342539545
 11
182.52257888583762
 21
752.76249100886776
  0
LINE
  8
_5-0_
  6
CONTINUOUS
 62
    7
 10
182.52257888583762
 20
752.76249100886776
 11
182.52446828307242
 21
752.76347456681356
  0
LINE
  8
_5-0_
  6
CONTINUOUS
 62
    7
 10
182.52446828307242
 20
752.76347456681356
 11
182.52572121609703
 21
752.76412680246267
  0
LINE
  8
_5-0_
  6
CONTINUOUS
 62
    7
 10
182.52572121609703
 20
752.76412680246267
 11
182.52643892687416
 21
752.76450041904491
  0
ARC
  8
_5-0_
  6
CONTINUOUS
 62
    7
 10
180.28251252131474
 20
761.69236153958332
 40
0.5000000000000008
 50
300.39126022424182
 51
239.60873977574363
  0
LINE
  8
_5-0_
  6
CONTINUOUS
 62
    7
 10
180.53546361743614
 20
743.77330589034227
 11
180.53546361743614
 21
761.26106611534271
  0
LINE
  8
_5-0_
  6
CONTINUOUS
 62
    7
 10
180.02956142519324
 20
743.77330589034227
 11
180.02956142519324
 21
761.26106611534283
  0
LINE
  8
_5-0_
  6
CONTINUOUS
 62
    7
 10
180.02956142519324
 20
742.19236153958354
 11
180.53546376371202
 21
742.19236153958354
  0
LINE
  8
_5-0_
  6
CONTINUOUS
 62
    7
 10
180.02956157146906
 20
742.19236148511527
 11
180.02956157146906
 21
742.3897810139058
  0
LINE
  8
_5-0_
  6
CONTINUOUS
 62
    7
 10
180.02956157146906
 20
742.3897810139058
 11
180.02956157146906
 21
742.58727374359228
  0
LINE
  8
_5-0_
  6
CONTINUOUS
 62
    7
 10
180.02956157146906
 20
742.58727374359228
 11
180.02956157146906
 21
742.78483143301992
  0
LINE
  8
_5-0_
  6
CONTINUOUS
 62
    7
 10
180.02956157146906
 20
742.78483143301992
 11
180.02956157146906
 21
742.98244584103463
  0
LINE
  8
_5-0_
  6
CONTINUOUS
 62
    7
 10
180.02956157146906
 20
742.98244584103463
 11
180.02956157146906
 21
743.18010872648176
  0
LINE
  8
_5-0_
  6
CONTINUOUS
 62
    7
 10
180.02956157146906
 20
743.18010872648176
 11
180.02956157146906
 21
743.37781184820699
  0
LINE
  8
_5-0_
  6
CONTINUOUS
 62
    7
 10
180.02956157146906
 20
743.37781184820699
 11
180.02956157146906
 21
743.57554696505599
  0
LINE
  8
_5-0_
  6
CONTINUOUS
 62
    7
 10
180.02956157146906
 20
743.57554696505599
 11
180.02956157146906
 21
743.77330583587423
  0
LINE
  8
_5-0_
  6
CONTINUOUS
 62
    7
 10
179.27580198305895
 20
743.77330583587536
 11
177.99702320611829
 21
743.77323888065632
  0
LINE
  8
_5-0_
  6
CONTINUOUS
 62
    7
 10
177.99702320611829
 20
743.77323888065632
 11
177.99698006820825
 21
743.77324048119181
  0
LINE
  8
_5-0_
  6
CONTINUOUS
 62
    7
 10
177.99698006820825
 20
743.77324048119181
 11
177.99686634099095
 21
743.77324470078509
  0
LINE
  8
_5-0_
  6
CONTINUOUS
 62
    7
 10
177.99686634099095
 20
743.77324470078509
 11
177.99670555423552
 21
743.77325066641697
  0
LINE
  8
_5-0_
  6
CONTINUOUS
 62
    7
 10
177.99670555423552
 20
743.77325066641697
 11
177.99652123771102
 21
743.77325750506816
  0
LINE
  8
_5-0_
  6
CONTINUOUS
 62
    7
 10
177.99652123771102
 20
743.77325750506816
 11
177.99633692118647
 21
743.77326434371935
  0
LINE
  8
_5-0_
  6
CONTINUOUS
 62
    7
 10
177.99633692118647
 20
743.77326434371935
 11
177.99617613443104
 21
743.77327030935135
  0
LINE
  8
_5-0_
  6
CONTINUOUS
 62
    7
 10
177.99617613443104
 20
743.77327030935135
 11
177.99606240721374
 21
743.77327452894463
  0
LINE
  8
_5-0_
  6
CONTINUOUS
 62
    7
 10
177.99606240721374
 20
743.77327452894463
 11
177.9960192693037
 21
743.77327612947988
  0
LINE
  8
_5-0_
  6
CONTINUOUS
 62
    7
 10
177.9960192693037
 20
743.77327612947988
 11
178.00630524876033
 21
743.77254658072513
  0
LINE
  8
_5-0_
  6
CONTINUOUS
 62
    7
 10
178.00630524876033
 20
743.77254658072513
 11
178.05671610699682
 21
743.77022770305052
  0
LINE
  8
_5-0_
  6
CONTINUOUS
 62
    7
 10
178.05671610699682
 20
743.77022770305052
 11
178.14770520306382
 21
743.76719552931775
  0
LINE
  8
_5-0_
  6
CONTINUOUS
 62
    7
 10
178.14770520306382
 20
743.76719552931775
 11
178.27972589601222
 21
743.76432609238941
  0
LINE
  8
_5-0_
  6
CONTINUOUS
 62
    7
 10
178.27972589601222
 20
743.76432609238941
 11
178.45323154489273
 21
743.76249542512767
  0
LINE
  8
_5-0_
  6
CONTINUOUS
 62
    7
 10
178.45323154489273
 20
743.76249542512767
 11
178.66867550875605
 21
743.76257956039456
  0
LINE
  8
_5-0_
  6
CONTINUOUS
 62
    7
 10
178.66867550875605
 20
743.76257956039456
 11
178.92651114665298
 21
743.76545453105223
  0
LINE
  8
_5-0_
  6
CONTINUOUS
 62
    7
 10
178.92651114665298
 20
743.76545453105223
 11
179.22719181763404
 21
743.77199636996284
  0
LINE
  8
_5-0_
  6
CONTINUOUS
 62
    7
 10
179.22719181763404
 20
743.77199636996284
 11
179.22928053567966
 21
743.77205263607618
  0
LINE
  8
_5-0_
  6
CONTINUOUS
 62
    7
 10
179.22928053567966
 20
743.77205263607618
 11
179.23478715598165
 21
743.77220097401164
  0
LINE
  8
_5-0_
  6
CONTINUOUS
 62
    7
 10
179.23478715598165
 20
743.77220097401164
 11
179.24257237778804
 21
743.77241069316165
  0
LINE
  8
_5-0_
  6
CONTINUOUS
 62
    7
 10
179.24257237778804
 20
743.77241069316165
 11
179.25149690034658
 21
743.7726511029191
  0
LINE
  8
_5-0_
  6
CONTINUOUS
 62
    7
 10
179.25149690034658
 20
743.7726511029191
 11
179.26042142290498
 21
743.77289151267655
  0
LINE
  8
_5-0_
  6
CONTINUOUS
 62
    7
 10
179.26042142290498
 20
743.77289151267655
 11
179.26820664471137
 21
743.77310123182667
  0
LINE
  8
_5-0_
  6
CONTINUOUS
 62
    7
 10
179.26820664471137
 20
743.77310123182667
 11
179.27371326501338
 21
743.7732495697619
  0
LINE
  8
_5-0_
  6
CONTINUOUS
 62
    7
 10
179.27371326501338
 20
743.7732495697619
 11
179.27580198305895
 21
743.77330583587536
  0
LINE
  8
_5-0_
  6
CONTINUOUS
 62
    7
 10
178.85909804258495
 20
748.01023669590791
 11
179.16605174447903
 21
748.131349678471
  0
LINE
  8
_5-0_
  6
CONTINUOUS
 62
    7
 10
179.16605174447903
 20
748.131349678471
 11
179.16558767610411
 21
748.13089079574502
  0
LINE
  8
_5-0_
  6
CONTINUOUS
 62
    7
 10
179.16558767610411
 20
748.13089079574502
 11
179.16436422311591
 21
748.12968101401282
  0
LINE
  8
_5-0_
  6
CONTINUOUS
 62
    7
 10
179.16436422311591
 20
748.12968101401282
 11
179.16263451371861
 21
748.12797063294306
  0
LINE
  8
_5-0_
  6
CONTINUOUS
 62
    7
 10
179.16263451371861
 20
748.12797063294306
 11
179.16065167611691
 21
748.12600995220464
  0
LINE
  8
_5-0_
  6
CONTINUOUS
 62
    7
 10
179.16065167611691
 20
748.12600995220464
 11
179.15866883851521
 21
748.12404927146622
  0
LINE
  8
_5-0_
  6
CONTINUOUS
 62
    7
 10
179.15866883851521
 20
748.12404927146622
 11
179.15693912911806
 21
748.12233889039646
  0
LINE
  8
_5-0_
  6
CONTINUOUS
 62
    7
 10
179.15693912911806
 20
748.12233889039646
 11
179.15571567612972
 21
748.12112910866415
  0
LINE
  8
_5-0_
  6
CONTINUOUS
 62
    7
 10
179.15571567612972
 20
748.12112910866415
 11
179.15525160775496
 21
748.12067022593806
  0
LINE
  8
_5-0_
  6
CONTINUOUS
 62
    7
 10
179.15525160775496
 20
748.12067022593806
 11
179.14401086176696
 21
748.11052863713121
  0
LINE
  8
_5-0_
  6
CONTINUOUS
 62
    7
 10
179.14401086176696
 20
748.11052863713121
 11
179.1310213331198
 21
748.1003239535579
  0
LINE
  8
_5-0_
  6
CONTINUOUS
 62
    7
 10
179.1310213331198
 20
748.1003239535579
 11
179.11702120982355
 21
748.0903646856882
  0
LINE
  8
_5-0_
  6
CONTINUOUS
 62
    7
 10
179.11702120982355
 20
748.0903646856882
 11
179.10274867988747
 21
748.08095934399239
  0
LINE
  8
_5-0_
  6
CONTINUOUS
 62
    7
 10
179.10274867988747
 20
748.08095934399239
 11
179.08894193132141
 21
748.07241643894008
  0
LINE
  8
_5-0_
  6
CONTINUOUS
 62
    7
 10
179.08894193132141
 20
748.07241643894008
 11
179.07633915213523
 21
748.06504448100156
  0
LINE
  8
_5-0_
  6
CONTINUOUS
 62
    7
 10
179.07633915213523
 20
748.06504448100156
 11
179.06567853033863
 21
748.0591519806469
  0
LINE
  8
_5-0_
  6
CONTINUOUS
 62
    7
 10
179.06567853033863
 20
748.0591519806469
 11
179.05769825394117
 21
748.05504744834639
  0
LINE
  8
_5-0_
  6
CONTINUOUS
 62
    7
 10
179.05769825394117
 20
748.05504744834639
 11
179.05139468346377
 21
748.0519816959212
  0
LINE
  8
_5-0_
  6
CONTINUOUS
 62
    7
 10
179.05139468346377
 20
748.0519816959212
 11
179.04644717517704
 21
748.04960011986225
  0
LINE
  8
_5-0_
  6
CONTINUOUS
 62
    7
 10
179.04644717517704
 20
748.04960011986225
 11
179.04225789069761
 21
748.04765581830657
  0
LINE
  8
_5-0_
  6
CONTINUOUS
 62
    7
 10
179.04225789069761
 20
748.04765581830657
 11
179.03822899164248
 21
748.0459018893913
  0
LINE
  8
_5-0_
  6
CONTINUOUS
 62
    7
 10
179.03822899164248
 20
748.0459018893913
 11
179.03376263962798
 21
748.04409143125349
  0
LINE
  8
_5-0_
  6
CONTINUOUS
 62
    7
 10
179.03376263962798
 20
748.04409143125349
 11
179.02826099627106
 21
748.04197754203051
  0
LINE
  8
_5-0_
  6
CONTINUOUS
 62
    7
 10
179.02826099627106
 20
748.04197754203051
 11
179.02112622318833
 21
748.03931331985927
  0
LINE
  8
_5-0_
  6
CONTINUOUS
 62
    7
 10
179.02112622318833
 20
748.03931331985927
 11
179.01176048199645
 21
748.03585186287705
  0
LINE
  8
_5-0_
  6
CONTINUOUS
 62
    7
 10
179.01176048199645
 20
748.03585186287705
 11
178.99616735953842
 21
748.03080569016652
  0
LINE
  8
_5-0_
  6
CONTINUOUS
 62
    7
 10
178.99616735953842
 20
748.03080569016652
 11
178.97799577815306
 21
748.02605199278617
  0
LINE
  8
_5-0_
  6
CONTINUOUS
 62
    7
 10
178.97799577815306
 20
748.02605199278617
 11
178.95827387971963
 21
748.02170800119086
  0
LINE
  8
_5-0_
  6
CONTINUOUS
 62
    7
 10
178.95827387971963
 20
748.02170800119086
 11
178.93802980611738
 21
748.01789094583523
  0
LINE
  8
_5-0_
  6
CONTINUOUS
 62
    7
 10
178.93802980611738
 20
748.01789094583523
 11
178.91829169922551
 21
748.01471805717426
  0
LINE
  8
_5-0_
  6
CONTINUOUS
 62
    7
 10
178.91829169922551
 20
748.01471805717426
 11
178.90008770092365
 21
748.01230656566293
  0
LINE
  8
_5-0_
  6
CONTINUOUS
 62
    7
 10
178.90008770092365
 20
748.01230656566293
 11
178.88444595309073
 21
748.01077370175585
  0
LINE
  8
_5-0_
  6
CONTINUOUS
 62
    7
 10
178.88444595309073
 20
748.01077370175585
 11
178.87239459760622
 21
748.01023669590791
  0
LINE
  8
_5-0_
  6
CONTINUOUS
 62
    7
 10
178.87239459760622
 20
748.01023669590791
 11
178.87182326125767
 21
748.01023669590791
  0
LINE
  8
_5-0_
  6
CONTINUOUS
 62
    7
 10
178.87182326125767
 20
748.01023669590791
 11
178.87031701088418
 21
748.01023669590791
  0
LINE
  8
_5-0_
  6
CONTINUOUS
 62
    7
 10
178.87031701088418
 20
748.01023669590791
 11
178.868187484494
 21
748.01023669590791
  0
LINE
  8
_5-0_
  6
CONTINUOUS
 62
    7
 10
178.868187484494
 20
748.01023669590791
 11
178.86574632009555
 21
748.01023669590791
  0
LINE
  8
_5-0_
  6
CONTINUOUS
 62
    7
 10
178.86574632009555
 20
748.01023669590791
 11
178.86330515569711
 21
748.01023669590791
  0
LINE
  8
_5-0_
  6
CONTINUOUS
 62
    7
 10
178.86330515569711
 20
748.01023669590791
 11
178.86117562930707
 21
748.01023669590791
  0
LINE
  8
_5-0_
  6
CONTINUOUS
 62
    7
 10
178.86117562930707
 20
748.01023669590791
 11
178.85966937893357
 21
748.01023669590791
  0
LINE
  8
_5-0_
  6
CONTINUOUS
 62
    7
 10
178.85966937893357
 20
748.01023669590791
 11
178.85909804258495
 21
748.01023669590791
  0
LINE
  8
_5-0_
  6
CONTINUOUS
 62
    7
 10
178.85909771077655
 20
751.10888762339528
 11
179.16606569610843
 21
751.23001442727195
  0
LINE
  8
_5-0_
  6
CONTINUOUS
 62
    7
 10
179.16606569610843
 20
751.23001442727195
 11
179.16560162156736
 21
751.22955549227061
  0
LINE
  8
_5-0_
  6
CONTINUOUS
 62
    7
 10
179.16560162156736
 20
751.22955549227061
 11
179.16437815232243
 21
751.22834557272154
  0
LINE
  8
_5-0_
  6
CONTINUOUS
 62
    7
 10
179.16437815232243
 20
751.22834557272154
 11
179.16264841994192
 21
751.22663499680721
  0
LINE
  8
_5-0_
  6
CONTINUOUS
 62
    7
 10
179.16264841994192
 20
751.22663499680721
 11
179.16066555599343
 21
751.22467409271053
  0
LINE
  8
_5-0_
  6
CONTINUOUS
 62
    7
 10
179.16066555599343
 20
751.22467409271053
 11
179.15868269204495
 21
751.22271318861385
  0
LINE
  8
_5-0_
  6
CONTINUOUS
 62
    7
 10
179.15868269204495
 20
751.22271318861385
 11
179.15695295966435
 21
751.22100261269964
  0
LINE
  8
_5-0_
  6
CONTINUOUS
 62
    7
 10
179.15695295966435
 20
751.22100261269964
 11
179.1557294904195
 21
751.21979269315057
  0
LINE
  8
_5-0_
  6
CONTINUOUS
 62
    7
 10
179.1557294904195
 20
751.21979269315057
 11
179.15526541587843
 21
751.21933375814922
  0
LINE
  8
_5-0_
  6
CONTINUOUS
 62
    7
 10
179.15526541587843
 20
751.21933375814922
 11
179.14402441406475
 21
751.20919097992282
  0
LINE
  8
_5-0_
  6
CONTINUOUS
 62
    7
 10
179.14402441406475
 20
751.20919097992282
 11
179.13103448917113
 21
751.19898510503072
  0
LINE
  8
_5-0_
  6
CONTINUOUS
 62
    7
 10
179.13103448917113
 20
751.19898510503072
 11
179.11703387112254
 21
751.18902467904957
  0
LINE
  8
_5-0_
  6
CONTINUOUS
 62
    7
 10
179.11703387112254
 20
751.18902467904957
 11
179.10276078984333
 21
751.17961824755548
  0
LINE
  8
_5-0_
  6
CONTINUOUS
 62
    7
 10
179.10276078984333
 20
751.17961824755548
 11
179.08895347525834
 21
751.17107435612479
  0
LINE
  8
_5-0_
  6
CONTINUOUS
 62
    7
 10
179.08895347525834
 20
751.17107435612479
 11
179.07635015729198
 21
751.16370155033405
  0
LINE
  8
_5-0_
  6
CONTINUOUS
 62
    7
 10
179.07635015729198
 20
751.16370155033405
 11
179.06568906586898
 21
751.15780837575949
  0
LINE
  8
_5-0_
  6
CONTINUOUS
 62
    7
 10
179.06568906586898
 20
751.15780837575949
 11
179.05770843091381
 21
751.15370337797754
  0
LINE
  8
_5-0_
  6
CONTINUOUS
 62
    7
 10
179.05770843091381
 20
751.15370337797754
 11
179.05140457375794
 21
751.15063727981783
  0
LINE
  8
_5-0_
  6
CONTINUOUS
 62
    7
 10
179.05140457375794
 20
751.15063727981783
 11
179.04645684167591
 21
751.14825543609754
  0
LINE
  8
_5-0_
  6
CONTINUOUS
 62
    7
 10
179.04645684167591
 20
751.14825543609754
 11
179.04226736523776
 21
751.14631091643605
  0
LINE
  8
_5-0_
  6
CONTINUOUS
 62
    7
 10
179.04226736523776
 20
751.14631091643605
 11
179.03823827501333
 21
751.1445567904525
  0
LINE
  8
_5-0_
  6
CONTINUOUS
 62
    7
 10
179.03823827501333
 20
751.1445567904525
 11
179.0337717015729
 21
751.14274612776569
  0
LINE
  8
_5-0_
  6
CONTINUOUS
 62
    7
 10
179.0337717015729
 20
751.14274612776569
 11
179.02826977548656
 21
751.14063199799489
  0
LINE
  8
_5-0_
  6
CONTINUOUS
 62
    7
 10
179.02826977548656
 20
751.14063199799489
 11
179.02113462732422
 21
751.13796747075889
  0
LINE
  8
_5-0_
  6
CONTINUOUS
 62
    7
 10
179.02113462732422
 20
751.13796747075889
 11
179.01176838765616
 21
751.13450561567731
  0
LINE
  8
_5-0_
  6
CONTINUOUS
 62
    7
 10
179.01176838765616
 20
751.13450561567731
 11
178.99617437946551
 21
751.12945884597912
  0
LINE
  8
_5-0_
  6
CONTINUOUS
 62
    7
 10
178.99617437946551
 20
751.12945884597912
 11
178.97800181058534
 21
751.12470460530858
  0
LINE
  8
_5-0_
  6
CONTINUOUS
 62
    7
 10
178.97800181058534
 20
751.12470460530858
 11
178.95827886614802
 21
751.120360132104
  0
LINE
  8
_5-0_
  6
CONTINUOUS
 62
    7
 10
178.95827886614802
 20
751.120360132104
 11
178.93803373128583
 21
751.11654266480332
  0
LINE
  8
_5-0_
  6
CONTINUOUS
 62
    7
 10
178.93803373128583
 20
751.11654266480332
 11
178.91829459113131
 21
751.11336944184416
  0
LINE
  8
_5-0_
  6
CONTINUOUS
 62
    7
 10
178.91829459113131
 20
751.11336944184416
 11
178.90008963081664
 21
751.11095770166457
  0
LINE
  8
_5-0_
  6
CONTINUOUS
 62
    7
 10
178.90008963081664
 20
751.11095770166457
 11
178.88444703547421
 21
751.10942468270218
  0
LINE
  8
_5-0_
  6
CONTINUOUS
 62
    7
 10
178.88444703547421
 20
751.10942468270218
 11
178.8723949902365
 21
751.10888762339528
  0
LINE
  8
_5-0_
  6
CONTINUOUS
 62
    7
 10
178.8723949902365
 20
751.10888762339528
 11
178.87182362275973
 21
751.10888762339528
  0
LINE
  8
_5-0_
  6
CONTINUOUS
 62
    7
 10
178.87182362275973
 20
751.10888762339528
 11
178.87031729032094
 21
751.10888762339528
  0
LINE
  8
_5-0_
  6
CONTINUOUS
 62
    7
 10
178.87031729032094
 20
751.10888762339528
 11
178.86818764790732
 21
751.10888762339528
  0
LINE
  8
_5-0_
  6
CONTINUOUS
 62
    7
 10
178.86818764790732
 20
751.10888762339528
 11
178.86574635050658
 21
751.10888762339528
  0
LINE
  8
_5-0_
  6
CONTINUOUS
 62
    7
 10
178.86574635050658
 20
751.10888762339528
 11
178.86330505310568
 21
751.10888762339528
  0
LINE
  8
_5-0_
  6
CONTINUOUS
 62
    7
 10
178.86330505310568
 20
751.10888762339528
 11
178.86117541069211
 21
751.10888762339528
  0
LINE
  8
_5-0_
  6
CONTINUOUS
 62
    7
 10
178.86117541069211
 20
751.10888762339528
 11
178.85966907825335
 21
751.10888762339528
  0
LINE
  8
_5-0_
  6
CONTINUOUS
 62
    7
 10
178.85966907825335
 20
751.10888762339528
 11
178.85909771077655
 21
751.10888762339528
  0
LINE
  8
_5-0_
  6
CONTINUOUS
 62
    7
 10
179.27580198305904
 20
748.7896319644949
 11
179.04033799584454
 21
749.1443707195333
  0
LINE
  8
_5-0_
  6
CONTINUOUS
 62
    7
 10
179.04033799584454
 20
749.1443707195333
 11
179.0511282935671
 21
749.13858265135673
  0
LINE
  8
_5-0_
  6
CONTINUOUS
 62
    7
 10
179.0511282935671
 20
749.13858265135673
 11
179.06199469623132
 21
749.13237421526082
  0
LINE
  8
_5-0_
  6
CONTINUOUS
 62
    7
 10
179.06199469623132
 20
749.13237421526082
 11
179.07308765741348
 21
749.12560894892886
  0
LINE
  8
_5-0_
  6
CONTINUOUS
 62
    7
 10
179.07308765741348
 20
749.12560894892886
 11
179.08455763068991
 21
749.118150390045
  0
LINE
  8
_5-0_
  6
CONTINUOUS
 62
    7
 10
179.08455763068991
 20
749.118150390045
 11
179.09655506963716
 21
749.1098620762923
  0
LINE
  8
_5-0_
  6
CONTINUOUS
 62
    7
 10
179.09655506963716
 20
749.1098620762923
 11
179.10923042783145
 21
749.10060754535493
  0
LINE
  8
_5-0_
  6
CONTINUOUS
 62
    7
 10
179.10923042783145
 20
749.10060754535493
 11
179.12273415884911
 21
749.09025033491628
  0
LINE
  8
_5-0_
  6
CONTINUOUS
 62
    7
 10
179.12273415884911
 20
749.09025033491628
 11
179.13721671626675
 21
749.07865398265983
  0
LINE
  8
_5-0_
  6
CONTINUOUS
 62
    7
 10
179.13721671626675
 20
749.07865398265983
 11
179.14262088243447
 21
749.07360044963923
  0
LINE
  8
_5-0_
  6
CONTINUOUS
 62
    7
 10
179.14262088243447
 20
749.07360044963923
 11
179.14886811372924
 21
749.06753071152639
  0
LINE
  8
_5-0_
  6
CONTINUOUS
 62
    7
 10
179.14886811372924
 20
749.06753071152639
 11
179.15566150654513
 21
749.06075055073256
  0
LINE
  8
_5-0_
  6
CONTINUOUS
 62
    7
 10
179.15566150654513
 20
749.06075055073256
 11
179.16270415727604
 21
749.05356574966913
  0
LINE
  8
_5-0_
  6
CONTINUOUS
 62
    7
 10
179.16270415727604
 20
749.05356574966913
 11
179.16969916231608
 21
749.0462820907469
  0
LINE
  8
_5-0_
  6
CONTINUOUS
 62
    7
 10
179.16969916231608
 20
749.0462820907469
 11
179.17634961805916
 21
749.03920535637712
  0
LINE
  8
_5-0_
  6
CONTINUOUS
 62
    7
 10
179.17634961805916
 20
749.03920535637712
 11
179.18235862089938
 21
749.03264132897084
  0
LINE
  8
_5-0_
  6
CONTINUOUS
 62
    7
 10
179.18235862089938
 20
749.03264132897084
 11
179.18742926723041
 21
749.02689579093908
  0
LINE
  8
_5-0_
  6
CONTINUOUS
 62
    7
 10
179.18742926723041
 20
749.02689579093908
 11
179.19527949912043
 21
749.01631711554182
  0
LINE
  8
_5-0_
  6
CONTINUOUS
 62
    7
 10
179.19527949912043
 20
749.01631711554182
 11
179.20224736388042
 21
749.00666686025886
  0
LINE
  8
_5-0_
  6
CONTINUOUS
 62
    7
 10
179.20224736388042
 20
749.00666686025886
 11
179.20857152790362
 21
748.99756888157185
  0
LINE
  8
_5-0_
  6
CONTINUOUS
 62
    7
 10
179.20857152790362
 20
748.99756888157185
 11
179.21449065758296
 21
748.98864703596246
  0
LINE
  8
_5-0_
  6
CONTINUOUS
 62
    7
 10
179.21449065758296
 20
748.98864703596246
 11
179.22024341931177
 21
748.97952517991234
  0
LINE
  8
_5-0_
  6
CONTINUOUS
 62
    7
 10
179.22024341931177
 20
748.97952517991234
 11
179.22606847948293
 21
748.96982716990328
  0
LINE
  8
_5-0_
  6
CONTINUOUS
 62
    7
 10
179.22606847948293
 20
748.96982716990328
 11
179.2322045044898
 21
748.95917686241683
  0
LINE
  8
_5-0_
  6
CONTINUOUS
 62
    7
 10
179.2322045044898
 20
748.95917686241683
 11
179.23889016072536
 21
748.94719811393475
  0
LINE
  8
_5-0_
  6
CONTINUOUS
 62
    7
 10
179.23889016072536
 20
748.94719811393475
 11
179.24223345844823
 21
748.93958453497771
  0
LINE
  8
_5-0_
  6
CONTINUOUS
 62
    7
 10
179.24223345844823
 20
748.93958453497771
 11
179.24592077076937
 21
748.93058804236125
  0
LINE
  8
_5-0_
  6
CONTINUOUS
 62
    7
 10
179.24592077076937
 20
748.93058804236125
 11
179.24979293174636
 21
748.92064512052593
  0
LINE
  8
_5-0_
  6
CONTINUOUS
 62
    7
 10
179.24979293174636
 20
748.92064512052593
 11
179.25369077543721
 21
748.9101922539121
  0
LINE
  8
_5-0_
  6
CONTINUOUS
 62
    7
 10
179.25369077543721
 20
748.9101922539121
 11
179.25745513589945
 21
748.89966592696032
  0
LINE
  8
_5-0_
  6
CONTINUOUS
 62
    7
 10
179.25745513589945
 20
748.89966592696032
 11
179.26092684719094
 21
748.88950262411083
  0
LINE
  8
_5-0_
  6
CONTINUOUS
 62
    7
 10
179.26092684719094
 20
748.88950262411083
 11
179.26394674336933
 21
748.88013882980431
  0
LINE
  8
_5-0_
  6
CONTINUOUS
 62
    7
 10
179.26394674336933
 20
748.88013882980431
 11
179.26635565849253
 21
748.87201102848098
  0
LINE
  8
_5-0_
  6
CONTINUOUS
 62
    7
 10
179.26635565849253
 20
748.87201102848098
 11
179.26891194819825
 21
748.85763600284861
  0
LINE
  8
_5-0_
  6
CONTINUOUS
 62
    7
 10
179.26891194819825
 20
748.85763600284861
 11
179.27099140777102
 21
748.84490413056722
  0
LINE
  8
_5-0_
  6
CONTINUOUS
 62
    7
 10
179.27099140777102
 20
748.84490413056722
 11
179.27263595240083
 21
748.83357635533753
  0
LINE
  8
_5-0_
  6
CONTINUOUS
 62
    7
 10
179.27263595240083
 20
748.83357635533753
 11
179.27388749727797
 21
748.82341362086049
  0
LINE
  8
_5-0_
  6
CONTINUOUS
 62
    7
 10
179.27388749727797
 20
748.82341362086049
 11
179.27478795759228
 21
748.81417687083683
  0
LINE
  8
_5-0_
  6
CONTINUOUS
 62
    7
 10
179.27478795759228
 20
748.81417687083683
 11
179.27537924853382
 21
748.80562704896761
  0
LINE
  8
_5-0_
  6
CONTINUOUS
 62
    7
 10
179.27537924853382
 20
748.80562704896761
 11
179.27570328529271
 21
748.7975250989532
  0
LINE
  8
_5-0_
  6
CONTINUOUS
 62
    7
 10
179.27570328529271
 20
748.7975250989532
 11
179.27580198305904
 21
748.7896319644949
  0
LINE
  8
_5-0_
  6
CONTINUOUS
 62
    7
 10
179.27580198305904
 20
742.19236148511527
 11
179.27580198305904
 21
742.19509305436304
  0
LINE
  8
_5-0_
  6
CONTINUOUS
 62
    7
 10
179.27580198305904
 20
742.19509305436304
 11
179.27580198305904
 21
742.20229446419808
  0
LINE
  8
_5-0_
  6
CONTINUOUS
 62
    7
 10
179.27580198305904
 20
742.20229446419808
 11
179.27580198305904
 21
742.21247576775772
  0
LINE
  8
_5-0_
  6
CONTINUOUS
 62
    7
 10
179.27580198305904
 20
742.21247576775772
 11
179.27580198305904
 21
742.22414701817979
  0
LINE
  8
_5-0_
  6
CONTINUOUS
 62
    7
 10
179.27580198305904
 20
742.22414701817979
 11
179.27580198305904
 21
742.23581826860197
  0
LINE
  8
_5-0_
  6
CONTINUOUS
 62
    7
 10
179.27580198305904
 20
742.23581826860197
 11
179.27580198305904
 21
742.24599957216174
  0
LINE
  8
_5-0_
  6
CONTINUOUS
 62
    7
 10
179.27580198305904
 20
742.24599957216174
 11
179.27580198305904
 21
742.25320098199654
  0
LINE
  8
_5-0_
  6
CONTINUOUS
 62
    7
 10
179.27580198305904
 20
742.25320098199654
 11
179.27580198305904
 21
742.25593255124431
  0
LINE
  8
_5-0_
  6
CONTINUOUS
 62
    7
 10
179.27580198305904
 20
742.25593255124431
 11
179.27580198305904
 21
742.31536363844361
  0
LINE
  8
_5-0_
  6
CONTINUOUS
 62
    7
 10
179.27580198305904
 20
742.31536363844361
 11
179.27580198305904
 21
742.47204559560475
  0
LINE
  8
_5-0_
  6
CONTINUOUS
 62
    7
 10
179.27580198305904
 20
742.47204559560475
 11
179.27580198305904
 21
742.69356146607402
  0
LINE
  8
_5-0_
  6
CONTINUOUS
 62
    7
 10
179.27580198305904
 20
742.69356146607402
 11
179.27580198305904
 21
742.94749429319768
  0
LINE
  8
_5-0_
  6
CONTINUOUS
 62
    7
 10
179.27580198305904
 20
742.94749429319768
 11
179.27580198305904
 21
743.20142712032111
  0
LINE
  8
_5-0_
  6
CONTINUOUS
 62
    7
 10
179.27580198305904
 20
743.20142712032111
 11
179.27580198305904
 21
743.42294299079049
  0
LINE
  8
_5-0_
  6
CONTINUOUS
 62
    7
 10
179.27580198305904
 20
743.42294299079049
 11
179.27580198305904
 21
743.57962494795174
  0
LINE
  8
_5-0_
  6
CONTINUOUS
 62
    7
 10
179.27580198305904
 20
743.57962494795174
 11
179.27580198305904
 21
743.63905603515082
  0
LINE
  8
_5-0_
  6
CONTINUOUS
 62
    7
 10
179.27580198305904
 20
743.63905603515082
 11
179.27580198305904
 21
743.64482458127554
  0
LINE
  8
_5-0_
  6
CONTINUOUS
 62
    7
 10
179.27580198305904
 20
743.64482458127554
 11
179.27580198305904
 21
743.66003256651379
  0
LINE
  8
_5-0_
  6
CONTINUOUS
 62
    7
 10
179.27580198305904
 20
743.66003256651379
 11
179.27580198305904
 21
743.68153351116098
  0
LINE
  8
_5-0_
  6
CONTINUOUS
 62
    7
 10
179.27580198305904
 20
743.68153351116098
 11
179.27580198305904
 21
743.70618093551252
  0
LINE
  8
_5-0_
  6
CONTINUOUS
 62
    7
 10
179.27580198305904
 20
743.70618093551252
 11
179.27580198305904
 21
743.73082835986406
  0
LINE
  8
_5-0_
  6
CONTINUOUS
 62
    7
 10
179.27580198305904
 20
743.73082835986406
 11
179.27580198305904
 21
743.75232930451125
  0
LINE
  8
_5-0_
  6
CONTINUOUS
 62
    7
 10
179.27580198305904
 20
743.75232930451125
 11
179.27580198305904
 21
743.7675372897495
  0
LINE
  8
_5-0_
  6
CONTINUOUS
 62
    7
 10
179.27580198305904
 20
743.7675372897495
 11
179.27580198305904
 21
743.77330583587423
  0
LINE
  8
_5-0_
  6
CONTINUOUS
 62
    7
 10
177.78462454174127
 20
751.10888762339528
 11
177.78475375520145
 21
751.10888762339528
  0
LINE
  8
_5-0_
  6
CONTINUOUS
 62
    7
 10
177.78475375520145
 20
751.10888762339528
 11
177.78509440886916
 21
751.10888762339528
  0
LINE
  8
_5-0_
  6
CONTINUOUS
 62
    7
 10
177.78509440886916
 20
751.10888762339528
 11
177.78557602267512
 21
751.10888762339528
  0
LINE
  8
_5-0_
  6
CONTINUOUS
 62
    7
 10
177.78557602267512
 20
751.10888762339528
 11
177.78612811655046
 21
751.10888762339528
  0
LINE
  8
_5-0_
  6
CONTINUOUS
 62
    7
 10
177.78612811655046
 20
751.10888762339528
 11
177.78668021042563
 21
751.10888762339528
  0
LINE
  8
_5-0_
  6
CONTINUOUS
 62
    7
 10
177.78668021042563
 20
751.10888762339528
 11
177.78716182423176
 21
751.10888762339528
  0
LINE
  8
_5-0_
  6
CONTINUOUS
 62
    7
 10
177.78716182423176
 20
751.10888762339528
 11
177.78750247789944
 21
751.10888762339528
  0
LINE
  8
_5-0_
  6
CONTINUOUS
 62
    7
 10
177.78750247789944
 20
751.10888762339528
 11
177.78763169135956
 21
751.10888762339528
  0
LINE
  8
_5-0_
  6
CONTINUOUS
 62
    7
 10
177.78763169135956
 20
751.10888762339528
 11
177.83189700023854
 21
751.10888762339528
  0
LINE
  8
_5-0_
  6
CONTINUOUS
 62
    7
 10
177.83189700023854
 20
751.10888762339528
 11
177.94859645091961
 21
751.10888762339528
  0
LINE
  8
_5-0_
  6
CONTINUOUS
 62
    7
 10
177.94859645091961
 20
751.10888762339528
 11
178.11358532946878
 21
751.10888762339528
  0
LINE
  8
_5-0_
  6
CONTINUOUS
 62
    7
 10
178.11358532946878
 20
751.10888762339528
 11
178.30271892195191
 21
751.10888762339528
  0
LINE
  8
_5-0_
  6
CONTINUOUS
 62
    7
 10
178.30271892195191
 20
751.10888762339528
 11
178.49185251443501
 21
751.10888762339528
  0
LINE
  8
_5-0_
  6
CONTINUOUS
 62
    7
 10
178.49185251443501
 20
751.10888762339528
 11
178.65684139298423
 21
751.10888762339528
  0
LINE
  8
_5-0_
  6
CONTINUOUS
 62
    7
 10
178.65684139298423
 20
751.10888762339528
 11
178.7735408436653
 21
751.10888762339528
  0
LINE
  8
_5-0_
  6
CONTINUOUS
 62
    7
 10
178.7735408436653
 20
751.10888762339528
 11
178.81780615254434
 21
751.10888762339528
  0
LINE
  8
_5-0_
  6
CONTINUOUS
 62
    7
 10
178.81780615254434
 20
751.10888762339528
 11
178.81958039497846
 21
751.10888762339528
  0
LINE
  8
_5-0_
  6
CONTINUOUS
 62
    7
 10
178.81958039497846
 20
751.10888762339528
 11
178.82425794321378
 21
751.10888762339528
  0
LINE
  8
_5-0_
  6
CONTINUOUS
 62
    7
 10
178.82425794321378
 20
751.10888762339528
 11
178.83087102864982
 21
751.10888762339528
  0
LINE
  8
_5-0_
  6
CONTINUOUS
 62
    7
 10
178.83087102864982
 20
751.10888762339528
 11
178.83845188268623
 21
751.10888762339528
  0
LINE
  8
_5-0_
  6
CONTINUOUS
 62
    7
 10
178.83845188268623
 20
751.10888762339528
 11
178.84603273672275
 21
751.10888762339528
  0
LINE
  8
_5-0_
  6
CONTINUOUS
 62
    7
 10
178.84603273672275
 20
751.10888762339528
 11
178.85264582215882
 21
751.10888762339528
  0
LINE
  8
_5-0_
  6
CONTINUOUS
 62
    7
 10
178.85264582215882
 20
751.10888762339528
 11
178.85732337039414
 21
751.10888762339528
  0
LINE
  8
_5-0_
  6
CONTINUOUS
 62
    7
 10
178.85732337039414
 20
751.10888762339528
 11
178.85909761282824
 21
751.10888762339528
  0
LINE
  8
_5-0_
  6
CONTINUOUS
 62
    7
 10
179.27580198305904
 20
745.75421881103796
 11
179.04081913944992
 21
746.10870709856886
  0
LINE
  8
_5-0_
  6
CONTINUOUS
 62
    7
 10
179.04081913944992
 20
746.10870709856886
 11
179.05162995670958
 21
746.10290690740828
  0
LINE
  8
_5-0_
  6
CONTINUOUS
 62
    7
 10
179.05162995670958
 20
746.10290690740828
 11
179.06251362180433
 21
746.09668510367987
  0
LINE
  8
_5-0_
  6
CONTINUOUS
 62
    7
 10
179.06251362180433
 20
746.09668510367987
 11
179.0736205599311
 21
746.08990515312212
  0
LINE
  8
_5-0_
  6
CONTINUOUS
 62
    7
 10
179.0736205599311
 20
746.08990515312212
 11
179.08510119628625
 21
746.08243052147384
  0
LINE
  8
_5-0_
  6
CONTINUOUS
 62
    7
 10
179.08510119628625
 20
746.08243052147384
 11
179.09710595606626
 21
746.07412467447352
  0
LINE
  8
_5-0_
  6
CONTINUOUS
 62
    7
 10
179.09710595606626
 20
746.07412467447352
 11
179.10978526446755
 21
746.06485107785988
  0
LINE
  8
_5-0_
  6
CONTINUOUS
 62
    7
 10
179.10978526446755
 20
746.06485107785988
 11
179.12328954668681
 21
746.05447319737141
  0
LINE
  8
_5-0_
  6
CONTINUOUS
 62
    7
 10
179.12328954668681
 20
746.05447319737141
 11
179.13776922792067
 21
746.04285449874669
  0
LINE
  8
_5-0_
  6
CONTINUOUS
 62
    7
 10
179.13776922792067
 20
746.04285449874669
 11
179.14316754585121
 21
746.03779281537709
  0
LINE
  8
_5-0_
  6
CONTINUOUS
 62
    7
 10
179.14316754585121
 20
746.03779281537709
 11
179.14940685067245
 21
746.03171389134559
  0
LINE
  8
_5-0_
  6
CONTINUOUS
 62
    7
 10
179.14940685067245
 20
746.03171389134559
 11
179.15619083028233
 21
746.02492377569411
  0
LINE
  8
_5-0_
  6
CONTINUOUS
 62
    7
 10
179.15619083028233
 20
746.02492377569411
 11
179.16322317257936
 21
746.01772851746421
  0
LINE
  8
_5-0_
  6
CONTINUOUS
 62
    7
 10
179.16322317257936
 20
746.01772851746421
 11
179.17020756546165
 21
746.01043416569735
  0
LINE
  8
_5-0_
  6
CONTINUOUS
 62
    7
 10
179.17020756546165
 20
746.01043416569735
 11
179.17684769682751
 21
746.00334676943544
  0
LINE
  8
_5-0_
  6
CONTINUOUS
 62
    7
 10
179.17684769682751
 20
746.00334676943544
 11
179.18284725457525
 21
745.99677237771994
  0
LINE
  8
_5-0_
  6
CONTINUOUS
 62
    7
 10
179.18284725457525
 20
745.99677237771994
 11
179.18790992660325
 21
745.99101703959286
  0
LINE
  8
_5-0_
  6
CONTINUOUS
 62
    7
 10
179.18790992660325
 20
745.99101703959286
 11
179.19573584214035
 21
745.98043225010838
  0
LINE
  8
_5-0_
  6
CONTINUOUS
 62
    7
 10
179.19573584214035
 20
745.98043225010838
 11
179.20268071987641
 21
745.97077788191541
  0
LINE
  8
_5-0_
  6
CONTINUOUS
 62
    7
 10
179.20268071987641
 20
745.97077788191541
 11
179.20898229154432
 21
745.96167797128476
  0
LINE
  8
_5-0_
  6
CONTINUOUS
 62
    7
 10
179.20898229154432
 20
745.96167797128476
 11
179.21487828887683
 21
745.95275655448734
  0
LINE
  8
_5-0_
  6
CONTINUOUS
 62
    7
 10
179.21487828887683
 20
745.95275655448734
 11
179.22060644360675
 21
745.94363766779429
  0
LINE
  8
_5-0_
  6
CONTINUOUS
 62
    7
 10
179.22060644360675
 20
745.94363766779429
 11
179.22640448746677
 21
745.93394534747642
  0
LINE
  8
_5-0_
  6
CONTINUOUS
 62
    7
 10
179.22640448746677
 20
745.93394534747642
 11
179.2325101521898
 21
745.92330362980488
  0
LINE
  8
_5-0_
  6
CONTINUOUS
 62
    7
 10
179.2325101521898
 20
745.92330362980488
 11
179.23916116950863
 21
745.91133655105045
  0
LINE
  8
_5-0_
  6
CONTINUOUS
 62
    7
 10
179.23916116950863
 20
745.91133655105045
 11
179.24248575872667
 21
745.90373009357495
  0
LINE
  8
_5-0_
  6
CONTINUOUS
 62
    7
 10
179.24248575872667
 20
745.90373009357495
 11
179.24615065201385
 21
745.89474634236944
  0
LINE
  8
_5-0_
  6
CONTINUOUS
 62
    7
 10
179.24615065201385
 20
745.89474634236944
 11
179.24999778075076
 21
745.88482113296766
  0
LINE
  8
_5-0_
  6
CONTINUOUS
 62
    7
 10
179.24999778075076
 20
745.88482113296766
 11
179.25386907631818
 21
745.87439030090286
  0
LINE
  8
_5-0_
  6
CONTINUOUS
 62
    7
 10
179.25386907631818
 20
745.87439030090286
 11
179.25760647009682
 21
745.86388968170832
  0
LINE
  8
_5-0_
  6
CONTINUOUS
 62
    7
 10
179.25760647009682
 20
745.86388968170832
 11
179.26105189346771
 21
745.85375511091797
  0
LINE
  8
_5-0_
  6
CONTINUOUS
 62
    7
 10
179.26105189346771
 20
745.85375511091797
 11
179.26404727781133
 21
745.8444224240651
  0
LINE
  8
_5-0_
  6
CONTINUOUS
 62
    7
 10
179.26404727781133
 20
745.8444224240651
 11
179.26643455450844
 21
745.83632745668297
  0
LINE
  8
_5-0_
  6
CONTINUOUS
 62
    7
 10
179.26643455450844
 20
745.83632745668297
 11
179.26897043150382
 21
745.82199322917859
  0
LINE
  8
_5-0_
  6
CONTINUOUS
 62
    7
 10
179.26897043150382
 20
745.82199322917859
 11
179.27103296341528
 21
745.80929875383163
  0
LINE
  8
_5-0_
  6
CONTINUOUS
 62
    7
 10
179.27103296341528
 20
745.80929875383163
 11
179.27266383015217
 21
745.79800567553457
  0
LINE
  8
_5-0_
  6
CONTINUOUS
 62
    7
 10
179.27266383015217
 20
745.79800567553457
 11
179.27390471162431
 21
745.78787563918013
  0
LINE
  8
_5-0_
  6
CONTINUOUS
 62
    7
 10
179.27390471162431
 20
745.78787563918013
 11
179.27479728774154
 21
745.77867028966057
  0
LINE
  8
_5-0_
  6
CONTINUOUS
 62
    7
 10
179.27479728774154
 20
745.77867028966057
 11
179.27538323841327
 21
745.77015127186871
  0
LINE
  8
_5-0_
  6
CONTINUOUS
 62
    7
 10
179.27538323841327
 20
745.77015127186871
 11
179.27570424354926
 21
745.76208023069694
  0
LINE
  8
_5-0_
  6
CONTINUOUS
 62
    7
 10
179.27570424354926
 20
745.76208023069694
 11
179.27580198305904
 21
745.75421881103796
  0
LINE
  8
_5-0_
  6
CONTINUOUS
 62
    7
 10
178.0391352347749
 20
749.66556388786773
 11
178.04190317930733
 21
749.66412298714636
  0
LINE
  8
_5-0_
  6
CONTINUOUS
 62
    7
 10
178.04190317930733
 20
749.66412298714636
 11
178.04559603543993
 21
749.66220060792125
  0
LINE
  8
_5-0_
  6
CONTINUOUS
 62
    7
 10
178.04559603543993
 20
749.66220060792125
 11
178.04993641417084
 21
749.65994114976706
  0
LINE
  8
_5-0_
  6
CONTINUOUS
 62
    7
 10
178.04993641417084
 20
749.65994114976706
 11
178.05464692649792
 21
749.65748901225834
  0
LINE
  8
_5-0_
  6
CONTINUOUS
 62
    7
 10
178.05464692649792
 20
749.65748901225834
 11
178.0594501834193
 21
749.65498859496972
  0
LINE
  8
_5-0_
  6
CONTINUOUS
 62
    7
 10
178.0594501834193
 20
749.65498859496972
 11
178.06406879593311
 21
749.65258429747576
  0
LINE
  8
_5-0_
  6
CONTINUOUS
 62
    7
 10
178.06406879593311
 20
749.65258429747576
 11
178.0682253750372
 21
749.6504205193512
  0
LINE
  8
_5-0_
  6
CONTINUOUS
 62
    7
 10
178.0682253750372
 20
749.6504205193512
 11
178.07164253172971
 21
749.64864166017048
  0
LINE
  8
_5-0_
  6
CONTINUOUS
 62
    7
 10
178.07164253172971
 20
749.64864166017048
 11
178.07835095634388
 21
749.64514947535531
  0
LINE
  8
_5-0_
  6
CONTINUOUS
 62
    7
 10
178.07835095634388
 20
749.64514947535531
 11
178.08471773922037
 21
749.64183513797161
  0
LINE
  8
_5-0_
  6
CONTINUOUS
 62
    7
 10
178.08471773922037
 20
749.64183513797161
 11
178.09113876942035
 21
749.63849256121898
  0
LINE
  8
_5-0_
  6
CONTINUOUS
 62
    7
 10
178.09113876942035
 20
749.63849256121898
 11
178.09800993600476
 21
749.63491565829622
  0
LINE
  8
_5-0_
  6
CONTINUOUS
 62
    7
 10
178.09800993600476
 20
749.63491565829622
 11
178.1057271280344
 21
749.63089834240293
  0
LINE
  8
_5-0_
  6
CONTINUOUS
 62
    7
 10
178.1057271280344
 20
749.63089834240293
 11
178.11468623457046
 21
749.62623452673802
  0
LINE
  8
_5-0_
  6
CONTINUOUS
 62
    7
 10
178.11468623457046
 20
749.62623452673802
 11
178.12528314467343
 21
749.62071812450063
  0
LINE
  8
_5-0_
  6
CONTINUOUS
 62
    7
 10
178.12528314467343
 20
749.62071812450063
 11
178.13791374740453
 21
749.61414304889013
  0
LINE
  8
_5-0_
  6
CONTINUOUS
 62
    7
 10
178.13791374740453
 20
749.61414304889013
 11
178.15019505329332
 21
749.60774980570682
  0
LINE
  8
_5-0_
  6
CONTINUOUS
 62
    7
 10
178.15019505329332
 20
749.60774980570682
 11
178.16396625414905
 21
749.60058097229467
  0
LINE
  8
_5-0_
  6
CONTINUOUS
 62
    7
 10
178.16396625414905
 20
749.60058097229467
 11
178.17855724678424
 21
749.59298538229405
  0
LINE
  8
_5-0_
  6
CONTINUOUS
 62
    7
 10
178.17855724678424
 20
749.59298538229405
 11
178.19329792801136
 21
749.58531186934454
  0
LINE
  8
_5-0_
  6
CONTINUOUS
 62
    7
 10
178.19329792801136
 20
749.58531186934454
 11
178.20751819464263
 21
749.57790926708617
  0
LINE
  8
_5-0_
  6
CONTINUOUS
 62
    7
 10
178.20751819464263
 20
749.57790926708617
 11
178.22054794349086
 21
749.57112640915875
  0
LINE
  8
_5-0_
  6
CONTINUOUS
 62
    7
 10
178.22054794349086
 20
749.57112640915875
 11
178.23171707136822
 21
749.56531212920243
  0
LINE
  8
_5-0_
  6
CONTINUOUS
 62
    7
 10
178.23171707136822
 20
749.56531212920243
 11
178.24035547508728
 21
749.560815260857
  0
LINE
  8
_5-0_
  6
CONTINUOUS
 62
    7
 10
178.24035547508728
 20
749.560815260857
 11
178.25495365391646
 21
749.5532159299604
  0
LINE
  8
_5-0_
  6
CONTINUOUS
 62
    7
 10
178.25495365391646
 20
749.5532159299604
 11
178.26905988955303
 21
749.54587268848059
  0
LINE
  8
_5-0_
  6
CONTINUOUS
 62
    7
 10
178.26905988955303
 20
749.54587268848059
 11
178.28397020811224
 21
749.53811086792552
  0
LINE
  8
_5-0_
  6
CONTINUOUS
 62
    7
 10
178.28397020811224
 20
749.53811086792552
 11
178.30098063570887
 21
749.52925579980297
  0
LINE
  8
_5-0_
  6
CONTINUOUS
 62
    7
 10
178.30098063570887
 20
749.52925579980297
 11
178.32138719845796
 21
749.51863281562066
  0
LINE
  8
_5-0_
  6
CONTINUOUS
 62
    7
 10
178.32138719845796
 20
749.51863281562066
 11
178.34648592247447
 21
749.50556724688681
  0
LINE
  8
_5-0_
  6
CONTINUOUS
 62
    7
 10
178.34648592247447
 20
749.50556724688681
 11
178.37757283387347
 21
749.48938442510905
  0
LINE
  8
_5-0_
  6
CONTINUOUS
 62
    7
 10
178.37757283387347
 20
749.48938442510905
 11
178.41594395876982
 21
749.46940968179547
  0
LINE
  8
_5-0_
  6
CONTINUOUS
 62
    7
 10
178.41594395876982
 20
749.46940968179547
 11
178.45911796428325
 21
749.4469347170849
  0
LINE
  8
_5-0_
  6
CONTINUOUS
 62
    7
 10
178.45911796428325
 20
749.4469347170849
 11
178.50694488403627
 21
749.42203759853203
  0
LINE
  8
_5-0_
  6
CONTINUOUS
 62
    7
 10
178.50694488403627
 20
749.42203759853203
 11
178.55719588474813
 21
749.39587858330412
  0
LINE
  8
_5-0_
  6
CONTINUOUS
 62
    7
 10
178.55719588474813
 20
749.39587858330412
 11
178.60764213313828
 21
749.36961792856835
  0
LINE
  8
_5-0_
  6
CONTINUOUS
 62
    7
 10
178.60764213313828
 20
749.36961792856835
 11
178.65605479592588
 21
749.34441589149162
  0
LINE
  8
_5-0_
  6
CONTINUOUS
 62
    7
 10
178.65605479592588
 20
749.34441589149162
 11
178.70020503983028
 21
749.32143272924122
  0
LINE
  8
_5-0_
  6
CONTINUOUS
 62
    7
 10
178.70020503983028
 20
749.32143272924122
 11
178.73786403157098
 21
749.30182869898408
  0
LINE
  8
_5-0_
  6
CONTINUOUS
 62
    7
 10
178.73786403157098
 20
749.30182869898408
 11
178.76680293786691
 21
749.28676405788724
  0
LINE
  8
_5-0_
  6
CONTINUOUS
 62
    7
 10
178.76680293786691
 20
749.28676405788724
 11
178.81382697121666
 21
749.26228489554137
  0
LINE
  8
_5-0_
  6
CONTINUOUS
 62
    7
 10
178.81382697121666
 20
749.26228489554137
 11
178.85563073545092
 21
749.24052323329192
  0
LINE
  8
_5-0_
  6
CONTINUOUS
 62
    7
 10
178.85563073545092
 20
749.24052323329192
 11
178.89299120061835
 21
749.22107460613245
  0
LINE
  8
_5-0_
  6
CONTINUOUS
 62
    7
 10
178.89299120061835
 20
749.22107460613245
 11
178.92668533676726
 21
749.20353454905649
  0
LINE
  8
_5-0_
  6
CONTINUOUS
 62
    7
 10
178.92668533676726
 20
749.20353454905649
 11
178.95749011394614
 21
749.1874985970577
  0
LINE
  8
_5-0_
  6
CONTINUOUS
 62
    7
 10
178.95749011394614
 20
749.1874985970577
 11
178.98618250220366
 21
749.17256228512906
  0
LINE
  8
_5-0_
  6
CONTINUOUS
 62
    7
 10
178.98618250220366
 20
749.17256228512906
 11
179.0135394715881
 21
749.15832114826458
  0
LINE
  8
_5-0_
  6
CONTINUOUS
 62
    7
 10
179.0135394715881
 20
749.15832114826458
 11
179.04033799214801
 21
749.14437072145756
  0
LINE
  8
_5-0_
  6
CONTINUOUS
 62
    7
 10
179.27580198305904
 20
745.11683886541618
 11
179.17729035710565
 21
745.10754308503215
  0
LINE
  8
_5-0_
  6
CONTINUOUS
 62
    7
 10
179.17729035710565
 20
745.10754308503215
 11
179.1776393446043
 21
745.10757648182698
  0
LINE
  8
_5-0_
  6
CONTINUOUS
 62
    7
 10
179.1776393446043
 20
745.10757648182698
 11
179.17855940255555
 21
745.10766452792245
  0
LINE
  8
_5-0_
  6
CONTINUOUS
 62
    7
 10
179.17855940255555
 20
745.10766452792245
 11
179.17986017414165
 21
745.1077890068849
  0
LINE
  8
_5-0_
  6
CONTINUOUS
 62
    7
 10
179.17986017414165
 20
745.1077890068849
 11
179.18135130254512
 21
745.10793170228101
  0
LINE
  8
_5-0_
  6
CONTINUOUS
 62
    7
 10
179.18135130254512
 20
745.10793170228101
 11
179.18284243094874
 21
745.10807439767689
  0
LINE
  8
_5-0_
  6
CONTINUOUS
 62
    7
 10
179.18284243094874
 20
745.10807439767689
 11
179.18414320253481
 21
745.10819887663956
  0
LINE
  8
_5-0_
  6
CONTINUOUS
 62
    7
 10
179.18414320253481
 20
745.10819887663956
 11
179.185063260486
 21
745.10828692273492
  0
LINE
  8
_5-0_
  6
CONTINUOUS
 62
    7
 10
179.185063260486
 20
745.10828692273492
 11
179.18541224798474
 21
745.10832031952975
  0
LINE
  8
_5-0_
  6
CONTINUOUS
 62
    7
 10
179.18541224798474
 20
745.10832031952975
 11
179.19215888826557
 21
745.10896287750484
  0
LINE
  8
_5-0_
  6
CONTINUOUS
 62
    7
 10
179.19215888826557
 20
745.10896287750484
 11
179.20189040020125
 21
745.10988572520034
  0
LINE
  8
_5-0_
  6
CONTINUOUS
 62
    7
 10
179.20189040020125
 20
745.10988572520034
 11
179.21361806658348
 21
745.11099542972659
  0
LINE
  8
_5-0_
  6
CONTINUOUS
 62
    7
 10
179.21361806658348
 20
745.11099542972659
 11
179.22635317020388
 21
745.11219855819434
  0
LINE
  8
_5-0_
  6
CONTINUOUS
 62
    7
 10
179.22635317020388
 20
745.11219855819434
 11
179.23910699385416
 21
745.11340167771414
  0
LINE
  8
_5-0_
  6
CONTINUOUS
 62
    7
 10
179.23910699385416
 20
745.11340167771414
 11
179.25089082032613
 21
745.11451135539619
  0
LINE
  8
_5-0_
  6
CONTINUOUS
 62
    7
 10
179.25089082032613
 20
745.11451135539619
 11
179.26071593241133
 21
745.11543415835104
  0
LINE
  8
_5-0_
  6
CONTINUOUS
 62
    7
 10
179.26071593241133
 20
745.11543415835104
 11
179.26759361290175
 21
745.11607665368945
  0
LINE
  8
_5-0_
  6
CONTINUOUS
 62
    7
 10
179.26759361290175
 20
745.11607665368945
 11
179.2679463163069
 21
745.11610940497462
  0
LINE
  8
_5-0_
  6
CONTINUOUS
 62
    7
 10
179.2679463163069
 20
745.11610940497462
 11
179.26887617073888
 21
745.11619574927181
  0
LINE
  8
_5-0_
  6
CONTINUOUS
 62
    7
 10
179.26887617073888
 20
745.11619574927181
 11
179.27019079252182
 21
745.11631782224356
  0
LINE
  8
_5-0_
  6
CONTINUOUS
 62
    7
 10
179.27019079252182
 20
745.11631782224356
 11
179.27169779798044
 21
745.11645775955287
  0
LINE
  8
_5-0_
  6
CONTINUOUS
 62
    7
 10
179.27169779798044
 20
745.11645775955287
 11
179.27320480343894
 21
745.11659769686207
  0
LINE
  8
_5-0_
  6
CONTINUOUS
 62
    7
 10
179.27320480343894
 20
745.11659769686207
 11
179.27451942522197
 21
745.11671976983394
  0
LINE
  8
_5-0_
  6
CONTINUOUS
 62
    7
 10
179.27451942522197
 20
745.11671976983394
 11
179.27544927965386
 21
745.11680611413112
  0
LINE
  8
_5-0_
  6
CONTINUOUS
 62
    7
 10
179.27544927965386
 20
745.11680611413112
 11
179.27580198305904
 21
745.11683886541618
  0
LINE
  8
_5-0_
  6
CONTINUOUS
 62
    7
 10
179.27580198305904
 20
751.23936605661868
 11
179.1660656961254
 21
751.23001442728423
  0
LINE
  8
_5-0_
  6
CONTINUOUS
 62
    7
 10
179.1660656961254
 20
751.23001442728423
 11
179.16645378731027
 21
751.23004811059093
  0
LINE
  8
_5-0_
  6
CONTINUOUS
 62
    7
 10
179.16645378731027
 20
751.23004811059093
 11
179.16747693679767
 21
751.23013691203573
  0
LINE
  8
_5-0_
  6
CONTINUOUS
 62
    7
 10
179.16747693679767
 20
751.23013691203573
 11
179.16892345848666
 21
751.23026245890605
  0
LINE
  8
_5-0_
  6
CONTINUOUS
 62
    7
 10
179.16892345848666
 20
751.23026245890605
 11
179.17058166627641
 21
751.23040637848919
  0
LINE
  8
_5-0_
  6
CONTINUOUS
 62
    7
 10
179.17058166627641
 20
751.23040637848919
 11
179.17223987406635
 21
751.23055029807222
  0
LINE
  8
_5-0_
  6
CONTINUOUS
 62
    7
 10
179.17223987406635
 20
751.23055029807222
 11
179.17368639575534
 21
751.23067584494254
  0
LINE
  8
_5-0_
  6
CONTINUOUS
 62
    7
 10
179.17368639575534
 20
751.23067584494254
 11
179.17470954524262
 21
751.23076464638734
  0
LINE
  8
_5-0_
  6
CONTINUOUS
 62
    7
 10
179.17470954524262
 20
751.23076464638734
 11
179.17509763642755
 21
751.23079832969415
  0
LINE
  8
_5-0_
  6
CONTINUOUS
 62
    7
 10
179.17509763642755
 20
751.23079832969415
 11
179.18259831315675
 21
751.2314453328554
  0
LINE
  8
_5-0_
  6
CONTINUOUS
 62
    7
 10
179.18259831315675
 20
751.2314453328554
 11
179.19342797917707
 21
751.23237429031201
  0
LINE
  8
_5-0_
  6
CONTINUOUS
 62
    7
 10
179.19342797917707
 20
751.23237429031201
 11
179.20648541774113
 21
751.23349115304734
  0
LINE
  8
_5-0_
  6
CONTINUOUS
 62
    7
 10
179.20648541774113
 20
751.23349115304734
 11
179.22066941210153
 21
751.2347018720443
  0
LINE
  8
_5-0_
  6
CONTINUOUS
 62
    7
 10
179.22066941210153
 20
751.2347018720443
 11
179.23487874551071
 21
751.23591239828647
  0
LINE
  8
_5-0_
  6
CONTINUOUS
 62
    7
 10
179.23487874551071
 20
751.23591239828647
 11
179.24801220122134
 21
751.23702868275655
  0
LINE
  8
_5-0_
  6
CONTINUOUS
 62
    7
 10
179.24801220122134
 20
751.23702868275655
 11
179.2589685624859
 21
751.23795667643822
  0
LINE
  8
_5-0_
  6
CONTINUOUS
 62
    7
 10
179.2589685624859
 20
751.23795667643822
 11
179.26664661255714
 21
751.23860233031451
  0
LINE
  8
_5-0_
  6
CONTINUOUS
 62
    7
 10
179.26664661255714
 20
751.23860233031451
 11
179.26704000738346
 21
751.23863514667914
  0
LINE
  8
_5-0_
  6
CONTINUOUS
 62
    7
 10
179.26704000738346
 20
751.23863514667914
 11
179.26807713919806
 21
751.23872166254955
  0
LINE
  8
_5-0_
  6
CONTINUOUS
 62
    7
 10
179.26807713919806
 20
751.23872166254955
 11
179.26954342900501
 21
751.23884397809047
  0
LINE
  8
_5-0_
  6
CONTINUOUS
 62
    7
 10
179.26954342900501
 20
751.23884397809047
 11
179.27122429780803
 21
751.23898419346665
  0
LINE
  8
_5-0_
  6
CONTINUOUS
 62
    7
 10
179.27122429780803
 20
751.23898419346665
 11
179.27290516661117
 21
751.23912440884283
  0
LINE
  8
_5-0_
  6
CONTINUOUS
 62
    7
 10
179.27290516661117
 20
751.23912440884283
 11
179.27437145641818
 21
751.23924672438363
  0
LINE
  8
_5-0_
  6
CONTINUOUS
 62
    7
 10
179.27437145641818
 20
751.23924672438363
 11
179.27540858823284
 21
751.23933324025415
  0
LINE
  8
_5-0_
  6
CONTINUOUS
 62
    7
 10
179.27540858823284
 20
751.23933324025415
 11
179.27580198305904
 21
751.23936605661868
  0
LINE
  8
_5-0_
  6
CONTINUOUS
 62
    7
 10
179.27580198305904
 20
748.38966334009001
 11
179.16605174447682
 21
748.13134967846793
  0
LINE
  8
_5-0_
  6
CONTINUOUS
 62
    7
 10
179.16605174447682
 20
748.13134967846793
 11
179.16640330881677
 21
748.13169794143607
  0
LINE
  8
_5-0_
  6
CONTINUOUS
 62
    7
 10
179.16640330881677
 20
748.13169794143607
 11
179.16733016025816
 21
748.13261608926143
  0
LINE
  8
_5-0_
  6
CONTINUOUS
 62
    7
 10
179.16733016025816
 20
748.13261608926143
 11
179.16864053643408
 21
748.13391416032459
  0
LINE
  8
_5-0_
  6
CONTINUOUS
 62
    7
 10
179.16864053643408
 20
748.13391416032459
 11
179.17014267497706
 21
748.13540219300705
  0
LINE
  8
_5-0_
  6
CONTINUOUS
 62
    7
 10
179.17014267497706
 20
748.13540219300705
 11
179.17164481352003
 21
748.1368902256894
  0
LINE
  8
_5-0_
  6
CONTINUOUS
 62
    7
 10
179.17164481352003
 20
748.1368902256894
 11
179.17295518969595
 21
748.13818829675267
  0
LINE
  8
_5-0_
  6
CONTINUOUS
 62
    7
 10
179.17295518969595
 20
748.13818829675267
 11
179.17388204113735
 21
748.13910644457792
  0
LINE
  8
_5-0_
  6
CONTINUOUS
 62
    7
 10
179.17388204113735
 20
748.13910644457792
 11
179.17423360547724
 21
748.13945470754618
  0
LINE
  8
_5-0_
  6
CONTINUOUS
 62
    7
 10
179.17423360547724
 20
748.13945470754618
 11
179.18202228805583
 21
748.14779112546159
  0
LINE
  8
_5-0_
  6
CONTINUOUS
 62
    7
 10
179.18202228805583
 20
748.14779112546159
 11
179.19022774180036
 21
748.15761056201677
  0
LINE
  8
_5-0_
  6
CONTINUOUS
 62
    7
 10
179.19022774180036
 20
748.15761056201677
 11
179.19852436947352
 21
748.1683330939303
  0
LINE
  8
_5-0_
  6
CONTINUOUS
 62
    7
 10
179.19852436947352
 20
748.1683330939303
 11
179.20658657383825
 21
748.17937879792066
  0
LINE
  8
_5-0_
  6
CONTINUOUS
 62
    7
 10
179.20658657383825
 20
748.17937879792066
 11
179.21408875765712
 21
748.19016775070645
  0
LINE
  8
_5-0_
  6
CONTINUOUS
 62
    7
 10
179.21408875765712
 20
748.19016775070645
 11
179.22070532369318
 21
748.20012002900648
  0
LINE
  8
_5-0_
  6
CONTINUOUS
 62
    7
 10
179.22070532369318
 20
748.20012002900648
 11
179.2261106747091
 21
748.20865570953913
  0
LINE
  8
_5-0_
  6
CONTINUOUS
 62
    7
 10
179.2261106747091
 20
748.20865570953913
 11
179.22997921346763
 21
748.21519486902298
  0
LINE
  8
_5-0_
  6
CONTINUOUS
 62
    7
 10
179.22997921346763
 20
748.21519486902298
 11
179.23408261764095
 21
748.22259133969328
  0
LINE
  8
_5-0_
  6
CONTINUOUS
 62
    7
 10
179.23408261764095
 20
748.22259133969328
 11
179.23864913309706
 21
748.23119792051386
  0
LINE
  8
_5-0_
  6
CONTINUOUS
 62
    7
 10
179.23864913309706
 20
748.23119792051386
 11
179.24354159444215
 21
748.24115837529075
  0
LINE
  8
_5-0_
  6
CONTINUOUS
 62
    7
 10
179.24354159444215
 20
748.24115837529075
 11
179.24862283628215
 21
748.25261646782997
  0
LINE
  8
_5-0_
  6
CONTINUOUS
 62
    7
 10
179.24862283628215
 20
748.25261646782997
 11
179.25375569322327
 21
748.2657159619373
  0
LINE
  8
_5-0_
  6
CONTINUOUS
 62
    7
 10
179.25375569322327
 20
748.2657159619373
 11
179.25880299987156
 21
748.2806006214189
  0
LINE
  8
_5-0_
  6
CONTINUOUS
 62
    7
 10
179.25880299987156
 20
748.2806006214189
 11
179.26362759083298
 21
748.29741421008055
  0
LINE
  8
_5-0_
  6
CONTINUOUS
 62
    7
 10
179.26362759083298
 20
748.29741421008055
 11
179.2680923007137
 21
748.31630049172816
  0
LINE
  8
_5-0_
  6
CONTINUOUS
 62
    7
 10
179.2680923007137
 20
748.31630049172816
 11
179.27045431923318
 21
748.32776147421646
  0
LINE
  8
_5-0_
  6
CONTINUOUS
 62
    7
 10
179.27045431923318
 20
748.32776147421646
 11
179.27228088763405
 21
748.33739616711114
  0
LINE
  8
_5-0_
  6
CONTINUOUS
 62
    7
 10
179.27228088763405
 20
748.33739616711114
 11
179.27363997265772
 21
748.34556929003156
  0
LINE
  8
_5-0_
  6
CONTINUOUS
 62
    7
 10
179.27363997265772
 20
748.34556929003156
 11
179.2745995410454
 21
748.35264556259642
  0
LINE
  8
_5-0_
  6
CONTINUOUS
 62
    7
 10
179.2745995410454
 20
748.35264556259642
 11
179.27522755953817
 21
748.35898970442486
  0
LINE
  8
_5-0_
  6
CONTINUOUS
 62
    7
 10
179.27522755953817
 20
748.35898970442486
 11
179.27559199487723
 21
748.36496643513567
  0
LINE
  8
_5-0_
  6
CONTINUOUS
 62
    7
 10
179.27559199487723
 20
748.36496643513567
 11
179.27576081380374
 21
748.37094047434789
  0
LINE
  8
_5-0_
  6
CONTINUOUS
 62
    7
 10
179.27576081380374
 20
748.37094047434789
 11
179.27580198305904
 21
748.37727654168032
  0
LINE
  8
_5-0_
  6
CONTINUOUS
 62
    7
 10
179.27580198305904
 20
748.37727654168032
 11
179.27580198305904
 21
748.37780878692456
  0
LINE
  8
_5-0_
  6
CONTINUOUS
 62
    7
 10
179.27580198305904
 20
748.37780878692456
 11
179.27580198305904
 21
748.37921197893195
  0
LINE
  8
_5-0_
  6
CONTINUOUS
 62
    7
 10
179.27580198305904
 20
748.37921197893195
 11
179.27580198305904
 21
748.38119580211469
  0
LINE
  8
_5-0_
  6
CONTINUOUS
 62
    7
 10
179.27580198305904
 20
748.38119580211469
 11
179.27580198305904
 21
748.38346994088522
  0
LINE
  8
_5-0_
  6
CONTINUOUS
 62
    7
 10
179.27580198305904
 20
748.38346994088522
 11
179.27580198305904
 21
748.38574407965575
  0
LINE
  8
_5-0_
  6
CONTINUOUS
 62
    7
 10
179.27580198305904
 20
748.38574407965575
 11
179.27580198305904
 21
748.38772790283861
  0
LINE
  8
_5-0_
  6
CONTINUOUS
 62
    7
 10
179.27580198305904
 20
748.38772790283861
 11
179.27580198305904
 21
748.38913109484588
  0
LINE
  8
_5-0_
  6
CONTINUOUS
 62
    7
 10
179.27580198305904
 20
748.38913109484588
 11
179.27580198305904
 21
748.38966334009001
  0
LINE
  8
_5-0_
  6
CONTINUOUS
 62
    7
 10
179.27580198305904
 20
745.35425018663307
 11
179.1772903572253
 21
745.10754308516675
  0
LINE
  8
_5-0_
  6
CONTINUOUS
 62
    7
 10
179.1772903572253
 20
745.10754308516675
 11
179.18281375013521
 21
745.11362907756222
  0
LINE
  8
_5-0_
  6
CONTINUOUS
 62
    7
 10
179.18281375013521
 20
745.11362907756222
 11
179.18836542491044
 21
745.12006971397807
  0
LINE
  8
_5-0_
  6
CONTINUOUS
 62
    7
 10
179.18836542491044
 20
745.12006971397807
 11
179.19408620045795
 21
745.12708885069981
  0
LINE
  8
_5-0_
  6
CONTINUOUS
 62
    7
 10
179.19408620045795
 20
745.12708885069981
 11
179.20011689568474
 21
745.13491034401329
  0
LINE
  8
_5-0_
  6
CONTINUOUS
 62
    7
 10
179.20011689568474
 20
745.13491034401329
 11
179.20659832949752
 21
745.14375805020393
  0
LINE
  8
_5-0_
  6
CONTINUOUS
 62
    7
 10
179.20659832949752
 20
745.14375805020393
 11
179.21367132080354
 21
745.15385582555734
  0
LINE
  8
_5-0_
  6
CONTINUOUS
 62
    7
 10
179.21367132080354
 20
745.15385582555734
 11
179.22147668850968
 21
745.16542752635939
  0
LINE
  8
_5-0_
  6
CONTINUOUS
 62
    7
 10
179.22147668850968
 20
745.16542752635939
 11
179.23015525152266
 21
745.17869700889582
  0
LINE
  8
_5-0_
  6
CONTINUOUS
 62
    7
 10
179.23015525152266
 20
745.17869700889582
 11
179.23436415718265
 21
745.18714360809895
  0
LINE
  8
_5-0_
  6
CONTINUOUS
 62
    7
 10
179.23436415718265
 20
745.18714360809895
 11
179.23899328050865
 21
745.19713968352505
  0
LINE
  8
_5-0_
  6
CONTINUOUS
 62
    7
 10
179.23899328050865
 20
745.19713968352505
 11
179.24384310571531
 21
745.20819767889463
  0
LINE
  8
_5-0_
  6
CONTINUOUS
 62
    7
 10
179.24384310571531
 20
745.20819767889463
 11
179.24871411701744
 21
745.21983003792809
  0
LINE
  8
_5-0_
  6
CONTINUOUS
 62
    7
 10
179.24871411701744
 20
745.21983003792809
 11
179.25340679862984
 21
745.23154920434592
  0
LINE
  8
_5-0_
  6
CONTINUOUS
 62
    7
 10
179.25340679862984
 20
745.23154920434592
 11
179.25772163476717
 21
745.24286762186853
  0
LINE
  8
_5-0_
  6
CONTINUOUS
 62
    7
 10
179.25772163476717
 20
745.24286762186853
 11
179.26145910964414
 21
745.2532977342164
  0
LINE
  8
_5-0_
  6
CONTINUOUS
 62
    7
 10
179.26145910964414
 20
745.2532977342164
 11
179.26441970747561
 21
745.26235198511006
  0
LINE
  8
_5-0_
  6
CONTINUOUS
 62
    7
 10
179.26441970747561
 20
745.26235198511006
 11
179.26751759635536
 21
745.27841510703729
  0
LINE
  8
_5-0_
  6
CONTINUOUS
 62
    7
 10
179.26751759635536
 20
745.27841510703729
 11
179.27003153669375
 21
745.29263721175903
  0
LINE
  8
_5-0_
  6
CONTINUOUS
 62
    7
 10
179.27003153669375
 20
745.29263721175903
 11
179.27201420212845
 21
745.3052851154871
  0
LINE
  8
_5-0_
  6
CONTINUOUS
 62
    7
 10
179.27201420212845
 20
745.3052851154871
 11
179.27351826629683
 21
745.31662563443331
  0
LINE
  8
_5-0_
  6
CONTINUOUS
 62
    7
 10
179.27351826629683
 20
745.31662563443331
 11
179.27459640283666
 21
745.32692558480926
  0
LINE
  8
_5-0_
  6
CONTINUOUS
 62
    7
 10
179.27459640283666
 20
745.32692558480926
 11
179.27530128538513
 21
745.33645178282677
  0
LINE
  8
_5-0_
  6
CONTINUOUS
 62
    7
 10
179.27530128538513
 20
745.33645178282677
 11
179.27568558758011
 21
745.34547104469743
  0
LINE
  8
_5-0_
  6
CONTINUOUS
 62
    7
 10
179.27568558758011
 20
745.34547104469743
 11
179.27580198305904
 21
745.35425018663307
  0
LINE
  8
_5-0_
  6
CONTINUOUS
 62
    7
 10
179.27580198305904
 20
743.77330583587423
 11
179.27580198305904
 21
743.9412474645668
  0
LINE
  8
_5-0_
  6
CONTINUOUS
 62
    7
 10
179.27580198305904
 20
743.9412474645668
 11
179.27580198305904
 21
744.10918909325937
  0
LINE
  8
_5-0_
  6
CONTINUOUS
 62
    7
 10
179.27580198305904
 20
744.10918909325937
 11
179.27580198305904
 21
744.27713072195206
  0
LINE
  8
_5-0_
  6
CONTINUOUS
 62
    7
 10
179.27580198305904
 20
744.27713072195206
 11
179.27580198305904
 21
744.44507235064475
  0
LINE
  8
_5-0_
  6
CONTINUOUS
 62
    7
 10
179.27580198305904
 20
744.44507235064475
 11
179.27580198305904
 21
744.61301397933755
  0
LINE
  8
_5-0_
  6
CONTINUOUS
 62
    7
 10
179.27580198305904
 20
744.61301397933755
 11
179.27580198305904
 21
744.78095560803058
  0
LINE
  8
_5-0_
  6
CONTINUOUS
 62
    7
 10
179.27580198305904
 20
744.78095560803058
 11
179.27580198305904
 21
744.94889723672372
  0
LINE
  8
_5-0_
  6
CONTINUOUS
 62
    7
 10
179.27580198305904
 20
744.94889723672372
 11
179.27580198305904
 21
745.11683886541709
  0
LINE
  8
_5-0_
  6
CONTINUOUS
 62
    7
 10
179.27580198305904
 20
748.7896319644949
 11
179.27580198305904
 21
749.09584872601022
  0
LINE
  8
_5-0_
  6
CONTINUOUS
 62
    7
 10
179.27580198305904
 20
749.09584872601022
 11
179.27580198305904
 21
749.40206548752542
  0
LINE
  8
_5-0_
  6
CONTINUOUS
 62
    7
 10
179.27580198305904
 20
749.40206548752542
 11
179.27580198305904
 21
749.70828224904096
  0
LINE
  8
_5-0_
  6
CONTINUOUS
 62
    7
 10
179.27580198305904
 20
749.70828224904096
 11
179.27580198305904
 21
750.01449901055651
  0
LINE
  8
_5-0_
  6
CONTINUOUS
 62
    7
 10
179.27580198305904
 20
750.01449901055651
 11
179.27580198305904
 21
750.32071577207205
  0
LINE
  8
_5-0_
  6
CONTINUOUS
 62
    7
 10
179.27580198305904
 20
750.32071577207205
 11
179.27580198305904
 21
750.62693253358759
  0
LINE
  8
_5-0_
  6
CONTINUOUS
 62
    7
 10
179.27580198305904
 20
750.62693253358759
 11
179.27580198305904
 21
750.93314929510314
  0
LINE
  8
_5-0_
  6
CONTINUOUS
 62
    7
 10
179.27580198305904
 20
750.93314929510314
 11
179.27580198305904
 21
751.23936605661834
  0
LINE
  8
_5-0_
  6
CONTINUOUS
 62
    7
 10
179.27580198305904
 20
751.48831426757738
 11
179.16606569610622
 21
751.23001442726877
  0
LINE
  8
_5-0_
  6
CONTINUOUS
 62
    7
 10
179.16606569610622
 20
751.23001442726877
 11
179.16641721921948
 21
751.23036268453711
  0
LINE
  8
_5-0_
  6
CONTINUOUS
 62
    7
 10
179.16641721921948
 20
751.23036268453711
 11
179.16734396197256
 21
751.23128081733603
  0
LINE
  8
_5-0_
  6
CONTINUOUS
 62
    7
 10
179.16734396197256
 20
751.23128081733603
 11
179.16865418448543
 21
751.23257886715464
  0
LINE
  8
_5-0_
  6
CONTINUOUS
 62
    7
 10
179.16865418448543
 20
751.23257886715464
 11
179.17015614687836
 21
751.23406687548368
  0
LINE
  8
_5-0_
  6
CONTINUOUS
 62
    7
 10
179.17015614687836
 20
751.23406687548368
 11
179.17165810927116
 21
751.23555488381248
  0
LINE
  8
_5-0_
  6
CONTINUOUS
 62
    7
 10
179.17165810927116
 20
751.23555488381248
 11
179.17296833178403
 21
751.23685293363133
  0
LINE
  8
_5-0_
  6
CONTINUOUS
 62
    7
 10
179.17296833178403
 20
751.23685293363133
 11
179.17389507453714
 21
751.23777106643001
  0
LINE
  8
_5-0_
  6
CONTINUOUS
 62
    7
 10
179.17389507453714
 20
751.23777106643001
 11
179.17424659765032
 21
751.23811932369847
  0
LINE
  8
_5-0_
  6
CONTINUOUS
 62
    7
 10
179.17424659765032
 20
751.23811932369847
 11
179.182034341095
 21
751.24645555208087
  0
LINE
  8
_5-0_
  6
CONTINUOUS
 62
    7
 10
179.182034341095
 20
751.24645555208087
 11
179.19023881871553
 21
751.25627473746704
  0
LINE
  8
_5-0_
  6
CONTINUOUS
 62
    7
 10
179.19023881871553
 20
751.25627473746704
 11
179.19853446505294
 21
751.26699696867627
  0
LINE
  8
_5-0_
  6
CONTINUOUS
 62
    7
 10
179.19853446505294
 20
751.26699696867627
 11
179.20659571464867
 21
751.27804233452821
  0
LINE
  8
_5-0_
  6
CONTINUOUS
 62
    7
 10
179.20659571464867
 20
751.27804233452821
 11
179.21409700204393
 21
751.28883092384172
  0
LINE
  8
_5-0_
  6
CONTINUOUS
 62
    7
 10
179.21409700204393
 20
751.28883092384172
 11
179.22071276178016
 21
751.29878282543655
  0
LINE
  8
_5-0_
  6
CONTINUOUS
 62
    7
 10
179.22071276178016
 20
751.29878282543655
 11
179.22611742839854
 21
751.30731812813178
  0
LINE
  8
_5-0_
  6
CONTINUOUS
 62
    7
 10
179.22611742839854
 20
751.30731812813178
 11
179.22998543644042
 21
751.31385692074696
  0
LINE
  8
_5-0_
  6
CONTINUOUS
 62
    7
 10
179.22998543644042
 20
751.31385692074696
 11
179.23408829244545
 21
751.32125300088717
  0
LINE
  8
_5-0_
  6
CONTINUOUS
 62
    7
 10
179.23408829244545
 20
751.32125300088717
 11
179.23865419705072
 21
751.32985911492892
  0
LINE
  8
_5-0_
  6
CONTINUOUS
 62
    7
 10
179.23865419705072
 20
751.32985911492892
 11
179.24354600287387
 21
751.33981901374443
  0
LINE
  8
_5-0_
  6
CONTINUOUS
 62
    7
 10
179.24354600287387
 20
751.33981901374443
 11
179.24862656253231
 21
751.35127644820545
  0
LINE
  8
_5-0_
  6
CONTINUOUS
 62
    7
 10
179.24862656253231
 20
751.35127644820545
 11
179.25375872864373
 21
751.3643751691842
  0
LINE
  8
_5-0_
  6
CONTINUOUS
 62
    7
 10
179.25375872864373
 20
751.3643751691842
 11
179.25880535382561
 21
751.37925892755243
  0
LINE
  8
_5-0_
  6
CONTINUOUS
 62
    7
 10
179.25880535382561
 20
751.37925892755243
 11
179.26362929069555
 21
751.39607147418269
  0
LINE
  8
_5-0_
  6
CONTINUOUS
 62
    7
 10
179.26362929069555
 20
751.39607147418269
 11
179.26809339187093
 21
751.41495655994663
  0
LINE
  8
_5-0_
  6
CONTINUOUS
 62
    7
 10
179.26809339187093
 20
751.41495655994663
 11
179.27045508689844
 21
751.42641680362499
  0
LINE
  8
_5-0_
  6
CONTINUOUS
 62
    7
 10
179.27045508689844
 20
751.42641680362499
 11
179.27228140185611
 21
751.43605085133709
  0
LINE
  8
_5-0_
  6
CONTINUOUS
 62
    7
 10
179.27228140185611
 20
751.43605085133709
 11
179.27364029518913
 21
751.44422340535016
  0
LINE
  8
_5-0_
  6
CONTINUOUS
 62
    7
 10
179.27364029518913
 20
751.44422340535016
 11
179.27459972534237
 21
751.45129916793053
  0
LINE
  8
_5-0_
  6
CONTINUOUS
 62
    7
 10
179.27459972534237
 20
751.45129916793053
 11
179.27522765076091
 21
751.45764284134543
  0
LINE
  8
_5-0_
  6
CONTINUOUS
 62
    7
 10
179.27522765076091
 20
751.45764284134543
 11
179.27559202988994
 21
751.46361912786142
  0
LINE
  8
_5-0_
  6
CONTINUOUS
 62
    7
 10
179.27559202988994
 20
751.46361912786142
 11
179.27576082117426
 21
751.46959272974573
  0
LINE
  8
_5-0_
  6
CONTINUOUS
 62
    7
 10
179.27576082117426
 20
751.46959272974573
 11
179.27580198305904
 21
751.47592834926502
  0
LINE
  8
_5-0_
  6
CONTINUOUS
 62
    7
 10
179.27580198305904
 20
751.47592834926502
 11
179.27580198305904
 21
751.47646055669247
  0
LINE
  8
_5-0_
  6
CONTINUOUS
 62
    7
 10
179.27580198305904
 20
751.47646055669247
 11
179.27580198305904
 21
751.47786364900128
  0
LINE
  8
_5-0_
  6
CONTINUOUS
 62
    7
 10
179.27580198305904
 20
751.47786364900128
 11
179.27580198305904
 21
751.4798473312311
  0
LINE
  8
_5-0_
  6
CONTINUOUS
 62
    7
 10
179.27580198305904
 20
751.4798473312311
 11
179.27580198305904
 21
751.48212130842126
  0
LINE
  8
_5-0_
  6
CONTINUOUS
 62
    7
 10
179.27580198305904
 20
751.48212130842126
 11
179.27580198305904
 21
751.48439528561141
  0
LINE
  8
_5-0_
  6
CONTINUOUS
 62
    7
 10
179.27580198305904
 20
751.48439528561141
 11
179.27580198305904
 21
751.48637896784112
  0
LINE
  8
_5-0_
  6
CONTINUOUS
 62
    7
 10
179.27580198305904
 20
751.48637896784112
 11
179.27580198305904
 21
751.48778206014993
  0
LINE
  8
_5-0_
  6
CONTINUOUS
 62
    7
 10
179.27580198305904
 20
751.48778206014993
 11
179.27580198305904
 21
751.48831426757738
  0
LINE
  8
_5-0_
  6
CONTINUOUS
 62
    7
 10
179.27580198305904
 20
748.14070785538831
 11
179.16605174450126
 21
748.13134967848691
  0
LINE
  8
_5-0_
  6
CONTINUOUS
 62
    7
 10
179.16605174450126
 20
748.13134967848691
 11
179.16643988443747
 21
748.13138338247677
  0
LINE
  8
_5-0_
  6
CONTINUOUS
 62
    7
 10
179.16643988443747
 20
748.13138338247677
 11
179.16746316245096
 21
748.13147223844976
  0
LINE
  8
_5-0_
  6
CONTINUOUS
 62
    7
 10
179.16746316245096
 20
748.13147223844976
 11
179.16890986584951
 21
748.1315978624117
  0
LINE
  8
_5-0_
  6
CONTINUOUS
 62
    7
 10
179.16890986584951
 20
748.1315978624117
 11
179.1705682819404
 21
748.13174187036793
  0
LINE
  8
_5-0_
  6
CONTINUOUS
 62
    7
 10
179.1705682819404
 20
748.13174187036793
 11
179.17222669803147
 21
748.13188587832428
  0
LINE
  8
_5-0_
  6
CONTINUOUS
 62
    7
 10
179.17222669803147
 20
748.13188587832428
 11
179.17367340142994
 21
748.13201150228622
  0
LINE
  8
_5-0_
  6
CONTINUOUS
 62
    7
 10
179.17367340142994
 20
748.13201150228622
 11
179.17469667944351
 21
748.13210035825921
  0
LINE
  8
_5-0_
  6
CONTINUOUS
 62
    7
 10
179.17469667944351
 20
748.13210035825921
 11
179.17508481937972
 21
748.13213406224895
  0
LINE
  8
_5-0_
  6
CONTINUOUS
 62
    7
 10
179.17508481937972
 20
748.13213406224895
 11
179.18258643502114
 21
748.13278148238282
  0
LINE
  8
_5-0_
  6
CONTINUOUS
 62
    7
 10
179.18258643502114
 20
748.13278148238282
 11
179.19341746755293
 21
748.13371106522209
  0
LINE
  8
_5-0_
  6
CONTINUOUS
 62
    7
 10
179.19341746755293
 20
748.13371106522209
 11
179.20647656017735
 21
748.13482869562893
  0
LINE
  8
_5-0_
  6
CONTINUOUS
 62
    7
 10
179.20647656017735
 20
748.13482869562893
 11
179.22066235609657
 21
748.1360402584653
  0
LINE
  8
_5-0_
  6
CONTINUOUS
 62
    7
 10
179.22066235609657
 20
748.1360402584653
 11
179.23487349851271
 21
748.13725163859363
  0
LINE
  8
_5-0_
  6
CONTINUOUS
 62
    7
 10
179.23487349851271
 20
748.13725163859363
 11
179.24800863062814
 21
748.13836872087586
  0
LINE
  8
_5-0_
  6
CONTINUOUS
 62
    7
 10
179.24800863062814
 20
748.13836872087586
 11
179.2589663956449
 21
748.13929739017431
  0
LINE
  8
_5-0_
  6
CONTINUOUS
 62
    7
 10
179.2589663956449
 20
748.13929739017431
 11
179.26664543676537
 21
748.13994353135104
  0
LINE
  8
_5-0_
  6
CONTINUOUS
 62
    7
 10
179.26664543676537
 20
748.13994353135104
 11
179.26703888211392
 21
748.13997637339958
  0
LINE
  8
_5-0_
  6
CONTINUOUS
 62
    7
 10
179.26703888211392
 20
748.13997637339958
 11
179.26807614712374
 21
748.14006295698175
  0
LINE
  8
_5-0_
  6
CONTINUOUS
 62
    7
 10
179.26807614712374
 20
748.14006295698175
 11
179.26954262524106
 21
748.14018536825347
  0
LINE
  8
_5-0_
  6
CONTINUOUS
 62
    7
 10
179.26954262524106
 20
748.14018536825347
 11
179.27122370991214
 21
748.14032569336973
  0
LINE
  8
_5-0_
  6
CONTINUOUS
 62
    7
 10
179.27122370991214
 20
748.14032569336973
 11
179.27290479458335
 21
748.14046601848588
  0
LINE
  8
_5-0_
  6
CONTINUOUS
 62
    7
 10
179.27290479458335
 20
748.14046601848588
 11
179.27437127270068
 21
748.1405884297576
  0
LINE
  8
_5-0_
  6
CONTINUOUS
 62
    7
 10
179.27437127270068
 20
748.1405884297576
 11
179.2754085377104
 21
748.14067501333989
  0
LINE
  8
_5-0_
  6
CONTINUOUS
 62
    7
 10
179.2754085377104
 20
748.14067501333989
 11
179.27580198305904
 21
748.14070785538831
  0
LINE
  8
_5-0_
  6
CONTINUOUS
 62
    7
 10
179.27580198305904
 20
745.75421881103796
 11
179.27580198305904
 21
746.05252994158161
  0
LINE
  8
_5-0_
  6
CONTINUOUS
 62
    7
 10
179.27580198305904
 20
746.05252994158161
 11
179.27580198305904
 21
746.35084107212538
  0
LINE
  8
_5-0_
  6
CONTINUOUS
 62
    7
 10
179.27580198305904
 20
746.35084107212538
 11
179.27580198305904
 21
746.64915220266926
  0
LINE
  8
_5-0_
  6
CONTINUOUS
 62
    7
 10
179.27580198305904
 20
746.64915220266926
 11
179.27580198305904
 21
746.94746333321302
  0
LINE
  8
_5-0_
  6
CONTINUOUS
 62
    7
 10
179.27580198305904
 20
746.94746333321302
 11
179.27580198305904
 21
747.2457744637569
  0
LINE
  8
_5-0_
  6
CONTINUOUS
 62
    7
 10
179.27580198305904
 20
747.2457744637569
 11
179.27580198305904
 21
747.54408559430067
  0
LINE
  8
_5-0_
  6
CONTINUOUS
 62
    7
 10
179.27580198305904
 20
747.54408559430067
 11
179.27580198305904
 21
747.84239672484443
  0
LINE
  8
_5-0_
  6
CONTINUOUS
 62
    7
 10
179.27580198305904
 20
747.84239672484443
 11
179.27580198305904
 21
748.1407078553882
  0
LINE
  8
_5-0_
  6
CONTINUOUS
 62
    7
 10
178.85899617564695
 20
744.97482354245096
 11
179.1772903572253
 21
745.10754308516596
  0
LINE
  8
_5-0_
  6
CONTINUOUS
 62
    7
 10
179.1772903572253
 20
745.10754308516596
 11
179.17705670956963
 21
745.10729193739871
  0
LINE
  8
_5-0_
  6
CONTINUOUS
 62
    7
 10
179.17705670956963
 20
745.10729193739871
 11
179.17644072938663
 21
745.10662982055783
  0
LINE
  8
_5-0_
  6
CONTINUOUS
 62
    7
 10
179.17644072938663
 20
745.10662982055783
 11
179.17556986085202
 21
745.10569372433429
  0
LINE
  8
_5-0_
  6
CONTINUOUS
 62
    7
 10
179.17556986085202
 20
745.10569372433429
 11
179.1745715481415
 21
745.10462063841953
  0
LINE
  8
_5-0_
  6
CONTINUOUS
 62
    7
 10
179.1745715481415
 20
745.10462063841953
 11
179.17357323543115
 21
745.10354755250489
  0
LINE
  8
_5-0_
  6
CONTINUOUS
 62
    7
 10
179.17357323543115
 20
745.10354755250489
 11
179.17270236689654
 21
745.10261145628135
  0
LINE
  8
_5-0_
  6
CONTINUOUS
 62
    7
 10
179.17270236689654
 20
745.10261145628135
 11
179.1720863867134
 21
745.10194933944035
  0
LINE
  8
_5-0_
  6
CONTINUOUS
 62
    7
 10
179.1720863867134
 20
745.10194933944035
 11
179.17185273905787
 21
745.10169819167322
  0
LINE
  8
_5-0_
  6
CONTINUOUS
 62
    7
 10
179.17185273905787
 20
745.10169819167322
 11
179.16629150466525
 21
745.09592743635494
  0
LINE
  8
_5-0_
  6
CONTINUOUS
 62
    7
 10
179.16629150466525
 20
745.09592743635494
 11
179.15982296831942
 21
745.08964851519738
  0
LINE
  8
_5-0_
  6
CONTINUOUS
 62
    7
 10
179.15982296831942
 20
745.08964851519738
 11
179.15239496760833
 21
745.08288495821137
  0
LINE
  8
_5-0_
  6
CONTINUOUS
 62
    7
 10
179.15239496760833
 20
745.08288495821137
 11
179.14395534012002
 21
745.07566029540817
  0
LINE
  8
_5-0_
  6
CONTINUOUS
 62
    7
 10
179.14395534012002
 20
745.07566029540817
 11
179.13445192344241
 21
745.06799805679861
  0
LINE
  8
_5-0_
  6
CONTINUOUS
 62
    7
 10
179.13445192344241
 20
745.06799805679861
 11
179.1238325551638
 21
745.0599217723942
  0
LINE
  8
_5-0_
  6
CONTINUOUS
 62
    7
 10
179.1238325551638
 20
745.0599217723942
 11
179.11204507287195
 21
745.05145497220565
  0
LINE
  8
_5-0_
  6
CONTINUOUS
 62
    7
 10
179.11204507287195
 20
745.05145497220565
 11
179.09903731415505
 21
745.04262118624422
  0
LINE
  8
_5-0_
  6
CONTINUOUS
 62
    7
 10
179.09903731415505
 20
745.04262118624422
 11
179.08287626498591
 21
745.03273066669965
  0
LINE
  8
_5-0_
  6
CONTINUOUS
 62
    7
 10
179.08287626498591
 20
745.03273066669965
 11
179.06504796060057
 21
745.02324953450056
  0
LINE
  8
_5-0_
  6
CONTINUOUS
 62
    7
 10
179.06504796060057
 20
745.02324953450056
 11
179.04589540822565
 21
745.01430755320996
  0
LINE
  8
_5-0_
  6
CONTINUOUS
 62
    7
 10
179.04589540822565
 20
745.01430755320996
 11
179.02576161508824
 21
745.00603448639129
  0
LINE
  8
_5-0_
  6
CONTINUOUS
 62
    7
 10
179.02576161508824
 20
745.00603448639129
 11
179.00498958841524
 21
744.9985600976072
  0
LINE
  8
_5-0_
  6
CONTINUOUS
 62
    7
 10
179.00498958841524
 20
744.9985600976072
 11
178.98392233543353
 21
744.99201415042103
  0
LINE
  8
_5-0_
  6
CONTINUOUS
 62
    7
 10
178.98392233543353
 20
744.99201415042103
 11
178.96290286336992
 21
744.986526408396
  0
LINE
  8
_5-0_
  6
CONTINUOUS
 62
    7
 10
178.96290286336992
 20
744.986526408396
 11
178.94227417945146
 21
744.982226635095
  0
LINE
  8
_5-0_
  6
CONTINUOUS
 62
    7
 10
178.94227417945146
 20
744.982226635095
 11
178.92909919917741
 21
744.97992395872097
  0
LINE
  8
_5-0_
  6
CONTINUOUS
 62
    7
 10
178.92909919917741
 20
744.97992395872097
 11
178.91805388218287
 21
744.97815379205213
  0
LINE
  8
_5-0_
  6
CONTINUOUS
 62
    7
 10
178.91805388218287
 20
744.97815379205213
 11
178.90871646213313
 21
744.97684663591997
  0
LINE
  8
_5-0_
  6
CONTINUOUS
 62
    7
 10
178.90871646213313
 20
744.97684663591997
 11
178.90066517269355
 21
744.97593299115749
  0
LINE
  8
_5-0_
  6
CONTINUOUS
 62
    7
 10
178.90066517269355
 20
744.97593299115749
 11
178.89347824752969
 21
744.97534335859712
  0
LINE
  8
_5-0_
  6
CONTINUOUS
 62
    7
 10
178.89347824752969
 20
744.97534335859712
 11
178.88673392030668
 21
744.9750082390708
  0
LINE
  8
_5-0_
  6
CONTINUOUS
 62
    7
 10
178.88673392030668
 20
744.9750082390708
 11
178.88001042469028
 21
744.97485813341132
  0
LINE
  8
_5-0_
  6
CONTINUOUS
 62
    7
 10
178.88001042469028
 20
744.97485813341132
 11
178.87288599434555
 21
744.97482354245096
  0
LINE
  8
_5-0_
  6
CONTINUOUS
 62
    7
 10
178.87288599434555
 20
744.97482354245096
 11
178.87228916619833
 21
744.97482354245096
  0
LINE
  8
_5-0_
  6
CONTINUOUS
 62
    7
 10
178.87228916619833
 20
744.97482354245096
 11
178.87071571017395
 21
744.97482354245096
  0
LINE
  8
_5-0_
  6
CONTINUOUS
 62
    7
 10
178.87071571017395
 20
744.97482354245096
 11
178.86849116889792
 21
744.97482354245096
  0
LINE
  8
_5-0_
  6
CONTINUOUS
 62
    7
 10
178.86849116889792
 20
744.97482354245096
 11
178.86594108499622
 21
744.97482354245096
  0
LINE
  8
_5-0_
  6
CONTINUOUS
 62
    7
 10
178.86594108499622
 20
744.97482354245096
 11
178.86339100109453
 21
744.97482354245096
  0
LINE
  8
_5-0_
  6
CONTINUOUS
 62
    7
 10
178.86339100109453
 20
744.97482354245096
 11
178.86116645981866
 21
744.97482354245096
  0
LINE
  8
_5-0_
  6
CONTINUOUS
 62
    7
 10
178.86116645981866
 20
744.97482354245096
 11
178.85959300379412
 21
744.97482354245096
  0
LINE
  8
_5-0_
  6
CONTINUOUS
 62
    7
 10
178.85959300379412
 20
744.97482354245096
 11
178.85899617564695
 21
744.97482354245096
  0
LINE
  8
_5-0_
  6
CONTINUOUS
 62
    7
 10
177.78462435485721
 20
748.01023669590791
 11
177.78475357402846
 21
748.01023669590791
  0
LINE
  8
_5-0_
  6
CONTINUOUS
 62
    7
 10
177.78475357402846
 20
748.01023669590791
 11
177.78509424275262
 21
748.01023669590791
  0
LINE
  8
_5-0_
  6
CONTINUOUS
 62
    7
 10
177.78509424275262
 20
748.01023669590791
 11
177.78557587784553
 21
748.01023669590791
  0
LINE
  8
_5-0_
  6
CONTINUOUS
 62
    7
 10
177.78557587784553
 20
748.01023669590791
 11
177.78612799612262
 21
748.01023669590791
  0
LINE
  8
_5-0_
  6
CONTINUOUS
 62
    7
 10
177.78612799612262
 20
748.01023669590791
 11
177.78668011439981
 21
748.01023669590791
  0
LINE
  8
_5-0_
  6
CONTINUOUS
 62
    7
 10
177.78668011439981
 20
748.01023669590791
 11
177.78716174949267
 21
748.01023669590791
  0
LINE
  8
_5-0_
  6
CONTINUOUS
 62
    7
 10
177.78716174949267
 20
748.01023669590791
 11
177.78750241821683
 21
748.01023669590791
  0
LINE
  8
_5-0_
  6
CONTINUOUS
 62
    7
 10
177.78750241821683
 20
748.01023669590791
 11
177.78763163738816
 21
748.01023669590791
  0
LINE
  8
_5-0_
  6
CONTINUOUS
 62
    7
 10
177.78763163738816
 20
748.01023669590791
 11
177.83189695544166
 21
748.01023669590791
  0
LINE
  8
_5-0_
  6
CONTINUOUS
 62
    7
 10
177.83189695544166
 20
748.01023669590791
 11
177.94859643031018
 21
748.01023669590791
  0
LINE
  8
_5-0_
  6
CONTINUOUS
 62
    7
 10
177.94859643031018
 20
748.01023669590791
 11
178.11358534305526
 21
748.01023669590791
  0
LINE
  8
_5-0_
  6
CONTINUOUS
 62
    7
 10
178.11358534305526
 20
748.01023669590791
 11
178.30271897473864
 21
748.01023669590791
  0
LINE
  8
_5-0_
  6
CONTINUOUS
 62
    7
 10
178.30271897473864
 20
748.01023669590791
 11
178.49185260642201
 21
748.01023669590791
  0
LINE
  8
_5-0_
  6
CONTINUOUS
 62
    7
 10
178.49185260642201
 20
748.01023669590791
 11
178.6568415191671
 21
748.01023669590791
  0
LINE
  8
_5-0_
  6
CONTINUOUS
 62
    7
 10
178.6568415191671
 20
748.01023669590791
 11
178.77354099403556
 21
748.01023669590791
  0
LINE
  8
_5-0_
  6
CONTINUOUS
 62
    7
 10
178.77354099403556
 20
748.01023669590791
 11
178.81780631208912
 21
748.01023669590791
  0
LINE
  8
_5-0_
  6
CONTINUOUS
 62
    7
 10
178.81780631208912
 20
748.01023669590791
 11
178.81958056194165
 21
748.01023669590791
  0
LINE
  8
_5-0_
  6
CONTINUOUS
 62
    7
 10
178.81958056194165
 20
748.01023669590791
 11
178.82425812973466
 21
748.01023669590791
  0
LINE
  8
_5-0_
  6
CONTINUOUS
 62
    7
 10
178.82425812973466
 20
748.01023669590791
 11
178.83087124282113
 21
748.01023669590791
  0
LINE
  8
_5-0_
  6
CONTINUOUS
 62
    7
 10
178.83087124282113
 20
748.01023669590791
 11
178.83845212855454
 21
748.01023669590791
  0
LINE
  8
_5-0_
  6
CONTINUOUS
 62
    7
 10
178.83845212855454
 20
748.01023669590791
 11
178.84603301428797
 21
748.01023669590791
  0
LINE
  8
_5-0_
  6
CONTINUOUS
 62
    7
 10
178.84603301428797
 20
748.01023669590791
 11
178.85264612737458
 21
748.01023669590791
  0
LINE
  8
_5-0_
  6
CONTINUOUS
 62
    7
 10
178.85264612737458
 20
748.01023669590791
 11
178.85732369516745
 21
748.01023669590791
  0
LINE
  8
_5-0_
  6
CONTINUOUS
 62
    7
 10
178.85732369516745
 20
748.01023669590791
 11
178.85909794501998
 21
748.01023669590791
  0
LINE
  8
_5-0_
  6
CONTINUOUS
 62
    7
 10
177.78462408833855
 20
744.97482354245096
 11
177.78478537074122
 21
744.97482354245096
  0
LINE
  8
_5-0_
  6
CONTINUOUS
 62
    7
 10
177.78478537074122
 20
744.97482354245096
 11
177.78521056980304
 21
744.97482354245096
  0
LINE
  8
_5-0_
  6
CONTINUOUS
 62
    7
 10
177.78521056980304
 20
744.97482354245096
 11
177.78581171330416
 21
744.97482354245096
  0
LINE
  8
_5-0_
  6
CONTINUOUS
 62
    7
 10
177.78581171330416
 20
744.97482354245096
 11
177.78650082902493
 21
744.97482354245096
  0
LINE
  8
_5-0_
  6
CONTINUOUS
 62
    7
 10
177.78650082902493
 20
744.97482354245096
 11
177.78718994474565
 21
744.97482354245096
  0
LINE
  8
_5-0_
  6
CONTINUOUS
 62
    7
 10
177.78718994474565
 20
744.97482354245096
 11
177.78779108824671
 21
744.97482354245096
  0
LINE
  8
_5-0_
  6
CONTINUOUS
 62
    7
 10
177.78779108824671
 20
744.97482354245096
 11
177.78821628730853
 21
744.97482354245096
  0
LINE
  8
_5-0_
  6
CONTINUOUS
 62
    7
 10
177.78821628730853
 20
744.97482354245096
 11
177.7883775697112
 21
744.97482354245096
  0
LINE
  8
_5-0_
  6
CONTINUOUS
 62
    7
 10
177.7883775697112
 20
744.97482354245096
 11
177.83260793160758
 21
744.97482354245096
  0
LINE
  8
_5-0_
  6
CONTINUOUS
 62
    7
 10
177.83260793160758
 20
744.97482354245096
 11
177.949215249334
 21
744.97482354245096
  0
LINE
  8
_5-0_
  6
CONTINUOUS
 62
    7
 10
177.949215249334
 20
744.97482354245096
 11
178.11407387094746
 21
744.97482354245096
  0
LINE
  8
_5-0_
  6
CONTINUOUS
 62
    7
 10
178.11407387094746
 20
744.97482354245096
 11
178.30305814450426
 21
744.97482354245096
  0
LINE
  8
_5-0_
  6
CONTINUOUS
 62
    7
 10
178.30305814450426
 20
744.97482354245096
 11
178.49204241806115
 21
744.97482354245096
  0
LINE
  8
_5-0_
  6
CONTINUOUS
 62
    7
 10
178.49204241806115
 20
744.97482354245096
 11
178.65690103967452
 21
744.97482354245096
  0
LINE
  8
_5-0_
  6
CONTINUOUS
 62
    7
 10
178.65690103967452
 20
744.97482354245096
 11
178.77350835740103
 21
744.97482354245096
  0
LINE
  8
_5-0_
  6
CONTINUOUS
 62
    7
 10
178.77350835740103
 20
744.97482354245096
 11
178.81773871929738
 21
744.97482354245096
  0
LINE
  8
_5-0_
  6
CONTINUOUS
 62
    7
 10
178.81773871929738
 20
744.97482354245096
 11
178.81951149628705
 21
744.97482354245096
  0
LINE
  8
_5-0_
  6
CONTINUOUS
 62
    7
 10
178.81951149628705
 20
744.97482354245096
 11
178.82418518107812
 21
744.97482354245096
  0
LINE
  8
_5-0_
  6
CONTINUOUS
 62
    7
 10
178.82418518107812
 20
744.97482354245096
 11
178.83079280440342
 21
744.97482354245096
  0
LINE
  8
_5-0_
  6
CONTINUOUS
 62
    7
 10
178.83079280440342
 20
744.97482354245096
 11
178.83836739699581
 21
744.97482354245096
  0
LINE
  8
_5-0_
  6
CONTINUOUS
 62
    7
 10
178.83836739699581
 20
744.97482354245096
 11
178.84594198958823
 21
744.97482354245096
  0
LINE
  8
_5-0_
  6
CONTINUOUS
 62
    7
 10
178.84594198958823
 20
744.97482354245096
 11
178.85254961291352
 21
744.97482354245096
  0
LINE
  8
_5-0_
  6
CONTINUOUS
 62
    7
 10
178.85254961291352
 20
744.97482354245096
 11
178.85722329770454
 21
744.97482354245096
  0
LINE
  8
_5-0_
  6
CONTINUOUS
 62
    7
 10
178.85722329770454
 20
744.97482354245096
 11
178.85899607469435
 21
744.97482354245096
  0
LINE
  8
_5-0_
  6
CONTINUOUS
 62
    7
 10
178.02685799911686
 20
746.6365418587659
 11
178.02698632074345
 21
746.63647505875531
  0
LINE
  8
_5-0_
  6
CONTINUOUS
 62
    7
 10
178.02698632074345
 20
746.63647505875531
 11
178.02732462321345
 21
746.63629894963628
  0
LINE
  8
_5-0_
  6
CONTINUOUS
 62
    7
 10
178.02732462321345
 20
746.63629894963628
 11
178.02780291291236
 21
746.63604996777849
  0
LINE
  8
_5-0_
  6
CONTINUOUS
 62
    7
 10
178.02780291291236
 20
746.63604996777849
 11
178.02835119622586
 21
746.63576454955114
  0
LINE
  8
_5-0_
  6
CONTINUOUS
 62
    7
 10
178.02835119622586
 20
746.63576454955114
 11
178.02889947953923
 21
746.63547913132379
  0
LINE
  8
_5-0_
  6
CONTINUOUS
 62
    7
 10
178.02889947953923
 20
746.63547913132379
 11
178.02937776923827
 21
746.63523014946588
  0
LINE
  8
_5-0_
  6
CONTINUOUS
 62
    7
 10
178.02937776923827
 20
746.63523014946588
 11
178.02971607170826
 21
746.63505404034697
  0
LINE
  8
_5-0_
  6
CONTINUOUS
 62
    7
 10
178.02971607170826
 20
746.63505404034697
 11
178.02984439333471
 21
746.63498724033627
  0
LINE
  8
_5-0_
  6
CONTINUOUS
 62
    7
 10
178.02984439333471
 20
746.63498724033627
 11
178.07173389661864
 21
746.61318094516275
  0
LINE
  8
_5-0_
  6
CONTINUOUS
 62
    7
 10
178.07173389661864
 20
746.61318094516275
 11
178.18216985982161
 21
746.55569162152335
  0
LINE
  8
_5-0_
  6
CONTINUOUS
 62
    7
 10
178.18216985982161
 20
746.55569162152335
 11
178.33830346297063
 21
746.47441361223991
  0
LINE
  8
_5-0_
  6
CONTINUOUS
 62
    7
 10
178.33830346297063
 20
746.47441361223991
 11
178.51728588609276
 21
746.38124126013486
  0
LINE
  8
_5-0_
  6
CONTINUOUS
 62
    7
 10
178.51728588609276
 20
746.38124126013486
 11
178.69626830921482
 21
746.28806890802946
  0
LINE
  8
_5-0_
  6
CONTINUOUS
 62
    7
 10
178.69626830921482
 20
746.28806890802946
 11
178.85240191236392
 21
746.20679089874614
  0
LINE
  8
_5-0_
  6
CONTINUOUS
 62
    7
 10
178.85240191236392
 20
746.20679089874614
 11
178.96283787556683
 21
746.14930157510673
  0
LINE
  8
_5-0_
  6
CONTINUOUS
 62
    7
 10
178.96283787556683
 20
746.14930157510673
 11
179.00472737885076
 21
746.1274952799331
  0
LINE
  8
_5-0_
  6
CONTINUOUS
 62
    7
 10
179.00472737885076
 20
746.1274952799331
 11
179.00627819653678
 21
746.12668797534434
  0
LINE
  8
_5-0_
  6
CONTINUOUS
 62
    7
 10
179.00627819653678
 20
746.12668797534434
 11
179.01036671589054
 21
746.1245596268833
  0
LINE
  8
_5-0_
  6
CONTINUOUS
 62
    7
 10
179.01036671589054
 20
746.1245596268833
 11
179.0161470363563
 21
746.12155058250721
  0
LINE
  8
_5-0_
  6
CONTINUOUS
 62
    7
 10
179.0161470363563
 20
746.12155058250721
 11
179.02277325737805
 21
746.11810119017366
  0
LINE
  8
_5-0_
  6
CONTINUOUS
 62
    7
 10
179.02277325737805
 20
746.11810119017366
 11
179.02939947839974
 21
746.11465179784
  0
LINE
  8
_5-0_
  6
CONTINUOUS
 62
    7
 10
179.02939947839974
 20
746.11465179784
 11
179.03517979886558
 21
746.11164275346391
  0
LINE
  8
_5-0_
  6
CONTINUOUS
 62
    7
 10
179.03517979886558
 20
746.11164275346391
 11
179.03926831821934
 21
746.10951440500287
  0
LINE
  8
_5-0_
  6
CONTINUOUS
 62
    7
 10
179.03926831821934
 20
746.10951440500287
 11
179.04081913590522
 21
746.10870710041411
  0
LINE
  8
_5-0_
  6
CONTINUOUS
 62
    7
 10
181.52468734303326
 20
749.14437072145756
 11
181.57768608245107
 21
749.17196011891929
  0
LINE
  8
_5-0_
  6
CONTINUOUS
 62
    7
 10
181.57768608245107
 20
749.17196011891929
 11
181.63036819166541
 21
749.19938468912983
  0
LINE
  8
_5-0_
  6
CONTINUOUS
 62
    7
 10
181.63036819166541
 20
749.19938468912983
 11
181.68341429357056
 21
749.226998741942
  0
LINE
  8
_5-0_
  6
CONTINUOUS
 62
    7
 10
181.68341429357056
 20
749.226998741942
 11
181.73750501106036
 21
749.25515658720781
  0
LINE
  8
_5-0_
  6
CONTINUOUS
 62
    7
 10
181.73750501106036
 20
749.25515658720781
 11
181.79332096702893
 21
749.28421253478007
  0
LINE
  8
_5-0_
  6
CONTINUOUS
 62
    7
 10
181.79332096702893
 20
749.28421253478007
 11
181.85154278437025
 21
749.31452089451113
  0
LINE
  8
_5-0_
  6
CONTINUOUS
 62
    7
 10
181.85154278437025
 20
749.31452089451113
 11
181.91285108597833
 21
749.3464359762537
  0
LINE
  8
_5-0_
  6
CONTINUOUS
 62
    7
 10
181.91285108597833
 20
749.3464359762537
 11
181.97792649474741
 21
749.38031208986001
  0
LINE
  8
_5-0_
  6
CONTINUOUS
 62
    7
 10
181.97792649474741
 20
749.38031208986001
 11
182.00128641684876
 21
749.39247249560947
  0
LINE
  8
_5-0_
  6
CONTINUOUS
 62
    7
 10
182.00128641684876
 20
749.39247249560947
 11
182.02806272327643
 21
749.40641135847136
  0
LINE
  8
_5-0_
  6
CONTINUOUS
 62
    7
 10
182.02806272327643
 20
749.40641135847136
 11
182.05700930970409
 21
749.4214799975914
  0
LINE
  8
_5-0_
  6
CONTINUOUS
 62
    7
 10
182.05700930970409
 20
749.4214799975914
 11
182.08688007180484
 21
749.437029732116
  0
LINE
  8
_5-0_
  6
CONTINUOUS
 62
    7
 10
182.08688007180484
 20
749.437029732116
 11
182.11642890525226
 21
749.45241188119098
  0
LINE
  8
_5-0_
  6
CONTINUOUS
 62
    7
 10
182.11642890525226
 20
749.45241188119098
 11
182.14440970571971
 21
749.4669777639624
  0
LINE
  8
_5-0_
  6
CONTINUOUS
 62
    7
 10
182.14440970571971
 20
749.4669777639624
 11
182.16957636888068
 21
749.48007869957621
  0
LINE
  8
_5-0_
  6
CONTINUOUS
 62
    7
 10
182.16957636888068
 20
749.48007869957621
 11
182.19068279040854
 21
749.49106600717869
  0
LINE
  8
_5-0_
  6
CONTINUOUS
 62
    7
 10
182.19068279040854
 20
749.49106600717869
 11
182.23918285987423
 21
749.51631354529195
  0
LINE
  8
_5-0_
  6
CONTINUOUS
 62
    7
 10
182.23918285987423
 20
749.51631354529195
 11
182.28221315908428
 21
749.53871370123602
  0
LINE
  8
_5-0_
  6
CONTINUOUS
 62
    7
 10
182.28221315908428
 20
749.53871370123602
 11
182.32042350337423
 21
749.55860474746373
  0
LINE
  8
_5-0_
  6
CONTINUOUS
 62
    7
 10
182.32042350337423
 20
749.55860474746373
 11
182.3544637080802
 21
749.5763249564277
  0
LINE
  8
_5-0_
  6
CONTINUOUS
 62
    7
 10
182.3544637080802
 20
749.5763249564277
 11
182.38498358853775
 21
749.59221260058075
  0
LINE
  8
_5-0_
  6
CONTINUOUS
 62
    7
 10
182.38498358853775
 20
749.59221260058075
 11
182.41263296008256
 21
749.60660595237539
  0
LINE
  8
_5-0_
  6
CONTINUOUS
 62
    7
 10
182.41263296008256
 20
749.60660595237539
 11
182.43806163805027
 21
749.61984328426456
  0
LINE
  8
_5-0_
  6
CONTINUOUS
 62
    7
 10
182.43806163805027
 20
749.61984328426456
 11
182.46191943777674
 21
749.63226286870076
  0
LINE
  8
_5-0_
  6
CONTINUOUS
 62
    7
 10
182.46191943777674
 20
749.63226286870076
 11
182.46639189968823
 21
749.63459108500672
  0
LINE
  8
_5-0_
  6
CONTINUOUS
 62
    7
 10
182.46639189968823
 20
749.63459108500672
 11
182.47139648261742
 21
749.63719630598143
  0
LINE
  8
_5-0_
  6
CONTINUOUS
 62
    7
 10
182.47139648261742
 20
749.63719630598143
 11
182.47670895012453
 21
749.63996180152276
  0
LINE
  8
_5-0_
  6
CONTINUOUS
 62
    7
 10
182.47670895012453
 20
749.63996180152276
 11
182.48210506577004
 21
749.64277084152877
  0
LINE
  8
_5-0_
  6
CONTINUOUS
 62
    7
 10
182.48210506577004
 20
749.64277084152877
 11
182.48736059311454
 21
749.64550669589755
  0
LINE
  8
_5-0_
  6
CONTINUOUS
 62
    7
 10
182.48736059311454
 20
749.64550669589755
 11
182.49225129571826
 21
749.64805263452718
  0
LINE
  8
_5-0_
  6
CONTINUOUS
 62
    7
 10
182.49225129571826
 20
749.64805263452718
 11
182.49655293714164
 21
749.65029192731549
  0
LINE
  8
_5-0_
  6
CONTINUOUS
 62
    7
 10
182.49655293714164
 20
749.65029192731549
 11
182.50004128094531
 21
749.65210784416058
  0
LINE
  8
_5-0_
  6
CONTINUOUS
 62
    7
 10
182.50004128094531
 20
749.65210784416058
 11
182.50663162866636
 21
749.65553856203587
  0
LINE
  8
_5-0_
  6
CONTINUOUS
 62
    7
 10
182.50663162866636
 20
749.65553856203587
 11
182.51207930236524
 21
749.65837444146575
  0
LINE
  8
_5-0_
  6
CONTINUOUS
 62
    7
 10
182.51207930236524
 20
749.65837444146575
 11
182.51648554400452
 21
749.66066818567981
  0
LINE
  8
_5-0_
  6
CONTINUOUS
 62
    7
 10
182.51648554400452
 20
749.66066818567981
 11
182.51995159554653
 21
749.66247249790808
  0
LINE
  8
_5-0_
  6
CONTINUOUS
 62
    7
 10
182.51995159554653
 20
749.66247249790808
 11
182.52257869895374
 21
749.66384008138039
  0
LINE
  8
_5-0_
  6
CONTINUOUS
 62
    7
 10
182.52257869895374
 20
749.66384008138039
 11
182.52446809618846
 21
749.66482363932619
  0
LINE
  8
_5-0_
  6
CONTINUOUS
 62
    7
 10
182.52446809618846
 20
749.66482363932619
 11
182.52572102921306
 21
749.6654758749753
  0
LINE
  8
_5-0_
  6
CONTINUOUS
 62
    7
 10
182.52572102921306
 20
749.6654758749753
 11
182.52643873999011
 21
749.66584949155754
  0
LINE
  8
_5-0_
  6
CONTINUOUS
 62
    7
 10
181.52420619927602
 20
746.10870710041411
 11
181.57778216774324
 21
746.13659698429956
  0
LINE
  8
_5-0_
  6
CONTINUOUS
 62
    7
 10
181.57778216774324
 20
746.13659698429956
 11
181.63104508952836
 21
746.16432390639693
  0
LINE
  8
_5-0_
  6
CONTINUOUS
 62
    7
 10
181.63104508952836
 20
746.16432390639693
 11
181.68468392784433
 21
746.19224651825402
  0
LINE
  8
_5-0_
  6
CONTINUOUS
 62
    7
 10
181.68468392784433
 20
746.19224651825402
 11
181.73938764590432
 21
746.22072347141875
  0
LINE
  8
_5-0_
  6
CONTINUOUS
 62
    7
 10
181.73938764590432
 20
746.22072347141875
 11
181.79584520692146
 21
746.2501134174388
  0
LINE
  8
_5-0_
  6
CONTINUOUS
 62
    7
 10
181.79584520692146
 20
746.2501134174388
 11
181.85474557410862
 21
746.28077500786185
  0
LINE
  8
_5-0_
  6
CONTINUOUS
 62
    7
 10
181.85474557410862
 20
746.28077500786185
 11
181.91677771067887
 21
746.3130668942357
  0
LINE
  8
_5-0_
  6
CONTINUOUS
 62
    7
 10
181.91677771067887
 20
746.3130668942357
 11
181.98263057984525
 21
746.34734772810793
  0
LINE
  8
_5-0_
  6
CONTINUOUS
 62
    7
 10
181.98263057984525
 20
746.34734772810793
 11
182.00628263881362
 21
746.35966021068475
  0
LINE
  8
_5-0_
  6
CONTINUOUS
 62
    7
 10
182.00628263881362
 20
746.35966021068475
 11
182.0333976785686
 21
746.37377540695547
  0
LINE
  8
_5-0_
  6
CONTINUOUS
 62
    7
 10
182.0333976785686
 20
746.37377540695547
 11
182.06271390823395
 21
746.38903647016559
  0
LINE
  8
_5-0_
  6
CONTINUOUS
 62
    7
 10
182.06271390823395
 20
746.38903647016559
 11
182.09296953693348
 21
746.40478655356037
  0
LINE
  8
_5-0_
  6
CONTINUOUS
 62
    7
 10
182.09296953693348
 20
746.40478655356037
 11
182.12290277379097
 21
746.42036881038462
  0
LINE
  8
_5-0_
  6
CONTINUOUS
 62
    7
 10
182.12290277379097
 20
746.42036881038462
 11
182.15125182793025
 21
746.43512639388393
  0
LINE
  8
_5-0_
  6
CONTINUOUS
 62
    7
 10
182.15125182793025
 20
746.43512639388393
 11
182.17675490847506
 21
746.44840245730302
  0
LINE
  8
_5-0_
  6
CONTINUOUS
 62
    7
 10
182.17675490847506
 20
746.44840245730302
 11
182.19815022454938
 21
746.45954015388747
  0
LINE
  8
_5-0_
  6
CONTINUOUS
 62
    7
 10
182.19815022454938
 20
746.45954015388747
 11
182.2472968638732
 21
746.48512427496485
  0
LINE
  8
_5-0_
  6
CONTINUOUS
 62
    7
 10
182.2472968638732
 20
746.48512427496485
 11
182.29090921876241
 21
746.50782742991726
  0
LINE
  8
_5-0_
  6
CONTINUOUS
 62
    7
 10
182.29090921876241
 20
746.50782742991726
 11
182.32964515525921
 21
746.52799208212969
  0
LINE
  8
_5-0_
  6
CONTINUOUS
 62
    7
 10
182.32964515525921
 20
746.52799208212969
 11
182.36416253940598
 21
746.5459606949878
  0
LINE
  8
_5-0_
  6
CONTINUOUS
 62
    7
 10
182.36416253940598
 20
746.5459606949878
 11
182.39511923724493
 21
746.56207573187658
  0
LINE
  8
_5-0_
  6
CONTINUOUS
 62
    7
 10
182.39511923724493
 20
746.56207573187658
 11
182.42317311481855
 21
746.57667965618157
  0
LINE
  8
_5-0_
  6
CONTINUOUS
 62
    7
 10
182.42317311481855
 20
746.57667965618157
 11
182.44898203816894
 21
746.5901149312881
  0
LINE
  8
_5-0_
  6
CONTINUOUS
 62
    7
 10
182.44898203816894
 20
746.5901149312881
 11
182.47320387333872
 21
746.60272402058126
  0
LINE
  8
_5-0_
  6
CONTINUOUS
 62
    7
 10
182.47320387333872
 20
746.60272402058126
 11
182.47774678680292
 21
746.60508891164432
  0
LINE
  8
_5-0_
  6
CONTINUOUS
 62
    7
 10
182.47774678680292
 20
746.60508891164432
 11
182.48283023939948
 21
746.60773518956921
  0
LINE
  8
_5-0_
  6
CONTINUOUS
 62
    7
 10
182.48283023939948
 20
746.60773518956921
 11
182.48822615553019
 21
746.61054412571411
  0
LINE
  8
_5-0_
  6
CONTINUOUS
 62
    7
 10
182.48822615553019
 20
746.61054412571411
 11
182.49370645959686
 21
746.61339699143832
  0
LINE
  8
_5-0_
  6
CONTINUOUS
 62
    7
 10
182.49370645959686
 20
746.61339699143832
 11
182.49904307600133
 21
746.6161750581
  0
LINE
  8
_5-0_
  6
CONTINUOUS
 62
    7
 10
182.49904307600133
 20
746.6161750581
 11
182.50400792914553
 21
746.61875959705765
  0
LINE
  8
_5-0_
  6
CONTINUOUS
 62
    7
 10
182.50400792914553
 20
746.61875959705765
 11
182.50837294343128
 21
746.62103187967
  0
LINE
  8
_5-0_
  6
CONTINUOUS
 62
    7
 10
182.50837294343128
 20
746.62103187967
 11
182.51191004326023
 21
746.62287317729556
  0
LINE
  8
_5-0_
  6
CONTINUOUS
 62
    7
 10
182.51191004326023
 20
746.62287317729556
 11
182.51860014775573
 21
746.62635582526059
  0
LINE
  8
_5-0_
  6
CONTINUOUS
 62
    7
 10
182.51860014775573
 20
746.62635582526059
 11
182.52413212301315
 21
746.62923558930402
  0
LINE
  8
_5-0_
  6
CONTINUOUS
 62
    7
 10
182.52413212301315
 20
746.62923558930402
 11
182.5286078749952
 21
746.6315655183123
  0
LINE
  8
_5-0_
  6
CONTINUOUS
 62
    7
 10
182.5286078749952
 20
746.6315655183123
 11
182.53212930966504
 21
746.63339866117212
  0
LINE
  8
_5-0_
  6
CONTINUOUS
 62
    7
 10
182.53212930966504
 20
746.63339866117212
 11
182.53479833298542
 21
746.63478806676994
  0
LINE
  8
_5-0_
  6
CONTINUOUS
 62
    7
 10
182.53479833298542
 20
746.63478806676994
 11
182.53671685091945
 21
746.63578678399233
  0
LINE
  8
_5-0_
  6
CONTINUOUS
 62
    7
 10
182.53671685091945
 20
746.63578678399233
 11
182.53798676943006
 21
746.63644786172563
  0
LINE
  8
_5-0_
  6
CONTINUOUS
 62
    7
 10
182.53798676943006
 20
746.63644786172563
 11
182.53870999448003
 21
746.63682434885686
  0
LINE
  8
_5-0_
  6
CONTINUOUS
 62
    7
 10
181.52420619573135
 20
746.10870709856886
 11
181.28922335212218
 21
745.75421881103796
  0
LINE
  8
_5-0_
  6
CONTINUOUS
 62
    7
 10
181.28922335212218
 20
745.75421881103796
 11
181.28932067710542
 21
745.76207258217187
  0
LINE
  8
_5-0_
  6
CONTINUOUS
 62
    7
 10
181.28932067710542
 20
745.76207258217187
 11
181.28963915921418
 21
745.7701167455092
  0
LINE
  8
_5-0_
  6
CONTINUOUS
 62
    7
 10
181.28963915921418
 20
745.7701167455092
 11
181.29021855918722
 21
745.77858649595044
  0
LINE
  8
_5-0_
  6
CONTINUOUS
 62
    7
 10
181.29021855918722
 20
745.77858649595044
 11
181.29109863776307
 21
745.78771702839595
  0
LINE
  8
_5-0_
  6
CONTINUOUS
 62
    7
 10
181.29109863776307
 20
745.78771702839595
 11
181.29231915568027
 21
745.79774353774542
  0
LINE
  8
_5-0_
  6
CONTINUOUS
 62
    7
 10
181.29231915568027
 20
745.79774353774542
 11
181.29391987367768
 21
745.80890121889956
  0
LINE
  8
_5-0_
  6
CONTINUOUS
 62
    7
 10
181.29391987367768
 20
745.80890121889956
 11
181.29594055249362
 21
745.8214252667583
  0
LINE
  8
_5-0_
  6
CONTINUOUS
 62
    7
 10
181.29594055249362
 20
745.8214252667583
 11
181.29842095286691
 21
745.83555087622176
  0
LINE
  8
_5-0_
  6
CONTINUOUS
 62
    7
 10
181.29842095286691
 20
745.83555087622176
 11
181.30081014290971
 21
745.84373615811364
  0
LINE
  8
_5-0_
  6
CONTINUOUS
 62
    7
 10
181.30081014290971
 20
745.84373615811364
 11
181.30380828198503
 21
745.85315282880185
  0
LINE
  8
_5-0_
  6
CONTINUOUS
 62
    7
 10
181.30380828198503
 20
745.85315282880185
 11
181.30725511931098
 21
745.86335980095157
  0
LINE
  8
_5-0_
  6
CONTINUOUS
 62
    7
 10
181.30725511931098
 20
745.86335980095157
 11
181.31099040410561
 21
745.87391598722661
  0
LINE
  8
_5-0_
  6
CONTINUOUS
 62
    7
 10
181.31099040410561
 20
745.87391598722661
 11
181.31485388558735
 21
745.88438030029181
  0
LINE
  8
_5-0_
  6
CONTINUOUS
 62
    7
 10
181.31485388558735
 20
745.88438030029181
 11
181.31868531297414
 21
745.89431165281167
  0
LINE
  8
_5-0_
  6
CONTINUOUS
 62
    7
 10
181.31868531297414
 20
745.89431165281167
 11
181.32232443548432
 21
745.90326895745056
  0
LINE
  8
_5-0_
  6
CONTINUOUS
 62
    7
 10
181.32232443548432
 20
745.90326895745056
 11
181.32561100233602
 21
745.91081112687266
  0
LINE
  8
_5-0_
  6
CONTINUOUS
 62
    7
 10
181.32561100233602
 20
745.91081112687266
 11
181.33223749523501
 21
745.92277578504707
  0
LINE
  8
_5-0_
  6
CONTINUOUS
 62
    7
 10
181.33223749523501
 20
745.92277578504707
 11
181.33833627555526
 21
745.93343812610419
  0
LINE
  8
_5-0_
  6
CONTINUOUS
 62
    7
 10
181.33833627555526
 20
745.93343812610419
 11
181.34414029092483
 21
745.94316744301523
  0
LINE
  8
_5-0_
  6
CONTINUOUS
 62
    7
 10
181.34414029092483
 20
745.94316744301523
 11
181.34988248897216
 21
745.95233302875158
  0
LINE
  8
_5-0_
  6
CONTINUOUS
 62
    7
 10
181.34988248897216
 20
745.95233302875158
 11
181.35579581732543
 21
745.9613041762849
  0
LINE
  8
_5-0_
  6
CONTINUOUS
 62
    7
 10
181.35579581732543
 20
745.9613041762849
 11
181.36211322361305
 21
745.97045017858647
  0
LINE
  8
_5-0_
  6
CONTINUOUS
 62
    7
 10
181.36211322361305
 20
745.97045017858647
 11
181.36906765546314
 21
745.98014032862784
  0
LINE
  8
_5-0_
  6
CONTINUOUS
 62
    7
 10
181.36906765546314
 20
745.98014032862784
 11
181.37689206050396
 21
745.99074391938018
  0
LINE
  8
_5-0_
  6
CONTINUOUS
 62
    7
 10
181.37689206050396
 20
745.99074391938018
 11
181.38189470886601
 21
745.99644069259568
  0
LINE
  8
_5-0_
  6
CONTINUOUS
 62
    7
 10
181.38189470886601
 20
745.99644069259568
 11
181.38782815099844
 21
746.0029568630074
  0
LINE
  8
_5-0_
  6
CONTINUOUS
 62
    7
 10
181.38782815099844
 20
746.0029568630074
 11
181.39440146703242
 21
746.00999060029403
  0
LINE
  8
_5-0_
  6
CONTINUOUS
 62
    7
 10
181.39440146703242
 20
746.00999060029403
 11
181.40132373709903
 21
746.01724007413486
  0
LINE
  8
_5-0_
  6
CONTINUOUS
 62
    7
 10
181.40132373709903
 20
746.01724007413486
 11
181.40830404132936
 21
746.02440345420871
  0
LINE
  8
_5-0_
  6
CONTINUOUS
 62
    7
 10
181.40830404132936
 20
746.02440345420871
 11
181.41505145985457
 21
746.03117891019474
  0
LINE
  8
_5-0_
  6
CONTINUOUS
 62
    7
 10
181.41505145985457
 20
746.03117891019474
 11
181.42127507280563
 21
746.037264611772
  0
LINE
  8
_5-0_
  6
CONTINUOUS
 62
    7
 10
181.42127507280563
 20
746.037264611772
 11
181.42668396031382
 21
746.04235872861932
  0
LINE
  8
_5-0_
  6
CONTINUOUS
 62
    7
 10
181.42668396031382
 20
746.04235872861932
 11
181.44130361870808
 21
746.05411686498189
  0
LINE
  8
_5-0_
  6
CONTINUOUS
 62
    7
 10
181.44130361870808
 20
746.05411686498189
 11
181.45492538390855
 21
746.06460558013453
  0
LINE
  8
_5-0_
  6
CONTINUOUS
 62
    7
 10
181.45492538390855
 20
746.06460558013453
 11
181.46770114837395
 21
746.07396464323665
  0
LINE
  8
_5-0_
  6
CONTINUOUS
 62
    7
 10
181.46770114837395
 20
746.07396464323665
 11
181.47978280456314
 21
746.0823338234477
  0
LINE
  8
_5-0_
  6
CONTINUOUS
 62
    7
 10
181.47978280456314
 20
746.0823338234477
 11
181.49132224493471
 21
746.08985288992699
  0
LINE
  8
_5-0_
  6
CONTINUOUS
 62
    7
 10
181.49132224493471
 20
746.08985288992699
 11
181.50247136194758
 21
746.09666161183418
  0
LINE
  8
_5-0_
  6
CONTINUOUS
 62
    7
 10
181.50247136194758
 20
746.09666161183418
 11
181.51338204806018
 21
746.10289975832814
  0
LINE
  8
_5-0_
  6
CONTINUOUS
 62
    7
 10
181.51338204806018
 20
746.10289975832814
 11
181.52420619573135
 21
746.10870709856886
  0
LINE
  8
_5-0_
  6
CONTINUOUS
 62
    7
 10
182.57064441410051
 20
743.77333627979328
 11
181.28922335212218
 21
743.77330583587536
  0
LINE
  8
_5-0_
  6
CONTINUOUS
 62
    7
 10
181.28922335212218
 20
743.77330583587536
 11
181.29131196315461
 21
743.77324957264477
  0
LINE
  8
_5-0_
  6
CONTINUOUS
 62
    7
 10
181.29131196315461
 20
743.77324957264477
 11
181.29681830133114
 21
743.77310124230917
  0
LINE
  8
_5-0_
  6
CONTINUOUS
 62
    7
 10
181.29681830133114
 20
743.77310124230917
 11
181.30460312427033
 21
743.77289153390393
  0
LINE
  8
_5-0_
  6
CONTINUOUS
 62
    7
 10
181.30460312427033
 20
743.77289153390393
 11
181.31352718959093
 21
743.77265113646354
  0
LINE
  8
_5-0_
  6
CONTINUOUS
 62
    7
 10
181.31352718959093
 20
743.77265113646354
 11
181.32245125491153
 21
743.77241073902337
  0
LINE
  8
_5-0_
  6
CONTINUOUS
 62
    7
 10
181.32245125491153
 20
743.77241073902337
 11
181.33023607785077
 21
743.77220103061802
  0
LINE
  8
_5-0_
  6
CONTINUOUS
 62
    7
 10
181.33023607785077
 20
743.77220103061802
 11
181.3357424160273
 21
743.77205270028253
  0
LINE
  8
_5-0_
  6
CONTINUOUS
 62
    7
 10
181.3357424160273
 20
743.77205270028253
 11
181.33783102705976
 21
743.77199643705183
  0
LINE
  8
_5-0_
  6
CONTINUOUS
 62
    7
 10
181.33783102705976
 20
743.77199643705183
 11
181.6376817634208
 21
743.76547274393386
  0
LINE
  8
_5-0_
  6
CONTINUOUS
 62
    7
 10
181.6376817634208
 20
743.76547274393386
 11
181.89533818131466
 21
743.7626133480785
  0
LINE
  8
_5-0_
  6
CONTINUOUS
 62
    7
 10
181.89533818131466
 20
743.7626133480785
 11
182.11106316641377
 21
743.76254150534442
  0
LINE
  8
_5-0_
  6
CONTINUOUS
 62
    7
 10
182.11106316641377
 20
743.76254150534442
 11
182.28511960439036
 21
743.7643804715899
  0
LINE
  8
_5-0_
  6
CONTINUOUS
 62
    7
 10
182.28511960439036
 20
743.7643804715899
 11
182.41777038091712
 21
743.76725350267384
  0
LINE
  8
_5-0_
  6
CONTINUOUS
 62
    7
 10
182.41777038091712
 20
743.76725350267384
 11
182.50927838166655
 21
743.77028385445453
  0
LINE
  8
_5-0_
  6
CONTINUOUS
 62
    7
 10
182.50927838166655
 20
743.77028385445453
 11
182.55990649231103
 21
743.77259478279075
  0
LINE
  8
_5-0_
  6
CONTINUOUS
 62
    7
 10
182.55990649231103
 20
743.77259478279075
 11
182.56991759852298
 21
743.7733095435409
  0
LINE
  8
_5-0_
  6
CONTINUOUS
 62
    7
 10
182.56991759852298
 20
743.7733095435409
 11
182.5699488288798
 21
743.77331069236436
  0
LINE
  8
_5-0_
  6
CONTINUOUS
 62
    7
 10
182.5699488288798
 20
743.77331069236436
 11
182.57003116345692
 21
743.77331372108051
  0
LINE
  8
_5-0_
  6
CONTINUOUS
 62
    7
 10
182.57003116345692
 20
743.77331372108051
 11
182.57014756751431
 21
743.77331800305819
  0
LINE
  8
_5-0_
  6
CONTINUOUS
 62
    7
 10
182.57014756751431
 20
743.77331800305819
 11
182.57028100631175
 21
743.77332291166704
  0
LINE
  8
_5-0_
  6
CONTINUOUS
 62
    7
 10
182.57028100631175
 20
743.77332291166704
 11
182.57041444510924
 21
743.77332782027588
  0
LINE
  8
_5-0_
  6
CONTINUOUS
 62
    7
 10
182.57041444510924
 20
743.77332782027588
 11
182.57053084916657
 21
743.7733321022539
  0
LINE
  8
_5-0_
  6
CONTINUOUS
 62
    7
 10
182.57053084916657
 20
743.7733321022539
 11
182.5706131837436
 21
743.77333513097005
  0
LINE
  8
_5-0_
  6
CONTINUOUS
 62
    7
 10
182.5706131837436
 20
743.77333513097005
 11
182.57064441410051
 21
743.77333627979328
  0
LINE
  8
_5-0_
  6
CONTINUOUS
 62
    7
 10
181.28922335212201
 20
743.77330583587423
 11
181.28922335212201
 21
742.19236148511527
  0
LINE
  8
_5-0_
  6
CONTINUOUS
 62
    7
 10
181.28922335212201
 20
742.19236148511527
 11
181.28922338506797
 21
742.19283725318724
  0
LINE
  8
_5-0_
  6
CONTINUOUS
 62
    7
 10
181.28922338506797
 20
742.19283725318724
 11
181.28922347192537
 21
742.19409155083122
  0
LINE
  8
_5-0_
  6
CONTINUOUS
 62
    7
 10
181.28922347192537
 20
742.19409155083122
 11
181.28922359472375
 21
742.19586486819014
  0
LINE
  8
_5-0_
  6
CONTINUOUS
 62
    7
 10
181.28922359472375
 20
742.19586486819014
 11
181.28922373549258
 21
742.19789769540637
  0
LINE
  8
_5-0_
  6
CONTINUOUS
 62
    7
 10
181.28922373549258
 20
742.19789769540637
 11
181.28922387626147
 21
742.19993052262271
  0
LINE
  8
_5-0_
  6
CONTINUOUS
 62
    7
 10
181.28922387626147
 20
742.19993052262271
 11
181.28922399905974
 21
742.20170383998152
  0
LINE
  8
_5-0_
  6
CONTINUOUS
 62
    7
 10
181.28922399905974
 20
742.20170383998152
 11
181.28922408591711
 21
742.20295813762561
  0
LINE
  8
_5-0_
  6
CONTINUOUS
 62
    7
 10
181.28922408591711
 20
742.20295813762561
 11
181.28922411886307
 21
742.20343390569747
  0
LINE
  8
_5-0_
  6
CONTINUOUS
 62
    7
 10
181.28922411886307
 20
742.20343390569747
 11
181.28925035474978
 21
742.29129739929544
  0
LINE
  8
_5-0_
  6
CONTINUOUS
 62
    7
 10
181.28925035474978
 20
742.29129739929544
 11
181.28930640755641
 21
742.40522043985129
  0
LINE
  8
_5-0_
  6
CONTINUOUS
 62
    7
 10
181.28930640755641
 20
742.40522043985129
 11
181.28937396896376
 21
742.54704778156997
  0
LINE
  8
_5-0_
  6
CONTINUOUS
 62
    7
 10
181.28937396896376
 20
742.54704778156997
 11
181.28943473065235
 21
742.71862417865634
  0
LINE
  8
_5-0_
  6
CONTINUOUS
 62
    7
 10
181.28943473065235
 20
742.71862417865634
 11
181.28947038430297
 21
742.92179438531502
  0
LINE
  8
_5-0_
  6
CONTINUOUS
 62
    7
 10
181.28947038430297
 20
742.92179438531502
 11
181.28946262159644
 21
743.1584031557511
  0
LINE
  8
_5-0_
  6
CONTINUOUS
 62
    7
 10
181.28946262159644
 20
743.1584031557511
 11
181.28939313421336
 21
743.4302952441692
  0
LINE
  8
_5-0_
  6
CONTINUOUS
 62
    7
 10
181.28939313421336
 20
743.4302952441692
 11
181.28924361383434
 21
743.7393154047744
  0
LINE
  8
_5-0_
  6
CONTINUOUS
 62
    7
 10
181.28924361383434
 20
743.7393154047744
 11
181.28924274321392
 21
743.74077593111087
  0
LINE
  8
_5-0_
  6
CONTINUOUS
 62
    7
 10
181.28924274321392
 20
743.74077593111087
 11
181.28924044794175
 21
743.74462640963372
  0
LINE
  8
_5-0_
  6
CONTINUOUS
 62
    7
 10
181.28924044794175
 20
743.74462640963372
 11
181.28923720290197
 21
743.75007018961469
  0
LINE
  8
_5-0_
  6
CONTINUOUS
 62
    7
 10
181.28923720290197
 20
743.75007018961469
 11
181.28923348297826
 21
743.75631062032437
  0
LINE
  8
_5-0_
  6
CONTINUOUS
 62
    7
 10
181.28923348297826
 20
743.75631062032437
 11
181.28922976305446
 21
743.76255105103405
  0
LINE
  8
_5-0_
  6
CONTINUOUS
 62
    7
 10
181.28922976305446
 20
743.76255105103405
 11
181.28922651801452
 21
743.7679948310149
  0
LINE
  8
_5-0_
  6
CONTINUOUS
 62
    7
 10
181.28922651801452
 20
743.7679948310149
 11
181.28922422274258
 21
743.77184530953798
  0
LINE
  8
_5-0_
  6
CONTINUOUS
 62
    7
 10
181.28922422274258
 20
743.77184530953798
 11
181.28922335212201
 21
743.77330583587423
  0
LINE
  8
_5-0_
  6
CONTINUOUS
 62
    7
 10
181.65649002380732
 20
742.19236148511527
 11
181.65645877232933
 21
742.19236148511527
  0
LINE
  8
_5-0_
  6
CONTINUOUS
 62
    7
 10
181.65645877232933
 20
742.19236148511527
 11
181.65637638206903
 21
742.19236148511527
  0
LINE
  8
_5-0_
  6
CONTINUOUS
 62
    7
 10
181.65637638206903
 20
742.19236148511527
 11
181.65625989928736
 21
742.19236148511527
  0
LINE
  8
_5-0_
  6
CONTINUOUS
 62
    7
 10
181.65625989928736
 20
742.19236148511527
 11
181.65612637024481
 21
742.19236148511527
  0
LINE
  8
_5-0_
  6
CONTINUOUS
 62
    7
 10
181.65612637024481
 20
742.19236148511527
 11
181.65599284120248
 21
742.19236148511527
  0
LINE
  8
_5-0_
  6
CONTINUOUS
 62
    7
 10
181.65599284120248
 20
742.19236148511527
 11
181.65587635842073
 21
742.19236148511527
  0
LINE
  8
_5-0_
  6
CONTINUOUS
 62
    7
 10
181.65587635842073
 20
742.19236148511527
 11
181.65579396816042
 21
742.19236148511527
  0
LINE
  8
_5-0_
  6
CONTINUOUS
 62
    7
 10
181.65579396816042
 20
742.19236148511527
 11
181.65576271668243
 21
742.19236148511527
  0
LINE
  8
_5-0_
  6
CONTINUOUS
 62
    7
 10
181.65576271668243
 20
742.19236148511527
 11
181.64193330625508
 21
742.19236148511527
  0
LINE
  8
_5-0_
  6
CONTINUOUS
 62
    7
 10
181.64193330625508
 20
742.19236148511527
 11
181.60547395149172
 21
742.19236148511527
  0
LINE
  8
_5-0_
  6
CONTINUOUS
 62
    7
 10
181.60547395149172
 20
742.19236148511527
 11
181.55392796717123
 21
742.19236148511527
  0
LINE
  8
_5-0_
  6
CONTINUOUS
 62
    7
 10
181.55392796717123
 20
742.19236148511527
 11
181.49483866807216
 21
742.19236148511527
  0
LINE
  8
_5-0_
  6
CONTINUOUS
 62
    7
 10
181.49483866807216
 20
742.19236148511527
 11
181.43574936897318
 21
742.19236148511527
  0
LINE
  8
_5-0_
  6
CONTINUOUS
 62
    7
 10
181.43574936897318
 20
742.19236148511527
 11
181.38420338465266
 21
742.19236148511527
  0
LINE
  8
_5-0_
  6
CONTINUOUS
 62
    7
 10
181.38420338465266
 20
742.19236148511527
 11
181.34774402988944
 21
742.19236148511527
  0
LINE
  8
_5-0_
  6
CONTINUOUS
 62
    7
 10
181.34774402988944
 20
742.19236148511527
 11
181.33391461946195
 21
742.19236148511527
  0
LINE
  8
_5-0_
  6
CONTINUOUS
 62
    7
 10
181.33391461946195
 20
742.19236148511527
 11
181.33199429156846
 21
742.19236148511527
  0
LINE
  8
_5-0_
  6
CONTINUOUS
 62
    7
 10
181.33199429156846
 20
742.19236148511527
 11
181.32693160894007
 21
742.19236148511527
  0
LINE
  8
_5-0_
  6
CONTINUOUS
 62
    7
 10
181.32693160894007
 20
742.19236148511527
 11
181.31977402315513
 21
742.19236148511527
  0
LINE
  8
_5-0_
  6
CONTINUOUS
 62
    7
 10
181.31977402315513
 20
742.19236148511527
 11
181.31156898579206
 21
742.19236148511527
  0
LINE
  8
_5-0_
  6
CONTINUOUS
 62
    7
 10
181.31156898579206
 20
742.19236148511527
 11
181.30336394842885
 21
742.19236148511527
  0
LINE
  8
_5-0_
  6
CONTINUOUS
 62
    7
 10
181.30336394842885
 20
742.19236148511527
 11
181.29620636264383
 21
742.19236148511527
  0
LINE
  8
_5-0_
  6
CONTINUOUS
 62
    7
 10
181.29620636264383
 20
742.19236148511527
 11
181.29114368001552
 21
742.19236148511527
  0
LINE
  8
_5-0_
  6
CONTINUOUS
 62
    7
 10
181.29114368001552
 20
742.19236148511527
 11
181.28922335212201
 21
742.19236148511527
  0
LINE
  8
_5-0_
  6
CONTINUOUS
 62
    7
 10
181.39895963906332
 20
751.2300144272815
 11
181.70592762440486
 21
751.10888762339528
  0
LINE
  8
_5-0_
  6
CONTINUOUS
 62
    7
 10
181.70592762440486
 20
751.10888762339528
 11
181.70535616930658
 21
751.10888762339528
  0
LINE
  8
_5-0_
  6
CONTINUOUS
 62
    7
 10
181.70535616930658
 20
751.10888762339528
 11
181.70384960586574
 21
751.10888762339528
  0
LINE
  8
_5-0_
  6
CONTINUOUS
 62
    7
 10
181.70384960586574
 20
751.10888762339528
 11
181.701719636863
 21
751.10888762339528
  0
LINE
  8
_5-0_
  6
CONTINUOUS
 62
    7
 10
181.701719636863
 20
751.10888762339528
 11
181.69927796507963
 21
751.10888762339528
  0
LINE
  8
_5-0_
  6
CONTINUOUS
 62
    7
 10
181.69927796507963
 20
751.10888762339528
 11
181.69683629329612
 21
751.10888762339528
  0
LINE
  8
_5-0_
  6
CONTINUOUS
 62
    7
 10
181.69683629329612
 20
751.10888762339528
 11
181.69470632429346
 21
751.10888762339528
  0
LINE
  8
_5-0_
  6
CONTINUOUS
 62
    7
 10
181.69470632429346
 20
751.10888762339528
 11
181.69319976085262
 21
751.10888762339528
  0
LINE
  8
_5-0_
  6
CONTINUOUS
 62
    7
 10
181.69319976085262
 20
751.10888762339528
 11
181.69262830575434
 21
751.10888762339528
  0
LINE
  8
_5-0_
  6
CONTINUOUS
 62
    7
 10
181.69262830575434
 20
751.10888762339528
 11
181.68007537252174
 21
751.10933519400669
  0
LINE
  8
_5-0_
  6
CONTINUOUS
 62
    7
 10
181.68007537252174
 20
751.10933519400669
 11
181.66459993941322
 21
751.11067384773673
  0
LINE
  8
_5-0_
  6
CONTINUOUS
 62
    7
 10
181.66459993941322
 20
751.11067384773673
 11
181.64684334580022
 21
751.112897497429
  0
LINE
  8
_5-0_
  6
CONTINUOUS
 62
    7
 10
181.64684334580022
 20
751.112897497429
 11
181.62744693105475
 21
751.11600005592663
  0
LINE
  8
_5-0_
  6
CONTINUOUS
 62
    7
 10
181.62744693105475
 20
751.11600005592663
 11
181.6070520345483
 21
751.11997543607356
  0
LINE
  8
_5-0_
  6
CONTINUOUS
 62
    7
 10
181.6070520345483
 20
751.11997543607356
 11
181.58629999565264
 21
751.12481755071326
  0
LINE
  8
_5-0_
  6
CONTINUOUS
 62
    7
 10
181.58629999565264
 20
751.12481755071326
 11
181.56583215373942
 21
751.13052031268933
  0
LINE
  8
_5-0_
  6
CONTINUOUS
 62
    7
 10
181.56583215373942
 20
751.13052031268933
 11
181.54628984818055
 21
751.13707763484513
  0
LINE
  8
_5-0_
  6
CONTINUOUS
 62
    7
 10
181.54628984818055
 20
751.13707763484513
 11
181.51620746675391
 21
751.14921377100711
  0
LINE
  8
_5-0_
  6
CONTINUOUS
 62
    7
 10
181.51620746675391
 20
751.14921377100711
 11
181.49045957134874
 21
751.16149979320437
  0
LINE
  8
_5-0_
  6
CONTINUOUS
 62
    7
 10
181.49045957134874
 20
751.16149979320437
 11
181.46864184183528
 21
751.17369134075773
  0
LINE
  8
_5-0_
  6
CONTINUOUS
 62
    7
 10
181.46864184183528
 20
751.17369134075773
 11
181.45034995808368
 21
751.18554405298767
  0
LINE
  8
_5-0_
  6
CONTINUOUS
 62
    7
 10
181.45034995808368
 20
751.18554405298767
 11
181.43517959996439
 21
751.19681356921524
  0
LINE
  8
_5-0_
  6
CONTINUOUS
 62
    7
 10
181.43517959996439
 20
751.19681356921524
 11
181.42272644734732
 21
751.20725552876047
  0
LINE
  8
_5-0_
  6
CONTINUOUS
 62
    7
 10
181.42272644734732
 20
751.20725552876047
 11
181.41258618010298
 21
751.21662557094464
  0
LINE
  8
_5-0_
  6
CONTINUOUS
 62
    7
 10
181.41258618010298
 20
751.21662557094464
 11
181.40435447810154
 21
751.22467933508813
  0
LINE
  8
_5-0_
  6
CONTINUOUS
 62
    7
 10
181.40435447810154
 20
751.22467933508813
 11
181.40412266861162
 21
751.22490857733078
  0
LINE
  8
_5-0_
  6
CONTINUOUS
 62
    7
 10
181.40412266861162
 20
751.22490857733078
 11
181.40351153450183
 21
751.22551294324342
  0
LINE
  8
_5-0_
  6
CONTINUOUS
 62
    7
 10
181.40351153450183
 20
751.22551294324342
 11
181.402647517312
 21
751.22636739160248
  0
LINE
  8
_5-0_
  6
CONTINUOUS
 62
    7
 10
181.402647517312
 20
751.22636739160248
 11
181.40165705858243
 21
751.22734688118487
  0
LINE
  8
_5-0_
  6
CONTINUOUS
 62
    7
 10
181.40165705858243
 20
751.22734688118487
 11
181.40066659985274
 21
751.22832637076726
  0
LINE
  8
_5-0_
  6
CONTINUOUS
 62
    7
 10
181.40066659985274
 20
751.22832637076726
 11
181.39980258266306
 21
751.22918081912633
  0
LINE
  8
_5-0_
  6
CONTINUOUS
 62
    7
 10
181.39980258266306
 20
751.22918081912633
 11
181.39919144855327
 21
751.22978518503885
  0
LINE
  8
_5-0_
  6
CONTINUOUS
 62
    7
 10
181.39919144855327
 20
751.22978518503885
 11
181.39895963906332
 21
751.2300144272815
  0
LINE
  8
_5-0_
  6
CONTINUOUS
 62
    7
 10
181.39897359068704
 20
748.13134967848623
 11
181.70592729259624
 21
748.01023669590791
  0
LINE
  8
_5-0_
  6
CONTINUOUS
 62
    7
 10
181.70592729259624
 20
748.01023669590791
 11
181.70535586862712
 21
748.01023669590791
  0
LINE
  8
_5-0_
  6
CONTINUOUS
 62
    7
 10
181.70535586862712
 20
748.01023669590791
 11
181.70384938725385
 21
748.01023669590791
  0
LINE
  8
_5-0_
  6
CONTINUOUS
 62
    7
 10
181.70384938725385
 20
748.01023669590791
 11
181.70171953427797
 21
748.01023669590791
  0
LINE
  8
_5-0_
  6
CONTINUOUS
 62
    7
 10
181.70171953427797
 20
748.01023669590791
 11
181.69927799550072
 21
748.01023669590791
  0
LINE
  8
_5-0_
  6
CONTINUOUS
 62
    7
 10
181.69927799550072
 20
748.01023669590791
 11
181.69683645672342
 21
748.01023669590791
  0
LINE
  8
_5-0_
  6
CONTINUOUS
 62
    7
 10
181.69683645672342
 20
748.01023669590791
 11
181.69470660374756
 21
748.01023669590791
  0
LINE
  8
_5-0_
  6
CONTINUOUS
 62
    7
 10
181.69470660374756
 20
748.01023669590791
 11
181.69320012237421
 21
748.01023669590791
  0
LINE
  8
_5-0_
  6
CONTINUOUS
 62
    7
 10
181.69320012237421
 20
748.01023669590791
 11
181.69262869840514
 21
748.01023669590791
  0
LINE
  8
_5-0_
  6
CONTINUOUS
 62
    7
 10
181.69262869840514
 20
748.01023669590791
 11
181.68007645153784
 21
748.01068421993193
  0
LINE
  8
_5-0_
  6
CONTINUOUS
 62
    7
 10
181.68007645153784
 20
748.01068421993193
 11
181.66460186328015
 21
748.0120227324802
  0
LINE
  8
_5-0_
  6
CONTINUOUS
 62
    7
 10
181.66460186328015
 20
748.0120227324802
 11
181.64684623743062
 21
748.01424614426821
  0
LINE
  8
_5-0_
  6
CONTINUOUS
 62
    7
 10
181.64684623743062
 20
748.01424614426821
 11
181.62745087778788
 21
748.01734836601076
  0
LINE
  8
_5-0_
  6
CONTINUOUS
 62
    7
 10
181.62745087778788
 20
748.01734836601076
 11
181.60705708815021
 21
748.02132330842312
  0
LINE
  8
_5-0_
  6
CONTINUOUS
 62
    7
 10
181.60705708815021
 20
748.02132330842312
 11
181.58630617231665
 21
748.02616488222031
  0
LINE
  8
_5-0_
  6
CONTINUOUS
 62
    7
 10
181.58630617231665
 20
748.02616488222031
 11
181.56583943408543
 21
748.03186699811749
  0
LINE
  8
_5-0_
  6
CONTINUOUS
 62
    7
 10
181.56583943408543
 20
748.03186699811749
 11
181.54629817725544
 21
748.03842356682958
  0
LINE
  8
_5-0_
  6
CONTINUOUS
 62
    7
 10
181.54629817725544
 20
748.03842356682958
 11
181.51621717968737
 21
748.05055835275857
  0
LINE
  8
_5-0_
  6
CONTINUOUS
 62
    7
 10
181.51621717968737
 20
748.05055835275857
 11
181.49047046292912
 21
748.0628429487075
  0
LINE
  8
_5-0_
  6
CONTINUOUS
 62
    7
 10
181.49047046292912
 20
748.0628429487075
 11
181.46865371106935
 21
748.07503304483703
  0
LINE
  8
_5-0_
  6
CONTINUOUS
 62
    7
 10
181.46865371106935
 20
748.07503304483703
 11
181.45036260819671
 21
748.08688433130692
  0
LINE
  8
_5-0_
  6
CONTINUOUS
 62
    7
 10
181.45036260819671
 20
748.08688433130692
 11
181.43519283839987
 21
748.09815249827795
  0
LINE
  8
_5-0_
  6
CONTINUOUS
 62
    7
 10
181.43519283839987
 20
748.09815249827795
 11
181.42274008576734
 21
748.10859323591001
  0
LINE
  8
_5-0_
  6
CONTINUOUS
 62
    7
 10
181.42274008576734
 20
748.10859323591001
 11
181.41260003438788
 21
748.1179622343634
  0
LINE
  8
_5-0_
  6
CONTINUOUS
 62
    7
 10
181.41260003438788
 20
748.1179622343634
 11
181.40436836835008
 21
748.12601518379836
  0
LINE
  8
_5-0_
  6
CONTINUOUS
 62
    7
 10
181.40436836835008
 20
748.12601518379836
 11
181.40413656149732
 21
748.126244400367
  0
LINE
  8
_5-0_
  6
CONTINUOUS
 62
    7
 10
181.40413656149732
 20
748.126244400367
 11
181.40352543434028
 21
748.12684869859345
  0
LINE
  8
_5-0_
  6
CONTINUOUS
 62
    7
 10
181.40352543434028
 20
748.12684869859345
 11
181.4026614269801
 21
748.12770305125821
  0
LINE
  8
_5-0_
  6
CONTINUOUS
 62
    7
 10
181.4026614269801
 20
748.12770305125821
 11
181.40167097951854
 21
748.12868243114224
  0
LINE
  8
_5-0_
  6
CONTINUOUS
 62
    7
 10
181.40167097951854
 20
748.12868243114224
 11
181.40068053205695
 21
748.12966181102638
  0
LINE
  8
_5-0_
  6
CONTINUOUS
 62
    7
 10
181.40068053205695
 20
748.12966181102638
 11
181.39981652469686
 21
748.13051616369125
  0
LINE
  8
_5-0_
  6
CONTINUOUS
 62
    7
 10
181.39981652469686
 20
748.13051616369125
 11
181.39920539753973
 21
748.13112046191759
  0
LINE
  8
_5-0_
  6
CONTINUOUS
 62
    7
 10
181.39920539753973
 20
748.13112046191759
 11
181.39897359068704
 21
748.13134967848623
  0
LINE
  8
_5-0_
  6
CONTINUOUS
 62
    7
 10
181.52468733933665
 20
749.1443707195333
 11
181.28922335212218
 21
748.7896319644949
  0
LINE
  8
_5-0_
  6
CONTINUOUS
 62
    7
 10
181.28922335212218
 20
748.7896319644949
 11
181.28932166692664
 21
748.7975185490991
  0
LINE
  8
_5-0_
  6
CONTINUOUS
 62
    7
 10
181.28932166692664
 20
748.7975185490991
 11
181.28964332855958
 21
748.80559550373505
  0
LINE
  8
_5-0_
  6
CONTINUOUS
 62
    7
 10
181.28964332855958
 20
748.80559550373505
 11
181.29022841285035
 21
748.81409889147494
  0
LINE
  8
_5-0_
  6
CONTINUOUS
 62
    7
 10
181.29022841285035
 20
748.81409889147494
 11
181.29111699562827
 21
748.82326477539038
  0
LINE
  8
_5-0_
  6
CONTINUOUS
 62
    7
 10
181.29111699562827
 20
748.82326477539038
 11
181.29234915272278
 21
748.83332921855367
  0
LINE
  8
_5-0_
  6
CONTINUOUS
 62
    7
 10
181.29234915272278
 20
748.83332921855367
 11
181.29396495996303
 21
748.84452828403653
  0
LINE
  8
_5-0_
  6
CONTINUOUS
 62
    7
 10
181.29396495996303
 20
748.84452828403653
 11
181.29600449317877
 21
748.85709803491113
  0
LINE
  8
_5-0_
  6
CONTINUOUS
 62
    7
 10
181.29600449317877
 20
748.85709803491113
 11
181.29850782819892
 21
748.87127453424921
  0
LINE
  8
_5-0_
  6
CONTINUOUS
 62
    7
 10
181.29850782819892
 20
748.87127453424921
 11
181.30091764538193
 21
748.87948526960054
  0
LINE
  8
_5-0_
  6
CONTINUOUS
 62
    7
 10
181.30091764538193
 20
748.87948526960054
 11
181.30393966682044
 21
748.88892731091028
  0
LINE
  8
_5-0_
  6
CONTINUOUS
 62
    7
 10
181.30393966682044
 20
748.88892731091028
 11
181.30741258364608
 21
748.89915895212937
  0
LINE
  8
_5-0_
  6
CONTINUOUS
 62
    7
 10
181.30741258364608
 20
748.89915895212937
 11
181.31117508699063
 21
748.90973848720876
  0
LINE
  8
_5-0_
  6
CONTINUOUS
 62
    7
 10
181.31117508699063
 20
748.90973848720876
 11
181.31506586798594
 21
748.92022421009915
  0
LINE
  8
_5-0_
  6
CONTINUOUS
 62
    7
 10
181.31506586798594
 20
748.92022421009915
 11
181.3189236177638
 21
748.93017441475172
  0
LINE
  8
_5-0_
  6
CONTINUOUS
 62
    7
 10
181.3189236177638
 20
748.93017441475172
 11
181.32258702745594
 21
748.93914739511729
  0
LINE
  8
_5-0_
  6
CONTINUOUS
 62
    7
 10
181.32258702745594
 20
748.93914739511729
 11
181.32589478819403
 21
748.94670144514691
  0
LINE
  8
_5-0_
  6
CONTINUOUS
 62
    7
 10
181.32589478819403
 20
748.94670144514691
 11
181.33255724218708
 21
748.95867795339905
  0
LINE
  8
_5-0_
  6
CONTINUOUS
 62
    7
 10
181.33255724218708
 20
748.95867795339905
 11
181.33868698518384
 21
748.96934805357034
  0
LINE
  8
_5-0_
  6
CONTINUOUS
 62
    7
 10
181.33868698518384
 20
748.96934805357034
 11
181.34451800685852
 21
748.97908139673928
  0
LINE
  8
_5-0_
  6
CONTINUOUS
 62
    7
 10
181.34451800685852
 20
748.97908139673928
 11
181.35028429688546
 21
748.98824763398454
  0
LINE
  8
_5-0_
  6
CONTINUOUS
 62
    7
 10
181.35028429688546
 20
748.98824763398454
 11
181.35621984493901
 21
748.99721641638462
  0
LINE
  8
_5-0_
  6
CONTINUOUS
 62
    7
 10
181.35621984493901
 20
748.99721641638462
 11
181.36255864069355
 21
749.00635739501831
  0
LINE
  8
_5-0_
  6
CONTINUOUS
 62
    7
 10
181.36255864069355
 20
749.00635739501831
 11
181.36953467382327
 21
749.0160402209641
  0
LINE
  8
_5-0_
  6
CONTINUOUS
 62
    7
 10
181.36953467382327
 20
749.0160402209641
 11
181.37738193400253
 21
749.02663454530057
  0
LINE
  8
_5-0_
  6
CONTINUOUS
 62
    7
 10
181.37738193400253
 20
749.02663454530057
 11
181.3823954580144
 21
749.0323245858433
  0
LINE
  8
_5-0_
  6
CONTINUOUS
 62
    7
 10
181.3823954580144
 20
749.0323245858433
 11
181.38834089427505
 21
749.03883279665138
  0
LINE
  8
_5-0_
  6
CONTINUOUS
 62
    7
 10
181.38834089427505
 20
749.03883279665138
 11
181.39492689615651
 21
749.04585780731611
  0
LINE
  8
_5-0_
  6
CONTINUOUS
 62
    7
 10
181.39492689615651
 20
749.04585780731611
 11
181.40186211703067
 21
749.05309824742858
  0
LINE
  8
_5-0_
  6
CONTINUOUS
 62
    7
 10
181.40186211703067
 20
749.05309824742858
 11
181.40885521026945
 21
749.06025274657975
  0
LINE
  8
_5-0_
  6
CONTINUOUS
 62
    7
 10
181.40885521026945
 20
749.06025274657975
 11
181.41561482924487
 21
749.06701993436104
  0
LINE
  8
_5-0_
  6
CONTINUOUS
 62
    7
 10
181.41561482924487
 20
749.06701993436104
 11
181.42184962732875
 21
749.0730984403632
  0
LINE
  8
_5-0_
  6
CONTINUOUS
 62
    7
 10
181.42184962732875
 20
749.0730984403632
 11
181.4272682578931
 21
749.07818689417752
  0
LINE
  8
_5-0_
  6
CONTINUOUS
 62
    7
 10
181.4272682578931
 20
749.07818689417752
 11
181.44188265389388
 21
749.08991428883962
  0
LINE
  8
_5-0_
  6
CONTINUOUS
 62
    7
 10
181.44188265389388
 20
749.08991428883962
 11
181.45549706209982
 21
749.10037570913687
  0
LINE
  8
_5-0_
  6
CONTINUOUS
 62
    7
 10
181.45549706209982
 20
749.10037570913687
 11
181.46826333200565
 21
749.1097106541813
  0
LINE
  8
_5-0_
  6
CONTINUOUS
 62
    7
 10
181.46826333200565
 20
749.1097106541813
 11
181.48033331310558
 21
749.11805862308483
  0
LINE
  8
_5-0_
  6
CONTINUOUS
 62
    7
 10
181.48033331310558
 20
749.11805862308483
 11
181.49185885489416
 21
749.12555911495974
  0
LINE
  8
_5-0_
  6
CONTINUOUS
 62
    7
 10
181.49185885489416
 20
749.12555911495974
 11
181.50299180686588
 21
749.13235162891806
  0
LINE
  8
_5-0_
  6
CONTINUOUS
 62
    7
 10
181.50299180686588
 20
749.13235162891806
 11
181.51388401851528
 21
749.13857566407182
  0
LINE
  8
_5-0_
  6
CONTINUOUS
 62
    7
 10
181.51388401851528
 20
749.13857566407182
 11
181.52468733933665
 21
749.1443707195333
  0
LINE
  8
_5-0_
  6
CONTINUOUS
 62
    7
 10
180.53546376371202
 20
742.19236148511527
 11
180.53546376371202
 21
742.3897810139058
  0
LINE
  8
_5-0_
  6
CONTINUOUS
 62
    7
 10
180.53546376371202
 20
742.3897810139058
 11
180.53546376371202
 21
742.58727374359228
  0
LINE
  8
_5-0_
  6
CONTINUOUS
 62
    7
 10
180.53546376371202
 20
742.58727374359228
 11
180.53546376371202
 21
742.78483143301992
  0
LINE
  8
_5-0_
  6
CONTINUOUS
 62
    7
 10
180.53546376371202
 20
742.78483143301992
 11
180.53546376371202
 21
742.98244584103463
  0
LINE
  8
_5-0_
  6
CONTINUOUS
 62
    7
 10
180.53546376371202
 20
742.98244584103463
 11
180.53546376371202
 21
743.18010872648176
  0
LINE
  8
_5-0_
  6
CONTINUOUS
 62
    7
 10
180.53546376371202
 20
743.18010872648176
 11
180.53546376371202
 21
743.37781184820699
  0
LINE
  8
_5-0_
  6
CONTINUOUS
 62
    7
 10
180.53546376371202
 20
743.37781184820699
 11
180.53546376371202
 21
743.57554696505599
  0
LINE
  8
_5-0_
  6
CONTINUOUS
 62
    7
 10
180.53546376371202
 20
743.57554696505599
 11
180.53546376371202
 21
743.77330583587423
  0
LINE
  8
_5-0_
  6
CONTINUOUS
 62
    7
 10
181.28922335212201
 20
743.77330583587423
 11
181.28922335212201
 21
743.94124746456691
  0
LINE
  8
_5-0_
  6
CONTINUOUS
 62
    7
 10
181.28922335212201
 20
743.94124746456691
 11
181.28922335212201
 21
744.10918909325972
  0
LINE
  8
_5-0_
  6
CONTINUOUS
 62
    7
 10
181.28922335212201
 20
744.10918909325972
 11
181.28922335212201
 21
744.27713072195252
  0
LINE
  8
_5-0_
  6
CONTINUOUS
 62
    7
 10
181.28922335212201
 20
744.27713072195252
 11
181.28922335212218
 21
744.44507235064521
  0
LINE
  8
_5-0_
  6
CONTINUOUS
 62
    7
 10
181.28922335212218
 20
744.44507235064521
 11
181.28922335212218
 21
744.61301397933789
  0
LINE
  8
_5-0_
  6
CONTINUOUS
 62
    7
 10
181.28922335212218
 20
744.61301397933789
 11
181.28922335212218
 21
744.78095560803069
  0
LINE
  8
_5-0_
  6
CONTINUOUS
 62
    7
 10
181.28922335212218
 20
744.78095560803069
 11
181.28922335212218
 21
744.9488972367235
  0
LINE
  8
_5-0_
  6
CONTINUOUS
 62
    7
 10
181.28922335212218
 20
744.9488972367235
 11
181.28922335212218
 21
745.11683886541618
  0
LINE
  8
_5-0_
  6
CONTINUOUS
 62
    7
 10
181.38773497808302
 20
745.10754308503147
 11
181.28922335212201
 21
745.11683886541618
  0
LINE
  8
_5-0_
  6
CONTINUOUS
 62
    7
 10
181.28922335212201
 20
745.11683886541618
 11
181.28957605552728
 21
745.11680611413112
  0
LINE
  8
_5-0_
  6
CONTINUOUS
 62
    7
 10
181.28957605552728
 20
745.11680611413112
 11
181.29050590995922
 21
745.11671976983394
  0
LINE
  8
_5-0_
  6
CONTINUOUS
 62
    7
 10
181.29050590995922
 20
745.11671976983394
 11
181.29182053174233
 21
745.11659769686207
  0
LINE
  8
_5-0_
  6
CONTINUOUS
 62
    7
 10
181.29182053174233
 20
745.11659769686207
 11
181.29332753720092
 21
745.11645775955287
  0
LINE
  8
_5-0_
  6
CONTINUOUS
 62
    7
 10
181.29332753720092
 20
745.11645775955287
 11
181.29483454265966
 21
745.11631782224356
  0
LINE
  8
_5-0_
  6
CONTINUOUS
 62
    7
 10
181.29483454265966
 20
745.11631782224356
 11
181.29614916444274
 21
745.1161957492717
  0
LINE
  8
_5-0_
  6
CONTINUOUS
 62
    7
 10
181.29614916444274
 20
745.1161957492717
 11
181.29707901887471
 21
745.11610940497451
  0
LINE
  8
_5-0_
  6
CONTINUOUS
 62
    7
 10
181.29707901887471
 20
745.11610940497451
 11
181.29743172227995
 21
745.11607665368933
  0
LINE
  8
_5-0_
  6
CONTINUOUS
 62
    7
 10
181.29743172227995
 20
745.11607665368933
 11
181.30430940277094
 21
745.11543415835092
  0
LINE
  8
_5-0_
  6
CONTINUOUS
 62
    7
 10
181.30430940277094
 20
745.11543415835092
 11
181.31413451485707
 21
745.11451135539585
  0
LINE
  8
_5-0_
  6
CONTINUOUS
 62
    7
 10
181.31413451485707
 20
745.11451135539585
 11
181.32591834132995
 21
745.1134016777138
  0
LINE
  8
_5-0_
  6
CONTINUOUS
 62
    7
 10
181.32591834132995
 20
745.1134016777138
 11
181.33867216498118
 21
745.112198558194
  0
LINE
  8
_5-0_
  6
CONTINUOUS
 62
    7
 10
181.33867216498118
 20
745.112198558194
 11
181.35140726860257
 21
745.11099542972624
  0
LINE
  8
_5-0_
  6
CONTINUOUS
 62
    7
 10
181.35140726860257
 20
745.11099542972624
 11
181.36313493498557
 21
745.10988572519977
  0
LINE
  8
_5-0_
  6
CONTINUOUS
 62
    7
 10
181.36313493498557
 20
745.10988572519977
 11
181.37286644692196
 21
745.10896287750427
  0
LINE
  8
_5-0_
  6
CONTINUOUS
 62
    7
 10
181.37286644692196
 20
745.10896287750427
 11
181.37961308720335
 21
745.10832031952918
  0
LINE
  8
_5-0_
  6
CONTINUOUS
 62
    7
 10
181.37961308720335
 20
745.10832031952918
 11
181.37996207470201
 21
745.10828692273435
  0
LINE
  8
_5-0_
  6
CONTINUOUS
 62
    7
 10
181.37996207470201
 20
745.10828692273435
 11
181.38088213265334
 21
745.10819887663888
  0
LINE
  8
_5-0_
  6
CONTINUOUS
 62
    7
 10
181.38088213265334
 20
745.10819887663888
 11
181.38218290423958
 21
745.10807439767632
  0
LINE
  8
_5-0_
  6
CONTINUOUS
 62
    7
 10
181.38218290423958
 20
745.10807439767632
 11
181.38367403264326
 21
745.10793170228021
  0
LINE
  8
_5-0_
  6
CONTINUOUS
 62
    7
 10
181.38367403264326
 20
745.10793170228021
 11
181.38516516104693
 21
745.10778900688422
  0
LINE
  8
_5-0_
  6
CONTINUOUS
 62
    7
 10
181.38516516104693
 20
745.10778900688422
 11
181.38646593263317
 21
745.10766452792166
  0
LINE
  8
_5-0_
  6
CONTINUOUS
 62
    7
 10
181.38646593263317
 20
745.10766452792166
 11
181.38738599058433
 21
745.1075764818263
  0
LINE
  8
_5-0_
  6
CONTINUOUS
 62
    7
 10
181.38738599058433
 20
745.1075764818263
 11
181.38773497808302
 21
745.10754308503147
  0
LINE
  8
_5-0_
  6
CONTINUOUS
 62
    7
 10
181.38773497808268
 20
745.10754308502794
 11
181.28922335212218
 21
745.35425018663307
  0
LINE
  8
_5-0_
  6
CONTINUOUS
 62
    7
 10
181.28922335212218
 20
745.35425018663307
 11
181.28922335212218
 21
745.35374934768834
  0
LINE
  8
_5-0_
  6
CONTINUOUS
 62
    7
 10
181.28922335212218
 20
745.35374934768834
 11
181.28922335212218
 21
745.35242895410693
  0
LINE
  8
_5-0_
  6
CONTINUOUS
 62
    7
 10
181.28922335212218
 20
745.35242895410693
 11
181.28922335212218
 21
745.3505621907675
  0
LINE
  8
_5-0_
  6
CONTINUOUS
 62
    7
 10
181.28922335212218
 20
745.3505621907675
 11
181.28922335212218
 21
745.34842224254919
  0
LINE
  8
_5-0_
  6
CONTINUOUS
 62
    7
 10
181.28922335212218
 20
745.34842224254919
 11
181.28922335212218
 21
745.34628229433088
  0
LINE
  8
_5-0_
  6
CONTINUOUS
 62
    7
 10
181.28922335212218
 20
745.34628229433088
 11
181.28922335212218
 21
745.34441553099157
  0
LINE
  8
_5-0_
  6
CONTINUOUS
 62
    7
 10
181.28922335212218
 20
745.34441553099157
 11
181.28922335212218
 21
745.34309513741005
  0
LINE
  8
_5-0_
  6
CONTINUOUS
 62
    7
 10
181.28922335212218
 20
745.34309513741005
 11
181.28922335212218
 21
745.34259429846531
  0
LINE
  8
_5-0_
  6
CONTINUOUS
 62
    7
 10
181.28922335212218
 20
745.34259429846531
 11
181.28969219522062
 21
745.33165989841541
  0
LINE
  8
_5-0_
  6
CONTINUOUS
 62
    7
 10
181.28969219522062
 20
745.33165989841541
 11
181.29106762782271
 21
745.31831098600173
  0
LINE
  8
_5-0_
  6
CONTINUOUS
 62
    7
 10
181.29106762782271
 20
745.31831098600173
 11
181.29330300488888
 21
745.30312441525382
  0
LINE
  8
_5-0_
  6
CONTINUOUS
 62
    7
 10
181.29330300488888
 20
745.30312441525382
 11
181.29635168137901
 21
745.28667704020006
  0
LINE
  8
_5-0_
  6
CONTINUOUS
 62
    7
 10
181.29635168137901
 20
745.28667704020006
 11
181.30016701225358
 21
745.26954571486976
  0
LINE
  8
_5-0_
  6
CONTINUOUS
 62
    7
 10
181.30016701225358
 20
745.26954571486976
 11
181.30470235247245
 21
745.25230729329201
  0
LINE
  8
_5-0_
  6
CONTINUOUS
 62
    7
 10
181.30470235247245
 20
745.25230729329201
 11
181.30991105699616
 21
745.23553862949541
  0
LINE
  8
_5-0_
  6
CONTINUOUS
 62
    7
 10
181.30991105699616
 20
745.23553862949541
 11
181.31574648078455
 21
745.21981657750916
  0
LINE
  8
_5-0_
  6
CONTINUOUS
 62
    7
 10
181.31574648078455
 20
745.21981657750916
 11
181.32288012689713
 21
745.2033692080081
  0
LINE
  8
_5-0_
  6
CONTINUOUS
 62
    7
 10
181.32288012689713
 20
745.2033692080081
 11
181.32998358529562
 21
745.18876138750807
  0
LINE
  8
_5-0_
  6
CONTINUOUS
 62
    7
 10
181.32998358529562
 20
745.18876138750807
 11
181.33695657293913
 21
745.17586648665747
  0
LINE
  8
_5-0_
  6
CONTINUOUS
 62
    7
 10
181.33695657293913
 20
745.17586648665747
 11
181.34369880678662
 21
745.16455787610539
  0
LINE
  8
_5-0_
  6
CONTINUOUS
 62
    7
 10
181.34369880678662
 20
745.16455787610539
 11
181.35011000379757
 21
745.15470892650046
  0
LINE
  8
_5-0_
  6
CONTINUOUS
 62
    7
 10
181.35011000379757
 20
745.15470892650046
 11
181.35608988093097
 21
745.14619300849154
  0
LINE
  8
_5-0_
  6
CONTINUOUS
 62
    7
 10
181.35608988093097
 20
745.14619300849154
 11
181.36153815514598
 21
745.13888349272747
  0
LINE
  8
_5-0_
  6
CONTINUOUS
 62
    7
 10
181.36153815514598
 20
745.13888349272747
 11
181.36635454340166
 21
745.13265374985724
  0
LINE
  8
_5-0_
  6
CONTINUOUS
 62
    7
 10
181.36635454340166
 20
745.13265374985724
 11
181.36960674433845
 21
745.12850233667325
  0
LINE
  8
_5-0_
  6
CONTINUOUS
 62
    7
 10
181.36960674433845
 20
745.12850233667325
 11
181.37234947671942
 21
745.12504973683065
  0
LINE
  8
_5-0_
  6
CONTINUOUS
 62
    7
 10
181.37234947671942
 20
745.12504973683065
 11
181.37468837785178
 21
745.12216258392345
  0
LINE
  8
_5-0_
  6
CONTINUOUS
 62
    7
 10
181.37468837785178
 20
745.12216258392345
 11
181.37672908504229
 21
745.11970751154513
  0
LINE
  8
_5-0_
  6
CONTINUOUS
 62
    7
 10
181.37672908504229
 20
745.11970751154513
 11
181.37857723559804
 21
745.11755115328947
  0
LINE
  8
_5-0_
  6
CONTINUOUS
 62
    7
 10
181.37857723559804
 20
745.11755115328947
 11
181.38033846682623
 21
745.11556014275072
  0
LINE
  8
_5-0_
  6
CONTINUOUS
 62
    7
 10
181.38033846682623
 20
745.11556014275072
 11
181.38211841603365
 21
745.11360111352201
  0
LINE
  8
_5-0_
  6
CONTINUOUS
 62
    7
 10
181.38211841603365
 20
745.11360111352201
 11
181.38402272052735
 21
745.11154069919769
  0
LINE
  8
_5-0_
  6
CONTINUOUS
 62
    7
 10
181.38402272052735
 20
745.11154069919769
 11
181.38418223159425
 21
745.11136892671379
  0
LINE
  8
_5-0_
  6
CONTINUOUS
 62
    7
 10
181.38418223159425
 20
745.11136892671379
 11
181.38460276077035
 21
745.11091607198364
  0
LINE
  8
_5-0_
  6
CONTINUOUS
 62
    7
 10
181.38460276077035
 20
745.11091607198364
 11
181.38519730201944
 21
745.11027582908923
  0
LINE
  8
_5-0_
  6
CONTINUOUS
 62
    7
 10
181.38519730201944
 20
745.11027582908923
 11
181.38587884930496
 21
745.1095418921127
  0
LINE
  8
_5-0_
  6
CONTINUOUS
 62
    7
 10
181.38587884930496
 20
745.1095418921127
 11
181.38656039659054
 21
745.10880795513629
  0
LINE
  8
_5-0_
  6
CONTINUOUS
 62
    7
 10
181.38656039659054
 20
745.10880795513629
 11
181.38715493783963
 21
745.10816771224199
  0
LINE
  8
_5-0_
  6
CONTINUOUS
 62
    7
 10
181.38715493783963
 20
745.10816771224199
 11
181.38757546701584
 21
745.10771485751184
  0
LINE
  8
_5-0_
  6
CONTINUOUS
 62
    7
 10
181.38757546701584
 20
745.10771485751184
 11
181.38773497808268
 21
745.10754308502794
  0
LINE
  8
_5-0_
  6
CONTINUOUS
 62
    7
 10
181.28922335212218
 20
745.75421881103796
 11
181.28922335212218
 21
746.05252994158172
  0
LINE
  8
_5-0_
  6
CONTINUOUS
 62
    7
 10
181.28922335212218
 20
746.05252994158172
 11
181.28922335212218
 21
746.35084107212549
  0
LINE
  8
_5-0_
  6
CONTINUOUS
 62
    7
 10
181.28922335212218
 20
746.35084107212549
 11
181.28922335212218
 21
746.64915220266937
  0
LINE
  8
_5-0_
  6
CONTINUOUS
 62
    7
 10
181.28922335212218
 20
746.64915220266937
 11
181.28922335212218
 21
746.94746333321314
  0
LINE
  8
_5-0_
  6
CONTINUOUS
 62
    7
 10
181.28922335212218
 20
746.94746333321314
 11
181.28922335212218
 21
747.2457744637569
  0
LINE
  8
_5-0_
  6
CONTINUOUS
 62
    7
 10
181.28922335212218
 20
747.2457744637569
 11
181.28922335212218
 21
747.54408559430078
  0
LINE
  8
_5-0_
  6
CONTINUOUS
 62
    7
 10
181.28922335212218
 20
747.54408559430078
 11
181.28922335212218
 21
747.84239672484455
  0
LINE
  8
_5-0_
  6
CONTINUOUS
 62
    7
 10
181.28922335212218
 20
747.84239672484455
 11
181.28922335212218
 21
748.14070785538831
  0
LINE
  8
_5-0_
  6
CONTINUOUS
 62
    7
 10
181.39897359068968
 20
748.13134967848612
 11
181.28922335212218
 21
748.14070785538831
  0
LINE
  8
_5-0_
  6
CONTINUOUS
 62
    7
 10
181.28922335212218
 20
748.14070785538831
 11
181.28961679747079
 21
748.14067501333989
  0
LINE
  8
_5-0_
  6
CONTINUOUS
 62
    7
 10
181.28961679747079
 20
748.14067501333989
 11
181.29065406248066
 21
748.1405884297576
  0
LINE
  8
_5-0_
  6
CONTINUOUS
 62
    7
 10
181.29065406248066
 20
748.1405884297576
 11
181.29212054059815
 21
748.14046601848599
  0
LINE
  8
_5-0_
  6
CONTINUOUS
 62
    7
 10
181.29212054059815
 20
748.14046601848599
 11
181.29380162526942
 21
748.14032569336985
  0
LINE
  8
_5-0_
  6
CONTINUOUS
 62
    7
 10
181.29380162526942
 20
748.14032569336985
 11
181.29548270994064
 21
748.1401853682537
  0
LINE
  8
_5-0_
  6
CONTINUOUS
 62
    7
 10
181.29548270994064
 20
748.1401853682537
 11
181.29694918805811
 21
748.14006295698221
  0
LINE
  8
_5-0_
  6
CONTINUOUS
 62
    7
 10
181.29694918805811
 20
748.14006295698221
 11
181.29798645306806
 21
748.1399763733998
  0
LINE
  8
_5-0_
  6
CONTINUOUS
 62
    7
 10
181.29798645306806
 20
748.1399763733998
 11
181.29837989841661
 21
748.13994353135149
  0
LINE
  8
_5-0_
  6
CONTINUOUS
 62
    7
 10
181.29837989841661
 20
748.13994353135149
 11
181.30605893953771
 21
748.13929739017476
  0
LINE
  8
_5-0_
  6
CONTINUOUS
 62
    7
 10
181.30605893953771
 20
748.13929739017476
 11
181.31701670455556
 21
748.13836872087631
  0
LINE
  8
_5-0_
  6
CONTINUOUS
 62
    7
 10
181.31701670455556
 20
748.13836872087631
 11
181.33015183667212
 21
748.13725163859385
  0
LINE
  8
_5-0_
  6
CONTINUOUS
 62
    7
 10
181.33015183667212
 20
748.13725163859385
 11
181.34436297908962
 21
748.1360402584653
  0
LINE
  8
_5-0_
  6
CONTINUOUS
 62
    7
 10
181.34436297908962
 20
748.1360402584653
 11
181.35854877501004
 21
748.13482869562858
  0
LINE
  8
_5-0_
  6
CONTINUOUS
 62
    7
 10
181.35854877501004
 20
748.13482869562858
 11
181.37160786763553
 21
748.13371106522152
  0
LINE
  8
_5-0_
  6
CONTINUOUS
 62
    7
 10
181.37160786763553
 20
748.13371106522152
 11
181.38243890016824
 21
748.13278148238192
  0
LINE
  8
_5-0_
  6
CONTINUOUS
 62
    7
 10
181.38243890016824
 20
748.13278148238192
 11
181.38994051581022
 21
748.13213406224804
  0
LINE
  8
_5-0_
  6
CONTINUOUS
 62
    7
 10
181.38994051581022
 20
748.13213406224804
 11
181.39032865574643
 21
748.1321003582583
  0
LINE
  8
_5-0_
  6
CONTINUOUS
 62
    7
 10
181.39032865574643
 20
748.1321003582583
 11
181.39135193376012
 21
748.1320115022852
  0
LINE
  8
_5-0_
  6
CONTINUOUS
 62
    7
 10
181.39135193376012
 20
748.1320115022852
 11
181.39279863715871
 21
748.13188587832337
  0
LINE
  8
_5-0_
  6
CONTINUOUS
 62
    7
 10
181.39279863715871
 20
748.13188587832337
 11
181.39445705324994
 21
748.13174187036702
  0
LINE
  8
_5-0_
  6
CONTINUOUS
 62
    7
 10
181.39445705324994
 20
748.13174187036702
 11
181.39611546934105
 21
748.13159786241067
  0
LINE
  8
_5-0_
  6
CONTINUOUS
 62
    7
 10
181.39611546934105
 20
748.13159786241067
 11
181.39756217273975
 21
748.13147223844896
  0
LINE
  8
_5-0_
  6
CONTINUOUS
 62
    7
 10
181.39756217273975
 20
748.13147223844896
 11
181.39858545075342
 21
748.13138338247586
  0
LINE
  8
_5-0_
  6
CONTINUOUS
 62
    7
 10
181.39858545075342
 20
748.13138338247586
 11
181.39897359068968
 21
748.13134967848612
  0
LINE
  8
_5-0_
  6
CONTINUOUS
 62
    7
 10
181.39897359068868
 20
748.1313496784835
 11
181.28922335212218
 21
748.38966334009001
  0
LINE
  8
_5-0_
  6
CONTINUOUS
 62
    7
 10
181.28922335212218
 20
748.38966334009001
 11
181.28935385117188
 21
748.38035711036912
  0
LINE
  8
_5-0_
  6
CONTINUOUS
 62
    7
 10
181.28935385117188
 20
748.38035711036912
 11
181.28978329437592
 21
748.37081818108777
  0
LINE
  8
_5-0_
  6
CONTINUOUS
 62
    7
 10
181.28978329437592
 20
748.37081818108777
 11
181.29056860081661
 21
748.36076742806426
  0
LINE
  8
_5-0_
  6
CONTINUOUS
 62
    7
 10
181.29056860081661
 20
748.36076742806426
 11
181.29176668957626
 21
748.34992572711758
  0
LINE
  8
_5-0_
  6
CONTINUOUS
 62
    7
 10
181.29176668957626
 20
748.34992572711758
 11
181.29343447973696
 21
748.3380139540659
  0
LINE
  8
_5-0_
  6
CONTINUOUS
 62
    7
 10
181.29343447973696
 20
748.3380139540659
 11
181.29562889038098
 21
748.32475298472787
  0
LINE
  8
_5-0_
  6
CONTINUOUS
 62
    7
 10
181.29562889038098
 20
748.32475298472787
 11
181.29840684059076
 21
748.30986369492211
  0
LINE
  8
_5-0_
  6
CONTINUOUS
 62
    7
 10
181.29840684059076
 20
748.30986369492211
 11
181.30182524944837
 21
748.29306696046706
  0
LINE
  8
_5-0_
  6
CONTINUOUS
 62
    7
 10
181.30182524944837
 20
748.29306696046706
 11
181.3051768705769
 21
748.28335919871415
  0
LINE
  8
_5-0_
  6
CONTINUOUS
 62
    7
 10
181.3051768705769
 20
748.28335919871415
 11
181.30939632866932
 21
748.27223719421056
  0
LINE
  8
_5-0_
  6
CONTINUOUS
 62
    7
 10
181.30939632866932
 20
748.27223719421056
 11
181.31425811368183
 21
748.26021540567808
  0
LINE
  8
_5-0_
  6
CONTINUOUS
 62
    7
 10
181.31425811368183
 20
748.26021540567808
 11
181.31953671557108
 21
748.24780829183851
  0
LINE
  8
_5-0_
  6
CONTINUOUS
 62
    7
 10
181.31953671557108
 20
748.24780829183851
 11
181.32500662429322
 21
748.23553031141444
  0
LINE
  8
_5-0_
  6
CONTINUOUS
 62
    7
 10
181.32500662429322
 20
748.23553031141444
 11
181.33044232980501
 21
748.22389592312743
  0
LINE
  8
_5-0_
  6
CONTINUOUS
 62
    7
 10
181.33044232980501
 20
748.22389592312743
 11
181.33561832206283
 21
748.21341958569997
  0
LINE
  8
_5-0_
  6
CONTINUOUS
 62
    7
 10
181.33561832206283
 20
748.21341958569997
 11
181.34030909102313
 21
748.20461575785407
  0
LINE
  8
_5-0_
  6
CONTINUOUS
 62
    7
 10
181.34030909102313
 20
748.20461575785407
 11
181.34994833320923
 21
748.19089099316056
  0
LINE
  8
_5-0_
  6
CONTINUOUS
 62
    7
 10
181.34994833320923
 20
748.19089099316056
 11
181.35861991599313
 21
748.17892977852239
  0
LINE
  8
_5-0_
  6
CONTINUOUS
 62
    7
 10
181.35861991599313
 20
748.17892977852239
 11
181.36647821482904
 21
748.16850269673637
  0
LINE
  8
_5-0_
  6
CONTINUOUS
 62
    7
 10
181.36647821482904
 20
748.16850269673637
 11
181.37367760517137
 21
748.15938033059933
  0
LINE
  8
_5-0_
  6
CONTINUOUS
 62
    7
 10
181.37367760517137
 20
748.15938033059933
 11
181.38037246247416
 21
748.15133326290857
  0
LINE
  8
_5-0_
  6
CONTINUOUS
 62
    7
 10
181.38037246247416
 20
748.15133326290857
 11
181.38671716219187
 21
748.14413207646101
  0
LINE
  8
_5-0_
  6
CONTINUOUS
 62
    7
 10
181.38671716219187
 20
748.14413207646101
 11
181.39286607977866
 21
748.13754735405371
  0
LINE
  8
_5-0_
  6
CONTINUOUS
 62
    7
 10
181.39286607977866
 20
748.13754735405371
 11
181.39897359068868
 21
748.1313496784835
  0
LINE
  8
_5-0_
  6
CONTINUOUS
 62
    7
 10
181.28922335212218
 20
748.7896319644949
 11
181.28922335212218
 21
749.09584872601044
  0
LINE
  8
_5-0_
  6
CONTINUOUS
 62
    7
 10
181.28922335212218
 20
749.09584872601044
 11
181.28922335212218
 21
749.40206548752599
  0
LINE
  8
_5-0_
  6
CONTINUOUS
 62
    7
 10
181.28922335212218
 20
749.40206548752599
 11
181.28922335212218
 21
749.70828224904142
  0
LINE
  8
_5-0_
  6
CONTINUOUS
 62
    7
 10
181.28922335212218
 20
749.70828224904142
 11
181.28922335212218
 21
750.01449901055685
  0
LINE
  8
_5-0_
  6
CONTINUOUS
 62
    7
 10
181.28922335212218
 20
750.01449901055685
 11
181.28922335212218
 21
750.32071577207239
  0
LINE
  8
_5-0_
  6
CONTINUOUS
 62
    7
 10
181.28922335212218
 20
750.32071577207239
 11
181.28922335212218
 21
750.62693253358793
  0
LINE
  8
_5-0_
  6
CONTINUOUS
 62
    7
 10
181.28922335212218
 20
750.62693253358793
 11
181.28922335212218
 21
750.93314929510325
  0
LINE
  8
_5-0_
  6
CONTINUOUS
 62
    7
 10
181.28922335212218
 20
750.93314929510325
 11
181.28922335212218
 21
751.23936605661868
  0
LINE
  8
_5-0_
  6
CONTINUOUS
 62
    7
 10
181.39895963906378
 20
751.23001442728355
 11
181.28922335212224
 21
751.23936605661868
  0
LINE
  8
_5-0_
  6
CONTINUOUS
 62
    7
 10
181.28922335212224
 20
751.23936605661868
 11
181.28961674694858
 21
751.23933324025415
  0
LINE
  8
_5-0_
  6
CONTINUOUS
 62
    7
 10
181.28961674694858
 20
751.23933324025415
 11
181.29065387876324
 21
751.23924672438363
  0
LINE
  8
_5-0_
  6
CONTINUOUS
 62
    7
 10
181.29065387876324
 20
751.23924672438363
 11
181.29212016857025
 21
751.23912440884283
  0
LINE
  8
_5-0_
  6
CONTINUOUS
 62
    7
 10
181.29212016857025
 20
751.23912440884283
 11
181.29380103737347
 21
751.23898419346665
  0
LINE
  8
_5-0_
  6
CONTINUOUS
 62
    7
 10
181.29380103737347
 20
751.23898419346665
 11
181.29548190617663
 21
751.23884397809036
  0
LINE
  8
_5-0_
  6
CONTINUOUS
 62
    7
 10
181.29548190617663
 20
751.23884397809036
 11
181.2969481959837
 21
751.23872166254944
  0
LINE
  8
_5-0_
  6
CONTINUOUS
 62
    7
 10
181.2969481959837
 20
751.23872166254944
 11
181.29798532779844
 21
751.23863514667903
  0
LINE
  8
_5-0_
  6
CONTINUOUS
 62
    7
 10
181.29798532779844
 20
751.23863514667903
 11
181.2983787226247
 21
751.23860233031439
  0
LINE
  8
_5-0_
  6
CONTINUOUS
 62
    7
 10
181.2983787226247
 20
751.23860233031439
 11
181.30605677269642
 21
751.23795667643788
  0
LINE
  8
_5-0_
  6
CONTINUOUS
 62
    7
 10
181.30605677269642
 20
751.23795667643788
 11
181.31701313396184
 21
751.23702868275609
  0
LINE
  8
_5-0_
  6
CONTINUOUS
 62
    7
 10
181.31701313396184
 20
751.23702868275609
 11
181.3301465896734
 21
751.23591239828579
  0
LINE
  8
_5-0_
  6
CONTINUOUS
 62
    7
 10
181.3301465896734
 20
751.23591239828579
 11
181.34435592308378
 21
751.23470187204384
  0
LINE
  8
_5-0_
  6
CONTINUOUS
 62
    7
 10
181.34435592308378
 20
751.23470187204384
 11
181.35853991744506
 21
751.23349115304677
  0
LINE
  8
_5-0_
  6
CONTINUOUS
 62
    7
 10
181.35853991744506
 20
751.23349115304677
 11
181.37159735601017
 21
751.23237429031155
  0
LINE
  8
_5-0_
  6
CONTINUOUS
 62
    7
 10
181.37159735601017
 20
751.23237429031155
 11
181.38242702203121
 21
751.23144533285483
  0
LINE
  8
_5-0_
  6
CONTINUOUS
 62
    7
 10
181.38242702203121
 20
751.23144533285483
 11
181.38992769876097
 21
751.23079832969347
  0
LINE
  8
_5-0_
  6
CONTINUOUS
 62
    7
 10
181.38992769876097
 20
751.23079832969347
 11
181.39031578994582
 21
751.23076464638666
  0
LINE
  8
_5-0_
  6
CONTINUOUS
 62
    7
 10
181.39031578994582
 20
751.23076464638666
 11
181.39133893943324
 21
751.23067584494197
  0
LINE
  8
_5-0_
  6
CONTINUOUS
 62
    7
 10
181.39133893943324
 20
751.23067584494197
 11
181.39278546112246
 21
751.23055029807165
  0
LINE
  8
_5-0_
  6
CONTINUOUS
 62
    7
 10
181.39278546112246
 20
751.23055029807165
 11
181.39444366891234
 21
751.2304063784884
  0
LINE
  8
_5-0_
  6
CONTINUOUS
 62
    7
 10
181.39444366891234
 20
751.2304063784884
 11
181.39610187670235
 21
751.23026245890537
  0
LINE
  8
_5-0_
  6
CONTINUOUS
 62
    7
 10
181.39610187670235
 20
751.23026245890537
 11
181.39754839839142
 21
751.23013691203505
  0
LINE
  8
_5-0_
  6
CONTINUOUS
 62
    7
 10
181.39754839839142
 20
751.23013691203505
 11
181.39857154787882
 21
751.23004811059013
  0
LINE
  8
_5-0_
  6
CONTINUOUS
 62
    7
 10
181.39857154787882
 20
751.23004811059013
 11
181.39895963906378
 21
751.23001442728355
  0
LINE
  8
_5-0_
  6
CONTINUOUS
 62
    7
 10
181.39895963906284
 20
751.23001442728093
 11
181.28922335212224
 21
751.48831426757738
  0
LINE
  8
_5-0_
  6
CONTINUOUS
 62
    7
 10
181.28922335212224
 20
751.48831426757738
 11
181.28935383281265
 21
751.47900869713021
  0
LINE
  8
_5-0_
  6
CONTINUOUS
 62
    7
 10
181.28935383281265
 20
751.47900869713021
 11
181.28978321560913
 21
751.46947043965406
  0
LINE
  8
_5-0_
  6
CONTINUOUS
 62
    7
 10
181.28978321560913
 20
751.46947043965406
 11
181.29056841160008
 21
751.45942039002603
  0
LINE
  8
_5-0_
  6
CONTINUOUS
 62
    7
 10
181.29056841160008
 20
751.45942039002603
 11
181.29176633187356
 21
751.44857944312378
  0
LINE
  8
_5-0_
  6
CONTINUOUS
 62
    7
 10
181.29176633187356
 20
751.44857944312378
 11
181.29343388751778
 21
751.43666849382475
  0
LINE
  8
_5-0_
  6
CONTINUOUS
 62
    7
 10
181.29343388751778
 20
751.43666849382475
 11
181.29562798962084
 21
751.42340843700595
  0
LINE
  8
_5-0_
  6
CONTINUOUS
 62
    7
 10
181.29562798962084
 20
751.42340843700595
 11
181.29840554927108
 21
751.40852016754536
  0
LINE
  8
_5-0_
  6
CONTINUOUS
 62
    7
 10
181.29840554927108
 20
751.40852016754536
 11
181.30182347755658
 21
751.3917245803201
  0
LINE
  8
_5-0_
  6
CONTINUOUS
 62
    7
 10
181.30182347755658
 20
751.3917245803201
 11
181.30517463671714
 21
751.38201742092122
  0
LINE
  8
_5-0_
  6
CONTINUOUS
 62
    7
 10
181.30517463671714
 20
751.38201742092122
 11
181.30939352370683
 21
751.3708960766678
  0
LINE
  8
_5-0_
  6
CONTINUOUS
 62
    7
 10
181.30939352370683
 20
751.3708960766678
 11
181.31425465765076
 21
751.3588749797367
  0
LINE
  8
_5-0_
  6
CONTINUOUS
 62
    7
 10
181.31425465765076
 20
751.3588749797367
 11
181.31953255767405
 21
751.34646856230461
  0
LINE
  8
_5-0_
  6
CONTINUOUS
 62
    7
 10
181.31953255767405
 20
751.34646856230461
 11
181.32500174290186
 21
751.33419125654871
  0
LINE
  8
_5-0_
  6
CONTINUOUS
 62
    7
 10
181.32500174290186
 20
751.33419125654871
 11
181.33043673245936
 21
751.32255749464571
  0
LINE
  8
_5-0_
  6
CONTINUOUS
 62
    7
 10
181.33043673245936
 20
751.32255749464571
 11
181.33561204547158
 21
751.31208170877267
  0
LINE
  8
_5-0_
  6
CONTINUOUS
 62
    7
 10
181.33561204547158
 20
751.31208170877267
 11
181.34030220106368
 21
751.3032783311063
  0
LINE
  8
_5-0_
  6
CONTINUOUS
 62
    7
 10
181.34030220106368
 20
751.3032783311063
 11
181.34994019376123
 21
751.28955414977554
  0
LINE
  8
_5-0_
  6
CONTINUOUS
 62
    7
 10
181.34994019376123
 20
751.28955414977554
 11
181.35861068386163
 21
751.277593393085
  0
LINE
  8
_5-0_
  6
CONTINUOUS
 62
    7
 10
181.35861068386163
 20
751.277593393085
 11
181.36646802081367
 21
751.26716666205073
  0
LINE
  8
_5-0_
  6
CONTINUOUS
 62
    7
 10
181.36646802081367
 20
751.26716666205073
 11
181.37366655406638
 21
751.25804455768855
  0
LINE
  8
_5-0_
  6
CONTINUOUS
 62
    7
 10
181.37366655406638
 20
751.25804455768855
 11
181.3803606330687
 21
751.24999768101463
  0
LINE
  8
_5-0_
  6
CONTINUOUS
 62
    7
 10
181.3803606330687
 20
751.24999768101463
 11
181.38670460726956
 21
751.2427966330448
  0
LINE
  8
_5-0_
  6
CONTINUOUS
 62
    7
 10
181.38670460726956
 20
751.2427966330448
 11
181.39285282611795
 21
751.236212014795
  0
LINE
  8
_5-0_
  6
CONTINUOUS
 62
    7
 10
181.39285282611795
 20
751.236212014795
 11
181.39895963906284
 21
751.23001442728093
  0
LINE
  8
_5-0_
  6
CONTINUOUS
 62
    7
 10
181.38773497808023
 20
745.1075430850326
 11
181.70602915953418
 21
744.97482354245096
  0
LINE
  8
_5-0_
  6
CONTINUOUS
 62
    7
 10
181.70602915953418
 20
744.97482354245096
 11
181.70543220710115
 21
744.97482354245096
  0
LINE
  8
_5-0_
  6
CONTINUOUS
 62
    7
 10
181.70543220710115
 20
744.97482354245096
 11
181.70385842341418
 21
744.97482354245096
  0
LINE
  8
_5-0_
  6
CONTINUOUS
 62
    7
 10
181.70385842341418
 20
744.97482354245096
 11
181.70163341889116
 21
744.97482354245096
  0
LINE
  8
_5-0_
  6
CONTINUOUS
 62
    7
 10
181.70163341889116
 20
744.97482354245096
 11
181.69908280395006
 21
744.97482354245096
  0
LINE
  8
_5-0_
  6
CONTINUOUS
 62
    7
 10
181.69908280395006
 20
744.97482354245096
 11
181.69653218900905
 21
744.97482354245096
  0
LINE
  8
_5-0_
  6
CONTINUOUS
 62
    7
 10
181.69653218900905
 20
744.97482354245096
 11
181.69430718448604
 21
744.97482354245096
  0
LINE
  8
_5-0_
  6
CONTINUOUS
 62
    7
 10
181.69430718448604
 20
744.97482354245096
 11
181.69273340079906
 21
744.97482354245096
  0
LINE
  8
_5-0_
  6
CONTINUOUS
 62
    7
 10
181.69273340079906
 20
744.97482354245096
 11
181.69213644836603
 21
744.97482354245096
  0
LINE
  8
_5-0_
  6
CONTINUOUS
 62
    7
 10
181.69213644836603
 20
744.97482354245096
 11
181.6783937529469
 21
744.97533585060478
  0
LINE
  8
_5-0_
  6
CONTINUOUS
 62
    7
 10
181.6783937529469
 20
744.97533585060478
 11
181.66311388897967
 21
744.97673164790115
  0
LINE
  8
_5-0_
  6
CONTINUOUS
 62
    7
 10
181.66311388897967
 20
744.97673164790115
 11
181.64704321858665
 21
744.97879924359199
  0
LINE
  8
_5-0_
  6
CONTINUOUS
 62
    7
 10
181.64704321858665
 20
744.97879924359199
 11
181.63092810389026
 21
744.98132694692958
  0
LINE
  8
_5-0_
  6
CONTINUOUS
 62
    7
 10
181.63092810389026
 20
744.98132694692958
 11
181.61551490701265
 21
744.98410306716607
  0
LINE
  8
_5-0_
  6
CONTINUOUS
 62
    7
 10
181.61551490701265
 20
744.98410306716607
 11
181.60154999007625
 21
744.98691591355384
  0
LINE
  8
_5-0_
  6
CONTINUOUS
 62
    7
 10
181.60154999007625
 20
744.98691591355384
 11
181.58977971520335
 21
744.98955379534482
  0
LINE
  8
_5-0_
  6
CONTINUOUS
 62
    7
 10
181.58977971520335
 20
744.98955379534482
 11
181.58095044451636
 21
744.99180502179115
  0
LINE
  8
_5-0_
  6
CONTINUOUS
 62
    7
 10
181.58095044451636
 20
744.99180502179115
 11
181.57112548338475
 21
744.99457900141908
  0
LINE
  8
_5-0_
  6
CONTINUOUS
 62
    7
 10
181.57112548338475
 20
744.99457900141908
 11
181.55973095636733
 21
744.99802021155801
  0
LINE
  8
_5-0_
  6
CONTINUOUS
 62
    7
 10
181.55973095636733
 20
744.99802021155801
 11
181.54678672027046
 21
745.00238256230978
  0
LINE
  8
_5-0_
  6
CONTINUOUS
 62
    7
 10
181.54678672027046
 20
745.00238256230978
 11
181.53231263189986
 21
745.00791996377529
  0
LINE
  8
_5-0_
  6
CONTINUOUS
 62
    7
 10
181.53231263189986
 20
745.00791996377529
 11
181.51632854806181
 21
745.01488632605674
  0
LINE
  8
_5-0_
  6
CONTINUOUS
 62
    7
 10
181.51632854806181
 20
745.01488632605674
 11
181.49885432556226
 21
745.02353555925527
  0
LINE
  8
_5-0_
  6
CONTINUOUS
 62
    7
 10
181.49885432556226
 20
745.02353555925527
 11
181.47990982120731
 21
745.03412157347248
  0
LINE
  8
_5-0_
  6
CONTINUOUS
 62
    7
 10
181.47990982120731
 20
745.03412157347248
 11
181.45951489180328
 21
745.04689827880998
  0
LINE
  8
_5-0_
  6
CONTINUOUS
 62
    7
 10
181.45951489180328
 20
745.04689827880998
 11
181.44742110037143
 21
745.05500539264756
  0
LINE
  8
_5-0_
  6
CONTINUOUS
 62
    7
 10
181.44742110037143
 20
745.05500539264756
 11
181.43730815953853
 21
745.06204189722666
  0
LINE
  8
_5-0_
  6
CONTINUOUS
 62
    7
 10
181.43730815953853
 20
745.06204189722666
 11
181.42882529644402
 21
745.06825961695017
  0
LINE
  8
_5-0_
  6
CONTINUOUS
 62
    7
 10
181.42882529644402
 20
745.06825961695017
 11
181.4216217382274
 21
745.07391037622085
  0
LINE
  8
_5-0_
  6
CONTINUOUS
 62
    7
 10
181.4216217382274
 20
745.07391037622085
 11
181.41534671202805
 21
745.07924599944181
  0
LINE
  8
_5-0_
  6
CONTINUOUS
 62
    7
 10
181.41534671202805
 20
745.07924599944181
 11
181.40964944498535
 21
745.08451831101581
  0
LINE
  8
_5-0_
  6
CONTINUOUS
 62
    7
 10
181.40964944498535
 20
745.08451831101581
 11
181.40417916423866
 21
745.08997913534586
  0
LINE
  8
_5-0_
  6
CONTINUOUS
 62
    7
 10
181.40417916423866
 20
745.08997913534586
 11
181.39858509692743
 21
745.09588029683516
  0
LINE
  8
_5-0_
  6
CONTINUOUS
 62
    7
 10
181.39858509692743
 20
745.09588029683516
 11
181.39811888088326
 21
745.09638143226539
  0
LINE
  8
_5-0_
  6
CONTINUOUS
 62
    7
 10
181.39811888088326
 20
745.09638143226539
 11
181.39688976585751
 21
745.09770260749087
  0
LINE
  8
_5-0_
  6
CONTINUOUS
 62
    7
 10
181.39688976585751
 20
745.09770260749087
 11
181.39515205151093
 21
745.0995704759132
  0
LINE
  8
_5-0_
  6
CONTINUOUS
 62
    7
 10
181.39515205151093
 20
745.0995704759132
 11
181.3931600375038
 21
745.10171169093383
  0
LINE
  8
_5-0_
  6
CONTINUOUS
 62
    7
 10
181.3931600375038
 20
745.10171169093383
 11
181.39116802349676
 21
745.10385290595445
  0
LINE
  8
_5-0_
  6
CONTINUOUS
 62
    7
 10
181.39116802349676
 20
745.10385290595445
 11
181.38943030915016
 21
745.10572077437678
  0
LINE
  8
_5-0_
  6
CONTINUOUS
 62
    7
 10
181.38943030915016
 20
745.10572077437678
 11
181.38820119412443
 21
745.10704194960226
  0
LINE
  8
_5-0_
  6
CONTINUOUS
 62
    7
 10
181.38820119412443
 20
745.10704194960226
 11
181.38773497808023
 21
745.1075430850326
  0
LINE
  8
_5-0_
  6
CONTINUOUS
 62
    7
 10
177.99648058285968
 20
743.77330583587514
 11
178.00628570854224
 21
743.75632303523219
  0
LINE
  8
_5-0_
  6
CONTINUOUS
 62
    7
 10
178.00628570854224
 20
743.75632303523219
 11
178.03213558534173
 21
743.71155019717344
  0
LINE
  8
_5-0_
  6
CONTINUOUS
 62
    7
 10
178.03213558534173
 20
743.71155019717344
 11
178.0686819628859
 21
743.64825066750439
  0
LINE
  8
_5-0_
  6
CONTINUOUS
 62
    7
 10
178.0686819628859
 20
743.64825066750439
 11
178.11057659080257
 21
743.57568779203018
  0
LINE
  8
_5-0_
  6
CONTINUOUS
 62
    7
 10
178.11057659080257
 20
743.57568779203018
 11
178.15247121871906
 21
743.50312491655586
  0
LINE
  8
_5-0_
  6
CONTINUOUS
 62
    7
 10
178.15247121871906
 20
743.50312491655586
 11
178.18901759626328
 21
743.43982538688681
  0
LINE
  8
_5-0_
  6
CONTINUOUS
 62
    7
 10
178.18901759626328
 20
743.43982538688681
 11
178.21486747306272
 21
743.39505254882829
  0
LINE
  8
_5-0_
  6
CONTINUOUS
 62
    7
 10
178.21486747306272
 20
743.39505254882829
 11
178.22467259874537
 21
743.37806974818534
  0
LINE
  8
_5-0_
  6
CONTINUOUS
 62
    7
 10
178.22467259874537
 20
743.37806974818534
 11
178.28172060271683
 21
743.27926072626281
  0
LINE
  8
_5-0_
  6
CONTINUOUS
 62
    7
 10
178.28172060271683
 20
743.27926072626281
 11
178.33876860668823
 21
743.1804517043405
  0
LINE
  8
_5-0_
  6
CONTINUOUS
 62
    7
 10
178.33876860668823
 20
743.1804517043405
 11
178.39581661065978
 21
743.08164268241796
  0
LINE
  8
_5-0_
  6
CONTINUOUS
 62
    7
 10
178.39581661065978
 20
743.08164268241796
 11
178.45286461463118
 21
742.98283366049543
  0
LINE
  8
_5-0_
  6
CONTINUOUS
 62
    7
 10
178.45286461463118
 20
742.98283366049543
 11
178.50991261860258
 21
742.88402463857301
  0
LINE
  8
_5-0_
  6
CONTINUOUS
 62
    7
 10
178.50991261860258
 20
742.88402463857301
 11
178.56696062257407
 21
742.78521561665048
  0
LINE
  8
_5-0_
  6
CONTINUOUS
 62
    7
 10
178.56696062257407
 20
742.78521561665048
 11
178.62400862654553
 21
742.68640659472794
  0
LINE
  8
_5-0_
  6
CONTINUOUS
 62
    7
 10
178.62400862654553
 20
742.68640659472794
 11
178.68105663051708
 21
742.58759757280541
  0
LINE
  8
_5-0_
  6
CONTINUOUS
 62
    7
 10
178.68105663051708
 20
742.58759757280541
 11
178.69086175619964
 21
742.57061477216257
  0
LINE
  8
_5-0_
  6
CONTINUOUS
 62
    7
 10
178.69086175619964
 20
742.57061477216257
 11
178.71671163299914
 21
742.52584193410382
  0
LINE
  8
_5-0_
  6
CONTINUOUS
 62
    7
 10
178.71671163299914
 20
742.52584193410382
 11
178.75325801054345
 21
742.46254240443477
  0
LINE
  8
_5-0_
  6
CONTINUOUS
 62
    7
 10
178.75325801054345
 20
742.46254240443477
 11
178.79515263846002
 21
742.38997952896045
  0
LINE
  8
_5-0_
  6
CONTINUOUS
 62
    7
 10
178.79515263846002
 20
742.38997952896045
 11
178.83704726637654
 21
742.31741665348613
  0
LINE
  8
_5-0_
  6
CONTINUOUS
 62
    7
 10
178.83704726637654
 20
742.31741665348613
 11
178.87359364392083
 21
742.25411712381685
  0
LINE
  8
_5-0_
  6
CONTINUOUS
 62
    7
 10
178.87359364392083
 20
742.25411712381685
 11
178.89944352072035
 21
742.20934428575833
  0
LINE
  8
_5-0_
  6
CONTINUOUS
 62
    7
 10
178.89944352072035
 20
742.20934428575833
 11
178.90924864640297
 21
742.19236148511527
  0
LINE
  8
_5-0_
  6
CONTINUOUS
 62
    7
 10
181.65577668877816
 20
742.19236148511538
 11
181.66558181446078
 21
742.20934428575833
  0
LINE
  8
_5-0_
  6
CONTINUOUS
 62
    7
 10
181.66558181446078
 20
742.20934428575833
 11
181.69143169126031
 21
742.25411712381697
  0
LINE
  8
_5-0_
  6
CONTINUOUS
 62
    7
 10
181.69143169126031
 20
742.25411712381697
 11
181.72797806880453
 21
742.31741665348613
  0
LINE
  8
_5-0_
  6
CONTINUOUS
 62
    7
 10
181.72797806880453
 20
742.31741665348613
 11
181.76987269672111
 21
742.38997952896045
  0
LINE
  8
_5-0_
  6
CONTINUOUS
 62
    7
 10
181.76987269672111
 20
742.38997952896045
 11
181.81176732463769
 21
742.46254240443477
  0
LINE
  8
_5-0_
  6
CONTINUOUS
 62
    7
 10
181.81176732463769
 20
742.46254240443477
 11
181.84831370218191
 21
742.52584193410394
  0
LINE
  8
_5-0_
  6
CONTINUOUS
 62
    7
 10
181.84831370218191
 20
742.52584193410394
 11
181.87416357898158
 21
742.57061477216257
  0
LINE
  8
_5-0_
  6
CONTINUOUS
 62
    7
 10
181.87416357898158
 20
742.57061477216257
 11
181.88396870466414
 21
742.58759757280541
  0
LINE
  8
_5-0_
  6
CONTINUOUS
 62
    7
 10
181.88396870466414
 20
742.58759757280541
 11
181.9410167086356
 21
742.68640659472794
  0
LINE
  8
_5-0_
  6
CONTINUOUS
 62
    7
 10
181.9410167086356
 20
742.68640659472794
 11
181.998064712607
 21
742.78521561665059
  0
LINE
  8
_5-0_
  6
CONTINUOUS
 62
    7
 10
181.998064712607
 20
742.78521561665059
 11
182.05511271657855
 21
742.88402463857301
  0
LINE
  8
_5-0_
  6
CONTINUOUS
 62
    7
 10
182.05511271657855
 20
742.88402463857301
 11
182.11216072054995
 21
742.98283366049543
  0
LINE
  8
_5-0_
  6
CONTINUOUS
 62
    7
 10
182.11216072054995
 20
742.98283366049543
 11
182.16920872452141
 21
743.08164268241796
  0
LINE
  8
_5-0_
  6
CONTINUOUS
 62
    7
 10
182.16920872452141
 20
743.08164268241796
 11
182.22625672849296
 21
743.1804517043405
  0
LINE
  8
_5-0_
  6
CONTINUOUS
 62
    7
 10
182.22625672849296
 20
743.1804517043405
 11
182.2833047324643
 21
743.27926072626292
  0
LINE
  8
_5-0_
  6
CONTINUOUS
 62
    7
 10
182.2833047324643
 20
743.27926072626292
 11
182.3403527364357
 21
743.37806974818534
  0
LINE
  8
_5-0_
  6
CONTINUOUS
 62
    7
 10
182.3403527364357
 20
743.37806974818534
 11
182.35015786211832
 21
743.39505254882829
  0
LINE
  8
_5-0_
  6
CONTINUOUS
 62
    7
 10
182.35015786211832
 20
743.39505254882829
 11
182.37600773891791
 21
743.43982538688692
  0
LINE
  8
_5-0_
  6
CONTINUOUS
 62
    7
 10
182.37600773891791
 20
743.43982538688692
 11
182.41255411646216
 21
743.50312491655586
  0
LINE
  8
_5-0_
  6
CONTINUOUS
 62
    7
 10
182.41255411646216
 20
743.50312491655586
 11
182.45444874437865
 21
743.57568779203018
  0
LINE
  8
_5-0_
  6
CONTINUOUS
 62
    7
 10
182.45444874437865
 20
743.57568779203018
 11
182.49634337229514
 21
743.6482506675045
  0
LINE
  8
_5-0_
  6
CONTINUOUS
 62
    7
 10
182.49634337229514
 20
743.6482506675045
 11
182.53288974983931
 21
743.71155019717344
  0
LINE
  8
_5-0_
  6
CONTINUOUS
 62
    7
 10
182.53288974983931
 20
743.71155019717344
 11
182.55873962663884
 21
743.75632303523219
  0
LINE
  8
_5-0_
  6
CONTINUOUS
 62
    7
 10
182.55873962663884
 20
743.75632303523219
 11
182.56854475232146
 21
743.77330583587514
  0
LINE
  8
_5-0_
  6
CONTINUOUS
 62
    7
 10
179.27580193952713
 20
743.77330589034227
 11
180.02956142519324
 21
743.77330589034227
  0
LINE
  8
_5-0_
  6
CONTINUOUS
 62
    7
 10
179.27580193952721
 20
745.75421872761035
 11
179.27580193952721
 21
745.35425024110111
  0
LINE
  8
_5-0_
  6
CONTINUOUS
 62
    7
 10
179.27580193952721
 20
748.78963188106752
 11
179.27580193952721
 21
748.38966339455828
  0
LINE
  8
_5-0_
  6
CONTINUOUS
 62
    7
 10
179.27580193952713
 20
742.19236153958354
 11
180.02956142519324
 21
742.19236153958354
  0
LINE
  8
_5-0_
  6
CONTINUOUS
 62
    7
 10
178.90924860900441
 20
742.19236153958354
 11
179.27580193952713
 21
742.19236153958354
  0
LINE
  8
_5-0_
  6
CONTINUOUS
 62
    7
 10
180.53546361743614
 20
742.19236153958354
 11
181.28922341929103
 21
742.19236153958354
  0
LINE
  8
_5-0_
  6
CONTINUOUS
 62
    7
 10
180.02956142519324
 20
745.41748801513154
 11
180.53546361743614
 21
745.41748801513154
  0
LINE
  8
_5-0_
  6
CONTINUOUS
 62
    7
 10
180.53546361743614
 20
743.77330589034227
 11
181.28922341929103
 21
743.77330589034227
  0
LINE
  8
_5-0_
  6
CONTINUOUS
 62
    7
 10
181.28922341929112
 20
745.35425024110111
 11
181.28922341929112
 21
745.75421872761035
  0
LINE
  8
_5-0_
  6
CONTINUOUS
 62
    7
 10
181.28922341929112
 20
748.38966339455828
 11
181.28922341929112
 21
748.78963188106752
  0
LINE
  8
_5-0_
  6
CONTINUOUS
 62
    7
 10
180.02956142519324
 20
745.92339020737427
 11
180.53546361743614
 21
745.92339020737427
  0
LINE
  8
_5-0_
  6
CONTINUOUS
 62
    7
 10
181.9825125213147
 20
760.92328600331928
 11
181.9825125213147
 21
771.09236153958352
  0
LINE
  8
_5-0_
  6
CONTINUOUS
 62
    7
 10
178.58251252131475
 20
760.92328600331928
 11
178.58251252131475
 21
771.09236153958352
  0
LINE
  8
_5-0_
  6
CONTINUOUS
 62
    7
 10
177.78462096715955
 20
754.2060942984109
 11
177.78462096715955
 21
764.89236153958348
  0
LINE
  8
_5-0_
  6
CONTINUOUS
 62
    7
 10
182.78040511555764
 20
754.20753855088265
 11
182.78040511555764
 21
764.89236153958348
  0
LINE
  8
_5-0_
  6
CONTINUOUS
 62
    7
 10
178.85909779971223
 20
754.20756607381759
 11
180.02956142519324
 21
754.20756607381759
  0
LINE
  8
_5-0_
  6
CONTINUOUS
 62
    7
 10
181.7059278112888
 20
754.20756607381759
 11
180.53546361743628
 21
754.20756607381759
  0
LINE
  8
_5-0_
  6
CONTINUOUS
 62
    7
 10
185.68251252131475
 20
770.69236153958343
 11
184.73251252131476
 21
772.09236153958341
  0
LINE
  8
_5-0_
  6
CONTINUOUS
 62
    7
 10
175.83251252131475
 20
772.09236153958341
 11
184.73251252131476
 21
772.09236153958341
  0
LINE
  8
_5-0_
  6
CONTINUOUS
 62
    7
 10
174.88251252131477
 20
770.69236153958343
 11
175.83251252131475
 21
772.09236153958341
  0
LINE
  8
_5-0_
  6
CONTINUOUS
 62
    7
 10
174.88251252131477
 20
770.69236153958343
 11
185.68251252131475
 21
770.69236153958343
  0
LINE
  8
_5-0_
  6
CONTINUOUS
 62
    7
 10
178.58251252131475
 20
771.09236153958352
 11
181.9825125213147
 21
771.09236153958352
  0
LINE
  8
_5-0_
  6
CONTINUOUS
 62
    7
 10
181.9825125213147
 20
771.09236153958352
 11
183.2325125213147
 21
772.09236153958341
  0
LINE
  8
_5-0_
  6
CONTINUOUS
 62
    7
 10
177.33251252131475
 20
772.09236153958341
 11
178.58251252131475
 21
771.09236153958352
  0
LINE
  8
_5-0_
  6
CONTINUOUS
 62
    7
 10
181.9825125213149
 20
766.33905271605397
 11
181.92264939732132
 21
765.79236153958345
  0
LINE
  8
_5-0_
  6
CONTINUOUS
 62
    7
 10
178.60751252131465
 20
757.34236153958341
 11
178.70751252131464
 21
756.45559683370107
  0
LINE
  8
_5-0_
  6
CONTINUOUS
 62
    7
 10
178.70751252131464
 20
755.55559683370109
 11
178.60751252131465
 21
756.44236153958343
  0
LINE
  8
_5-0_
  6
CONTINUOUS
 62
    7
 10
178.70751252131464
 20
754.65559683370111
 11
178.60751252131465
 21
755.54236153958345
  0
LINE
  8
_5-0_
  6
CONTINUOUS
 62
    7
 10
178.60751252131465
 20
754.64236153958359
 11
178.70751252131464
 21
753.75559683370113
  0
LINE
  8
_5-0_
  6
CONTINUOUS
 62
    7
 10
178.60751252131465
 20
753.7423615395835
 11
178.70751252131464
 21
752.85559683370116
  0
LINE
  8
_5-0_
  6
CONTINUOUS
 62
    7
 10
178.70751252131464
 20
751.95559683370118
 11
178.60751252131465
 21
752.84236153958341
  0
LINE
  8
_5-0_
  6
CONTINUOUS
 62
    7
 10
178.70751252131464
 20
751.0555968337012
 11
178.60751252131465
 21
751.94236153958354
  0
LINE
  8
_5-0_
  6
CONTINUOUS
 62
    7
 10
178.60751252131465
 20
751.04236153958357
 11
178.70751252131464
 21
750.15559683370134
  0
LINE
  8
_5-0_
  6
CONTINUOUS
 62
    7
 10
178.70751252131464
 20
749.25559683370125
 11
178.60751252131465
 21
750.14236153958359
  0
LINE
  8
_5-0_
  6
CONTINUOUS
 62
    7
 10
178.70751252131464
 20
748.35559683370116
 11
178.60751252131465
 21
749.24236153958361
  0
LINE
  8
_5-0_
  6
CONTINUOUS
 62
    7
 10
178.70751252131464
 20
747.45559683370118
 11
178.61878946990515
 21
748.24236153958327
  0
LINE
  8
_5-0_
  6
CONTINUOUS
 62
    7
 10
178.70751252131464
 20
742.95559683370107
 11
178.60751252131465
 21
743.84236153958341
  0
LINE
  8
_5-0_
  6
CONTINUOUS
 62
    7
 10
178.70751252131464
 20
743.85559683370104
 11
178.60751252131465
 21
744.7423615395835
  0
LINE
  8
_5-0_
  6
CONTINUOUS
 62
    7
 10
178.60751252131465
 20
743.84236153958341
 11
182.00751252131468
 21
744.29236153958323
  0
LINE
  8
_5-0_
  6
CONTINUOUS
 62
    7
 10
178.70751252131464
 20
744.75559683370102
 11
178.60751252131465
 21
745.64236153958348
  0
LINE
  8
_5-0_
  6
CONTINUOUS
 62
    7
 10
178.60751252131465
 20
744.7423615395835
 11
182.00751252131468
 21
745.19236153958332
  0
LINE
  8
_5-0_
  6
CONTINUOUS
 62
    7
 10
178.70751252131464
 20
745.65559683370111
 11
178.60751252131465
 21
746.54236153958345
  0
LINE
  8
_5-0_
  6
CONTINUOUS
 62
    7
 10
178.60751252131465
 20
745.64236153958348
 11
182.00751252131468
 21
746.09236153958341
  0
LINE
  8
_5-0_
  6
CONTINUOUS
 62
    7
 10
178.70751252131464
 20
746.5555968337012
 11
178.60751252131465
 21
747.44236153958354
  0
LINE
  8
_5-0_
  6
CONTINUOUS
 62
    7
 10
181.9825125213149
 20
744.28905271605402
 11
181.88251252131488
 21
743.37581742193618
  0
LINE
  8
_5-0_
  6
CONTINUOUS
 62
    7
 10
181.9825125213149
 20
745.18905271605399
 11
181.88251252131488
 21
744.27581742193627
  0
LINE
  8
_5-0_
  6
CONTINUOUS
 62
    7
 10
181.9825125213149
 20
746.08905271605408
 11
181.88251252131488
 21
745.17581742193624
  0
LINE
  8
_5-0_
  6
CONTINUOUS
 62
    7
 10
178.60751252131465
 20
757.34236153958341
 11
181.9825125213149
 21
757.78905271605379
  0
LINE
  8
_5-0_
  6
CONTINUOUS
 62
    7
 10
181.88251252131488
 20
756.87581742193629
 11
181.9825125213149
 21
757.78905271605379
  0
LINE
  8
_5-0_
  6
CONTINUOUS
 62
    7
 10
178.60751252131465
 20
756.44236153958343
 11
181.9825125213149
 21
756.88905271605392
  0
LINE
  8
_5-0_
  6
CONTINUOUS
 62
    7
 10
181.88251252131488
 20
755.9758174219362
 11
181.9825125213149
 21
756.88905271605392
  0
LINE
  8
_5-0_
  6
CONTINUOUS
 62
    7
 10
178.60751252131465
 20
755.54236153958345
 11
181.9825125213149
 21
755.98905271605395
  0
LINE
  8
_5-0_
  6
CONTINUOUS
 62
    7
 10
181.88251252131488
 20
755.07581742193634
 11
181.9825125213149
 21
755.98905271605395
  0
LINE
  8
_5-0_
  6
CONTINUOUS
 62
    7
 10
178.60751252131465
 20
754.64236153958359
 11
181.9825125213149
 21
755.08905271605397
  0
LINE
  8
_5-0_
  6
CONTINUOUS
 62
    7
 10
181.88251252131488
 20
754.17581742193636
 11
181.9825125213149
 21
755.08905271605397
  0
LINE
  8
_5-0_
  6
CONTINUOUS
 62
    7
 10
178.60751252131465
 20
753.7423615395835
 11
181.9825125213149
 21
754.18905271605399
  0
LINE
  8
_5-0_
  6
CONTINUOUS
 62
    7
 10
181.88251252131488
 20
753.27581742193638
 11
181.9825125213149
 21
754.18905271605399
  0
LINE
  8
_5-0_
  6
CONTINUOUS
 62
    7
 10
178.60751252131465
 20
752.84236153958341
 11
181.9825125213149
 21
753.28905271605413
  0
LINE
  8
_5-0_
  6
CONTINUOUS
 62
    7
 10
181.88251252131488
 20
752.3758174219364
 11
181.9825125213149
 21
753.28905271605413
  0
LINE
  8
_5-0_
  6
CONTINUOUS
 62
    7
 10
178.60751252131465
 20
751.94236153958354
 11
181.9825125213149
 21
752.38905271605404
  0
LINE
  8
_5-0_
  6
CONTINUOUS
 62
    7
 10
181.88251252131488
 20
751.47581742193654
 11
181.9825125213149
 21
752.38905271605404
  0
LINE
  8
_5-0_
  6
CONTINUOUS
 62
    7
 10
178.60751252131465
 20
751.04236153958357
 11
181.9825125213149
 21
751.48905271605418
  0
LINE
  8
_5-0_
  6
CONTINUOUS
 62
    7
 10
181.88251252131488
 20
750.57581742193634
 11
181.9825125213149
 21
751.48905271605418
  0
LINE
  8
_5-0_
  6
CONTINUOUS
 62
    7
 10
178.60751252131465
 20
750.14236153958359
 11
181.9825125213149
 21
750.58905271605397
  0
LINE
  8
_5-0_
  6
CONTINUOUS
 62
    7
 10
181.9825125213149
 20
750.58905271605397
 11
181.88251252131488
 21
749.67581742193659
  0
LINE
  8
_5-0_
  6
CONTINUOUS
 62
    7
 10
178.60751252131465
 20
749.24236153958361
 11
181.9825125213149
 21
749.68905271605422
  0
LINE
  8
_5-0_
  6
CONTINUOUS
 62
    7
 10
181.9825125213149
 20
749.68905271605422
 11
181.88251252131488
 21
748.77581742193638
  0
LINE
  8
_5-0_
  6
CONTINUOUS
 62
    7
 10
178.60751252131465
 20
748.34236153958364
 11
181.9825125213149
 21
748.78905271605402
  0
LINE
  8
_5-0_
  6
CONTINUOUS
 62
    7
 10
181.9825125213149
 20
748.78905271605402
 11
181.92228707848074
 21
748.23905271605383
  0
LINE
  8
_5-0_
  6
CONTINUOUS
 62
    7
 10
181.92228707848074
 20
748.23905271605383
 11
181.88251252131488
 21
747.8758174219364
  0
LINE
  8
_5-0_
  6
CONTINUOUS
 62
    7
 10
178.60751252131465
 20
747.44236153958354
 11
181.9825125213149
 21
747.88905271605404
  0
LINE
  8
_5-0_
  6
CONTINUOUS
 62
    7
 10
181.9825125213149
 20
747.88905271605404
 11
181.88251252131488
 21
746.97581742193631
  0
LINE
  8
_5-0_
  6
CONTINUOUS
 62
    7
 10
178.60751252131465
 20
746.54236153958345
 11
181.9825125213149
 21
746.98905271605395
  0
LINE
  8
_5-0_
  6
CONTINUOUS
 62
    7
 10
181.9825125213149
 20
746.98905271605395
 11
181.88251252131488
 21
746.07581742193634
  0
LINE
  8
_5-0_
  6
CONTINUOUS
 62
    7
 10
178.60751252131465
 20
742.94236153958332
 11
181.9825125213149
 21
743.38905271605381
  0
ARC
  8
_5-0_
  6
CONTINUOUS
 62
    7
 10
180.28251252131463
 20
772.64236153958336
 40
3.4999999999999969
 50
170.12911039386049
 51
179.99999999999983
  0
LINE
  8
_5-0_
  6
CONTINUOUS
 62
    7
 10
176.7825125213146
 20
772.64236153958336
 11
183.78251252131463
 21
772.64236153958336
  0
LINE
  8
_5-0_
  6
CONTINUOUS
 62
    7
 10
176.83432459140136
 20
773.24236153958338
 11
183.73070045122802
 21
773.24236153958338
  0
ARC
  8
_5-0_
  6
CONTINUOUS
 62
    7
 10
180.28251252131463
 20
772.64236153958336
 40
3.5000000000000004
 50
0
 51
9.8708896061394622
  0
LINE
  8
_5-0_
  6
CONTINUOUS
 62
    7
 10
176.78251252131489
 20
772.64236153958336
 11
178.53606591190783
 21
770.88880814899039
  0
ARC
  8
_5-0_
  6
CONTINUOUS
 62
    7
 10
178.18251252131455
 20
770.53525475839706
 40
0.5
 50
0
 51
45
  0
LINE
  8
_5-0_
  6
CONTINUOUS
 62
    7
 10
183.78251252131486
 20
772.64236153958336
 11
182.02895913072126
 21
770.88880814898971
  0
ARC
  8
_5-0_
  6
CONTINUOUS
 62
    7
 10
182.38251252131454
 20
770.53525475839638
 40
0.499999999999999
 50
135.0000000000006
 51
180.00000000000492
  0
LINE
  8
_5-0_
  6
CONTINUOUS
 62
    7
 10
181.88251252131423
 20
770.74236153958282
 11
178.68251252131557
 21
770.74236153958282
  0
LINE
  8
_5-0_
  6
CONTINUOUS
 62
    7
 10
178.60751252131465
 20
758.24236153958338
 11
178.70751252131464
 21
757.35559683370093
  0
LINE
  8
_5-0_
  6
CONTINUOUS
 62
    7
 10
178.60751252131465
 20
758.24236153958338
 11
181.9825125213149
 21
758.68905271605377
  0
LINE
  8
_5-0_
  6
CONTINUOUS
 62
    7
 10
181.88251252131488
 20
757.77581742193638
 11
181.9825125213149
 21
758.68905271605377
  0
LINE
  8
_5-0_
  6
CONTINUOUS
 62
    7
 10
178.60751252131465
 20
759.14236153958325
 11
178.70751252131464
 21
758.25559683370091
  0
LINE
  8
_5-0_
  6
CONTINUOUS
 62
    7
 10
178.60751252131465
 20
759.14236153958325
 11
181.9825125213149
 21
759.58905271605374
  0
LINE
  8
_5-0_
  6
CONTINUOUS
 62
    7
 10
181.88251252131488
 20
758.67581742193624
 11
181.9825125213149
 21
759.58905271605374
  0
LINE
  8
_5-0_
  6
CONTINUOUS
 62
    7
 10
178.60751252131465
 20
760.04236153958323
 11
178.70751252131464
 21
759.15559683370077
  0
LINE
  8
_5-0_
  6
CONTINUOUS
 62
    7
 10
178.60751252131465
 20
760.04236153958323
 11
180.11862363242733
 21
760.24236153958327
  0
LINE
  8
_5-0_
  6
CONTINUOUS
 62
    7
 10
178.63417918798135
 20
760.04589095134793
 11
178.60751252131465
 21
760.24236153958327
  0
LINE
  8
_5-0_
  6
CONTINUOUS
 62
    7
 10
178.60751252131465
 20
760.24236153958327
 11
181.95549963886725
 21
760.24236153958327
  0
LINE
  8
_5-0_
  6
CONTINUOUS
 62
    7
 10
181.88251252131488
 20
759.57581742193611
 11
181.95549963886725
 21
760.24236153958327
  0
LINE
  8
_5-0_
  6
CONTINUOUS
 62
    7
 10
178.68251252131444
 20
760.24236153958327
 11
178.68251252131458
 21
770.53525475839717
  0
LINE
  8
_5-0_
  6
CONTINUOUS
 62
    7
 10
181.8825125213155
 20
760.24236153958327
 11
181.8825125213155
 21
770.53525475839638
  0
LINE
  8
_5-0_
  6
CONTINUOUS
 62
    7
 10
179.78251252131471
 20
735.54236153958323
 11
178.73251252131524
 21
738.94236153958332
  0
LINE
  8
_5-0_
  6
CONTINUOUS
 62
    7
 10
180.78251252131474
 20
735.54236153958323
 11
181.83251252131427
 21
738.94236153958332
  0
LINE
  8
_5-0_
  6
CONTINUOUS
 62
    7
 10
178.73251252131524
 20
738.94236153958332
 11
181.83251252131427
 21
738.94236153958332
  0
LINE
  8
_5-0_
  6
CONTINUOUS
 62
    7
 10
178.73251252131524
 20
738.94236153958332
 11
178.73251252131496
 21
741.94236153958332
  0
LINE
  8
_5-0_
  6
CONTINUOUS
 62
    7
 10
181.83251252131427
 20
738.94236153958332
 11
181.83251252131456
 21
741.94236153958332
  0
LINE
  8
_5-0_
  6
CONTINUOUS
 62
    7
 10
178.60751252131465
 20
742.04236153958334
 11
181.9825125213149
 21
742.48905271605383
  0
LINE
  8
_5-0_
  6
CONTINUOUS
 62
    7
 10
178.70751252131475
 20
742.05559683370097
 11
178.60751252131465
 21
742.94236153958332
  0
LINE
  8
_5-0_
  6
CONTINUOUS
 62
    7
 10
181.9825125213149
 20
743.38905271605381
 11
181.88251252131488
 21
742.4758174219362
  0
LINE
  8
_5-0_
  6
CONTINUOUS
 62
    7
 10
178.61878946990515
 20
741.94236153958332
 11
178.60751252131465
 21
742.04236153958334
  0
LINE
  8
_5-0_
  6
CONTINUOUS
 62
    7
 10
178.61878946990515
 20
741.94236153958332
 11
181.92264939732132
 21
741.94236153958332
  0
LINE
  8
_5-0_
  6
CONTINUOUS
 62
    7
 10
180.02956142519324
 20
735.54236153958323
 11
180.53546361743614
 21
735.54236153958323
  0
LINE
  8
_5-0_
  6
CONTINUOUS
 62
    7
 10
180.53546361743614
 20
735.54236153958323
 11
180.78251252131474
 21
735.54236153958323
  0
LINE
  8
_5-0_
  6
CONTINUOUS
 62
    7
 10
179.78251252131471
 20
735.54236153958323
 11
180.02956142519324
 21
735.54236153958323
  0
LINE
  8
_5-0_
  6
CONTINUOUS
 62
    7
 10
178.03913542165901
 20
752.76421481535499
 11
177.78763187824353
 21
754.20753855088265
  0
LINE
  8
_5-0_
  6
CONTINUOUS
 62
    7
 10
182.52643892687416
 20
752.76450041904491
 11
182.78014737744877
 21
754.2060942984109
  0
LINE
  8
_5-0_
  6
CONTINUOUS
 62
    7
 10
182.78014535817761
 20
744.97336467160244
 11
182.57064441410051
 21
743.77333627979328
  0
LINE
  8
_5-0_
  6
CONTINUOUS
 62
    7
 10
182.78014751101807
 20
748.00879255532459
 11
182.53870999448003
 21
746.63682434885686
  0
LINE
  8
_5-0_
  6
CONTINUOUS
 62
    7
 10
182.78040050088828
 20
751.10888762339528
 11
182.52643873999011
 21
749.66584949155754
  0
LINE
  8
_5-0_
  6
CONTINUOUS
 62
    7
 10
177.78487747829672
 20
751.10744337092353
 11
178.04190317930733
 21
749.66412298714636
  0
LINE
  8
_5-0_
  6
CONTINUOUS
 62
    7
 10
177.78487753161144
 20
748.00879255532459
 11
178.02685799911686
 21
746.6365418587659
  0
LINE
  8
_5-0_
  6
CONTINUOUS
 62
    7
 10
177.78487968445182
 20
744.97336467160244
 11
178.00628570854224
 21
743.75632303523219
  0
LINE
  8
_5-0_
  6
CONTINUOUS
 62
    7
 10
181.9825125213149
 20
742.48905271605383
 11
181.92264939732132
 21
741.94236153958332
  0
LINE
  8
_e-0_
  6
CONTINUOUS
 62
    7
 10
220.4852431347046
 20
832.08461953259007
 11
240.4852431347046
 21
832.08461953259007
  0
TEXT
  8
_e-0_
 62
    7
 10
244.47939805764798
 20
822.85397818191791
 40
20
 41
1
 50
0
  1
ＹＫ押え金物ＳＬ－７
  0
LINE
  8
_e-0_
  6
CONTINUOUS
 62
    7
 10
203.16473505901584
 20
802.08461953259007
 11
223.31560113007748
 21
802.08461953259007
  0
TEXT
  8
_e-0_
 62
    7
 10
226.22328493328368
 20
791.88952745885319
 40
20
 41
1
 50
0
  1
ハンマーフィックス
  0
LINE
  8
_e-0_
  6
CONTINUOUS
 62
    7
 10
182.55749929335607
 20
766.39184018291689
 11
220.4852431347046
 21
832.08461953259007
  0
ENDSEC
  0
EOF
