  0
SECTION
  2
HEADER
  9
$ACADVER
  1
AC1009
  9
$INSBASE
 10
0
 20
0
 30
0
  9
$EXTMIN
 10
0
 20
0
  9
$EXTMAX
 10
2970
 20
2100
  9
$LIMMIN
 10
0
 20
0
  9
$LIMMAX
 10
2970
 20
2100
  9
$LTSCALE
 40
10
  0
ENDSEC
  0
SECTION
  2
TABLES
  0
TABLE
  2
LTYPE
 70
     9
  0
LTYPE
  2
CONTINUOUS
 70
    64
  3
実線
 72
    65
 73
     0
 40
0.0
  0
LTYPE
  2
DASHED1
 70
    64
  3
--  --  --  --  --  --  --  --  
 72
    65
 73
     2
 40
2.5
 49
1.25
 49
-1.25
  0
LTYPE
  2
DASHED2
 70
    64
  3
----    ----    ----    ----    
 72
    65
 73
     2
 40
5.0
 49
2.5
 49
-2.5
  0
LTYPE
  2
DASHED3
 70
    64
  3
------  ------  ------  ------  
 72
    65
 73
     2
 40
5.0
 49
3.75
 49
-1.25
  0
LTYPE
  2
CENTER1
 70
    64
  3
----- - ----- - ----- - ----- - 
 72
    65
 73
     4
 40
10.0
 49
6.25
 49
-1.25
 49
1.25
 49
-1.25
  0
LTYPE
  2
CENTER2
 70
    64
  3
----------  --  ----------  --  
 72
    65
 73
     4
 40
20.0
 49
12.5
 49
-2.5
 49
2.5
 49
-2.5
  0
LTYPE
  2
PHANTOM1
 70
    64
  3
--- - - --- - - --- - - --- - - 
 72
    65
 73
     6
 40
10.0
 49
3.25
 49
-1.25
 49
1.25
 49
-1.25
 49
1.25
 49
-1.25
  0
LTYPE
  2
PHANTOM2
 70
    64
  3
--------  -  -  --------  -  -  
 72
    65
 73
     6
 40
20.0
 49
10.0
 49
-2.5
 49
1.25
 49
-2.5
 49
1.25
 49
-2.5
  0
LTYPE
  2
DOT
 70
    64
  3
-   -   -   -   -   -   -   -   
 72
    65
 73
     2
 40
2.5
 49
0.625
 49
-1.875
  0
LTYPE
  2
DUMMY
 70
    64
  3
ダミー
 72
    65
 73
     0
 40
0.0
  0
LTYPE
  2
RAND1
 70
    64
  3
ランダム線1
 72
    65
 73
     4
 40
10.0
 49
1.0
 49
-2.0
 49
3.0
 49
-4.0
  0
LTYPE
  2
RAND2
 70
    64
  3
ランダム線2
 72
    65
 73
     4
 40
14.0
 49
2.0
 49
-3.0
 49
4.0
 49
-5.0
  0
LTYPE
  2
RAND3
 70
    64
  3
ランダム線3
 72
    65
 73
     4
 40
18.0
 49
3.0
 49
-4.0
 49
5.0
 49
-6.0
  0
LTYPE
  2
RAND4
 70
    64
  3
ランダム線4
 72
    65
 73
     4
 40
22.0
 49
4.0
 49
-5.0
 49
6.0
 49
-7.0
  0
LTYPE
  2
RAND5
 70
    64
  3
ランダム線5
 72
    65
 73
     4
 40
26.0
 49
5.0
 49
-6.0
 49
7.0
 49
-8.0
  0
LTYPE
  2
LONG1
 70
    64
  3
----------  --  ----------  --  
 72
    65
 73
     4
 40
40.0
 49
32.5
 49
-2.5
 49
2.5
 49
-2.5
  0
LTYPE
  2
LONG2
 70
    64
  3
--------  -  -  --------  -  -  
 72
    65
 73
     6
 40
40.0
 49
30.0
 49
-2.5
 49
1.25
 49
-2.5
 49
1.25
 49
-2.5
  0
LTYPE
  2
LONG3
 70
    64
  3
+++++++++++++++..+++++++++++++++
 72
    65
 73
     2
 40
40.0
 49
37.5
 49
-2.5
  0
LTYPE
  2
LONG4
 70
    64
  3
+++++++++++++++..+++++++++++++++
 72
    65
 73
     2
 40
80.0
 49
75.0
 49
-5.0
  0
LTYPE
  2
LONG5
 70
    64
  3
----------  --  ----------  --  
 72
    65
 73
     4
 40
60.0
 49
37.5
 49
-7.5
 49
7.5
 49
-7.5
  0
LTYPE
  2
dashed
 70
   64
  3
-------   -------------   ------
 72
   65
 73
    2
 40
7.5
 49
6
 49
-1.5
  0
LTYPE
  2
dashed_spaced
 70
   64
  3
----        --------        ----
 72
   65
 73
    2
 40
12
 49
6
 49
-6
  0
LTYPE
  2
long_dashed_dotted
 70
   64
  3
------------- --- --------------
 72
   65
 73
    4
 40
15.25
 49
12
 49
-1.5
 49
0.25
 49
-1.5
  0
LTYPE
  2
long_dashed_double-dotted
 70
   64
  3
----------- --- --- ------------
 72
   65
 73
    6
 40
17
 49
12
 49
-1.5
 49
0.25
 49
-1.5
 49
0.25
 49
-1.5
  0
LTYPE
  2
long_dashed_triplicate-dotted
 70
   64
  3
--------- --- --- --- ----------
 72
   65
 73
    8
 40
18.75
 49
12
 49
-1.5
 49
0.25
 49
-1.5
 49
0.25
 49
-1.5
 49
0.25
 49
-1.5
  0
LTYPE
  2
dotted
 70
   64
  3
   -       -       -       -    
 72
   65
 73
    2
 40
1.75
 49
0.25
 49
-1.5
  0
LTYPE
  2
chain
 70
   64
  3
-------------- -- --------------
 72
   65
 73
    4
 40
18.5
 49
12
 49
-1.5
 49
3.5
 49
-1.5
  0
LTYPE
  2
chain_double_dash
 70
   64
  3
------------ -- -- -------------
 72
   65
 73
    6
 40
23.5
 49
12
 49
-1.5
 49
3.5
 49
-1.5
 49
3.5
 49
-1.5
  0
LTYPE
  2
dashed_dotted
 70
   64
  3
-----------     -     ----------
 72
   65
 73
    4
 40
9.25
 49
6
 49
-1.5
 49
0.25
 49
-1.5
  0
LTYPE
  2
double-dashed_dotted
 70
   64
  3
------   -----------   -   -----
 72
   65
 73
    6
 40
16.75
 49
6
 49
-1.5
 49
6
 49
-1.5
 49
0.25
 49
-1.5
  0
LTYPE
  2
dashed_double-dotted
 70
   64
  3
---------    -    -    ---------
 72
   65
 73
    6
 40
11
 49
6
 49
-1.5
 49
0.25
 49
-1.5
 49
0.25
 49
-1.5
  0
LTYPE
  2
double-dashed_double-dotted
 70
   64
  3
-----   ---------   -   -   ----
 72
   65
 73
    8
 40
18.5
 49
6
 49
-1.5
 49
6
 49
-1.5
 49
0.25
 49
-1.5
 49
0.25
 49
-1.5
  0
LTYPE
  2
dashed_triplicate-dotted
 70
   64
  3
-------    -    -    -    ------
 72
   65
 73
    8
 40
12.75
 49
6
 49
-1.5
 49
0.25
 49
-1.5
 49
0.25
 49
-1.5
 49
0.25
 49
-1.5
  0
LTYPE
  2
double-dashed_triplicate-dotted
 70
   64
  3
-----  ---------  -  -  -  -----
 72
   65
 73
   10
 40
20.25
 49
6
 49
-1.5
 49
6
 49
-1.5
 49
0.25
 49
-1.5
 49
0.25
 49
-1.5
 49
0.25
 49
-1.5
  0
LTYPE
  2
undefined
 70
   64
  3
--------------------------------
 72
   65
 73
    0
 40
0
  0
LTYPE
  2
AIGENLINE001
 70
   64
  3
----        --------        ----
 72
   65
 73
    2
 40
4.5800000000000001
 49
2.29
 49
-2.29
  0
LTYPE
  2
AIGENLINE002
 70
   64
  3
------     -----------     -----
 72
   65
 73
    2
 40
6.8700000000000001
 49
4.5800000000000001
 49
-2.29
  0
ENDTAB
  0
TABLE
  2
STYLE
  5
3
100
AcDbSymbolTable
 70
     1
  0
STYLE
  5
10
100
AcDbSymbolTableRecord
100
AcDbTextStyleTableRecord
  2
STANDARD
 70
     0
 40
0.0
 41
1.0
 50
0.0
 71
     0
 42
0.2
  3
txt
  4
bigfont.shx
  0
STYLE
  5
26
100
AcDbSymbolTableRecord
100
AcDbTextStyleTableRecord
  2
TATEGAKI
 70
    68
 40
0.0
 41
1.0
 50
0.0
 71
     0
 42
1.0
  3
txt
  4
bigfont.shx
  0
ENDTAB
  0
TABLE
  2
LAYER
 70
    3
  0
LAYER
  2
_0-0_文字
 70
   64
 62
    7
  6
CONTINUOUS
  0
LAYER
  2
_0-1_レイヤ___3
 70
   64
 62
    7
  6
CONTINUOUS
  0
LAYER
  2
ADD_LINE
 70
   64
 62
    7
  6
CONTINUOUS
  0
ENDTAB
  0
ENDSEC
  0
SECTION
  2
BLOCKS
  0
ENDSEC
  0
SECTION
  2
ENTITIES
  0
ARC
  8
_0-1_レイヤ___3
  6
CONTINUOUS
 62
    7
 10
-7457.1225270732621
 20
10245.265671888299
 40
100.75331131322194
 50
212.54457606520913
 51
215.40440375223901
  0
ARC
  8
_0-1_レイヤ___3
  6
CONTINUOUS
 62
    7
 10
-7368.9514147695209
 20
10307.718363524889
 40
208.80176608438552
 50
215.35576722286694
 51
221.36723647424384
  0
ARC
  8
_0-1_レイヤ___3
  6
CONTINUOUS
 62
    7
 10
-7295.4624294196119
 20
10370.285434729602
 40
305.30820552446175
 50
221.06477429997616
 51
231.22765018658944
  0
ARC
  8
_0-1_レイヤ___3
  6
CONTINUOUS
 62
    7
 10
-7258.362933726452
 20
10413.75814627555
 40
362.43800051855288
 50
230.95883511048854
 51
251.35346403312775
  0
ARC
  8
_0-1_レイヤ___3
  6
CONTINUOUS
 62
    7
 10
-7236.372632740311
 20
10469.15351598549
 40
421.96811857702386
 50
250.92920805381576
 51
264.01576111916944
  0
ARC
  8
_0-1_レイヤ___3
  6
CONTINUOUS
 62
    7
 10
-7225.624236278828
 20
10543.900922169672
 40
497.43720610569824
 50
263.68207230856342
 51
270.12317171358148
  0
ARC
  8
_0-1_レイヤ___3
  6
CONTINUOUS
 62
    7
 10
-6992.0793464044109
 20
10245.524901377814
 40
100.97057184263099
 50
324.50269853745323
 51
327.35954730735853
  0
ARC
  8
_0-1_レイヤ___3
  6
CONTINUOUS
 62
    7
 10
-7080.3419905560786
 20
10307.947173220191
 40
209.07582118488784
 50
318.61534655888227
 51
324.62063211809948
  0
ARC
  8
_0-1_レイヤ___3
  6
CONTINUOUS
 62
    7
 10
-7153.8774882642865
 20
10370.555279866292
 40
305.64394410371006
 50
308.76992808749981
 51
318.92296844706647
  0
ARC
  8
_0-1_レイヤ___3
  6
CONTINUOUS
 62
    7
 10
-7190.9073149430596
 20
10414.013847156648
 40
362.71881065871321
 50
288.65165821912348
 51
309.03173518611686
  0
ARC
  8
_0-1_レイヤ___3
  6
CONTINUOUS
 62
    7
 10
-7212.7783179116759
 20
10469.116770693032
 40
421.93378546990601
 50
275.98762352174964
 51
289.07257752973072
  0
ARC
  8
_0-1_レイヤ___3
  6
CONTINUOUS
 62
    7
 10
-7223.4878580387031
 20
10543.581941679005
 40
497.11822129585721
 50
269.87702048518202
 51
276.31995190691799
  0
ARC
  8
_0-1_レイヤ___3
  6
CONTINUOUS
 62
    7
 10
-5185.0304285955899
 20
10245.524901377814
 40
100.97057184263099
 50
212.64045269264147
 51
215.49730146254677
  0
ARC
  8
_0-1_レイヤ___3
  6
CONTINUOUS
 62
    7
 10
-5096.767783943922
 20
10307.947182752343
 40
209.07582711155425
 50
215.37936993240487
 51
221.38465549162211
  0
ARC
  8
_0-1_レイヤ___3
  6
CONTINUOUS
 62
    7
 10
-5023.232286235715
 20
10370.555274237853
 40
305.6439400285019
 50
221.07703081915608
 51
231.23007117872271
  0
ARC
  8
_0-1_レイヤ___3
  6
CONTINUOUS
 62
    7
 10
-4986.2024600569393
 20
10414.01384715665
 40
362.71881065871611
 50
230.96826481388334
 51
251.34834178087678
  0
ARC
  8
_0-1_レイヤ___3
  6
CONTINUOUS
 62
    7
 10
-4964.331457088324
 20
10469.116770693026
 40
421.93378546990107
 50
250.92742247026916
 51
264.01237647825019
  0
ARC
  8
_0-1_レイヤ___3
  6
CONTINUOUS
 62
    7
 10
-4953.6219169612968
 20
10543.581941679005
 40
497.11822129585721
 50
263.68004809308201
 51
270.12297951481798
  0
ARC
  8
_0-1_レイヤ___3
  6
CONTINUOUS
 62
    7
 10
-4719.9458454184714
 20
10245.502223718258
 40
100.93010227782503
 50
324.50212566871829
 51
327.36012017609352
  0
ARC
  8
_0-1_レイヤ___3
  6
CONTINUOUS
 62
    7
 10
-4808.1795151263923
 20
10307.897670728831
 40
208.99619450303933
 50
318.61419937969004
 51
324.6217751962829
  0
ARC
  8
_0-1_レイヤ___3
  6
CONTINUOUS
 62
    7
 10
-4881.720450069015
 20
10370.546924357084
 40
305.59543296261558
 50
308.76110452106741
 51
318.91711841601511
  0
ARC
  8
_0-1_レイヤ___3
  6
CONTINUOUS
 62
    7
 10
-4918.8186128357247
 20
10414.07234736759
 40
362.76505117262622
 50
288.64440299195792
 51
309.02607158712721
  0
ARC
  8
_0-1_レイヤ___3
  6
CONTINUOUS
 62
    7
 10
-4940.7607794280339
 20
10469.392114969156
 40
422.20788163462777
 50
275.98405340598731
 51
289.06580929539717
  0
ARC
  8
_0-1_レイヤ___3
  6
CONTINUOUS
 62
    7
 10
-4951.4884073483645
 20
10543.953934779165
 40
497.49021243480115
 50
269.87717178965931
 51
276.31758418819595
  0
ARC
  8
_0-1_レイヤ___3
  6
CONTINUOUS
 62
    7
 10
-5820.122552073216
 20
10136.864055111702
 40
100.75331131325974
 50
144.59559624777546
 51
147.45542393480537
  0
ARC
  8
_0-1_レイヤ___3
  6
CONTINUOUS
 62
    7
 10
-5731.9514397695193
 20
10074.411363475112
 40
208.80176608438552
 50
138.63276352575616
 51
144.64423277713306
  0
ARC
  8
_0-1_レイヤ___3
  6
CONTINUOUS
 62
    7
 10
-5658.4624539196111
 20
10011.84428664744
 40
305.30820959523527
 50
128.77234907943739
 51
138.93522496605067
  0
ARC
  8
_0-1_レイヤ___3
  6
CONTINUOUS
 62
    7
 10
-5621.3629577264519
 20
9968.3715807244553
 40
362.43800051855004
 50
108.64653596687252
 51
129.04116488951172
  0
ARC
  8
_0-1_レイヤ___3
  6
CONTINUOUS
 62
    7
 10
-5599.37265674031
 20
9912.9762110145002
 40
421.96811857703369
 50
95.984238880830276
 51
109.07079194618395
  0
ARC
  8
_0-1_レイヤ___3
  6
CONTINUOUS
 62
    7
 10
-5588.6242602788279
 20
9838.228804830349
 40
497.437206105678
 50
89.876828286418629
 51
96.317927691436736
  0
ARC
  8
_0-1_レイヤ___3
  6
CONTINUOUS
 62
    7
 10
-5354.9872379267836
 20
10136.864055111679
 40
100.75331131327245
 50
32.544576065205391
 51
35.404403752235282
  0
ARC
  8
_0-1_レイヤ___3
  6
CONTINUOUS
 62
    7
 10
-5443.1583502304802
 20
10074.411363475123
 40
208.80176608437881
 50
35.3557672228646
 51
41.367236474241516
  0
ARC
  8
_0-1_レイヤ___3
  6
CONTINUOUS
 62
    7
 10
-5516.6473355803882
 20
10011.8442922704
 40
305.30820552446175
 50
41.064774299976172
 51
51.227650186589457
  0
ARC
  8
_0-1_レイヤ___3
  6
CONTINUOUS
 62
    7
 10
-5553.7468312735482
 20
9968.3715807244516
 40
362.43800051855288
 50
50.958835110488543
 51
71.35346403312775
  0
ARC
  8
_0-1_レイヤ___3
  6
CONTINUOUS
 62
    7
 10
-5575.737132259691
 20
9912.9762110145057
 40
421.96811857702875
 50
70.929208053815913
 51
84.015761119169582
  0
ARC
  8
_0-1_レイヤ___3
  6
CONTINUOUS
 62
    7
 10
-5586.4855287211731
 20
9838.2288048303399
 40
497.43720610568812
 50
83.682072308563349
 51
90.123171713581442
  0
ARC
  8
_0-1_レイヤ___3
  6
CONTINUOUS
 62
    7
 10
-2913.022595073262
 20
10245.265671888321
 40
100.75331131323469
 50
212.54457606521987
 51
215.40440375224975
  0
ARC
  8
_0-1_レイヤ___3
  6
CONTINUOUS
 62
    7
 10
-2824.851482769519
 20
10307.718363524882
 40
208.80176608438217
 50
215.35576722286575
 51
221.36723647424267
  0
ARC
  8
_0-1_レイヤ___3
  6
CONTINUOUS
 62
    7
 10
-2751.3624974196114
 20
10370.285434729598
 40
305.30820552445948
 50
221.06477429997577
 51
231.22765018658905
  0
ARC
  8
_0-1_レイヤ___3
  6
CONTINUOUS
 62
    7
 10
-2714.2630012264522
 20
10413.758149055178
 40
362.43800299241127
 50
230.95883532587561
 51
251.3534642485148
  0
ARC
  8
_0-1_レイヤ___3
  6
CONTINUOUS
 62
    7
 10
-2692.2727002403099
 20
10469.153511626333
 40
421.96811429374725
 50
250.92920792458665
 51
264.0157609899403
  0
ARC
  8
_0-1_レイヤ___3
  6
CONTINUOUS
 62
    7
 10
-2681.5243042788275
 20
10543.900922169658
 40
497.43720610568312
 50
263.68207230856331
 51
270.12317171358143
  0
ARC
  8
_0-1_レイヤ___3
  6
CONTINUOUS
 62
    7
 10
-2447.8872809267382
 20
10245.26567188831
 40
100.75331131322829
 50
324.59559624775562
 51
327.45542393478553
  0
ARC
  8
_0-1_レイヤ___3
  6
CONTINUOUS
 62
    7
 10
-2536.0583932304803
 20
10307.718363524889
 40
208.80176608438552
 50
318.63276352575616
 51
324.64423277713308
  0
ARC
  8
_0-1_レイヤ___3
  6
CONTINUOUS
 62
    7
 10
-2609.5473785803892
 20
10370.285434729598
 40
305.30820552445948
 50
308.77234981341098
 51
318.93522570002426
  0
ARC
  8
_0-1_レイヤ___3
  6
CONTINUOUS
 62
    7
 10
-2646.646874773548
 20
10413.758149055178
 40
362.43800299241127
 50
288.6465357514852
 51
309.04116467412439
  0
ARC
  8
_0-1_レイヤ___3
  6
CONTINUOUS
 62
    7
 10
-2668.6371757596903
 20
10469.153511626329
 40
421.96811429374492
 50
275.98423901005975
 51
289.07079207541341
  0
ARC
  8
_0-1_レイヤ___3
  6
CONTINUOUS
 62
    7
 10
-2679.3855722211724
 20
10543.900931055636
 40
497.43721499271589
 50
269.87682823102801
 51
276.31792763604608
  0
ARC
  8
_0-1_レイヤ___3
  6
CONTINUOUS
 62
    7
 10
-3548.0304525955444
 20
10136.604825622173
 40
100.97057184267514
 50
144.50269853746238
 51
147.35954730736768
  0
ARC
  8
_0-1_レイヤ___3
  6
CONTINUOUS
 62
    7
 10
-3459.7678084439217
 20
10074.182553779816
 40
209.07582118488446
 50
138.6153465588834
 51
144.62063211810062
  0
ARC
  8
_0-1_レイヤ___3
  6
CONTINUOUS
 62
    7
 10
-3386.2323107357138
 20
10011.574447133704
 40
305.6439441037146
 50
128.76992808749898
 51
138.92296844706561
  0
ARC
  8
_0-1_レイヤ___3
  6
CONTINUOUS
 62
    7
 10
-3349.2024840569402
 20
9968.1158798433553
 40
362.71881065871321
 50
108.65165821912348
 51
129.03173518611692
  0
ARC
  8
_0-1_レイヤ___3
  6
CONTINUOUS
 62
    7
 10
-3327.3314810883239
 20
9913.0129563069768
 40
421.93378546990107
 50
95.987623521749811
 51
109.07257752973085
  0
ARC
  8
_0-1_レイヤ___3
  6
CONTINUOUS
 62
    7
 10
-3316.6219409612968
 20
9838.547785320985
 40
497.11822129586727
 50
89.877020485181959
 51
96.319951906917922
  0
ARC
  8
_0-1_レイヤ___3
  6
CONTINUOUS
 62
    7
 10
-3082.9458704185172
 20
10136.627503281728
 40
100.93010227786918
 50
32.639879823897374
 51
35.497874331272577
  0
ARC
  8
_0-1_レイヤ___3
  6
CONTINUOUS
 62
    7
 10
-3171.1795401263917
 20
10074.232056271177
 40
208.99619450303595
 50
35.378224803715909
 51
41.385800620308785
  0
ARC
  8
_0-1_レイヤ___3
  6
CONTINUOUS
 62
    7
 10
-3244.7204745690146
 20
10011.582808269704
 40
305.59542888809187
 50
41.082880850402226
 51
51.23889474534996
  0
ARC
  8
_0-1_レイヤ___3
  6
CONTINUOUS
 62
    7
 10
-3281.8186368357237
 20
9968.0573796324115
 40
362.76505117262764
 50
50.973928412872894
 51
71.355597008042196
  0
ARC
  8
_0-1_レイヤ___3
  6
CONTINUOUS
 62
    7
 10
-3303.7608034280352
 20
9912.73761203084
 40
422.20788163463277
 50
70.934190704602969
 51
84.015946594012817
  0
ARC
  8
_0-1_レイヤ___3
  6
CONTINUOUS
 62
    7
 10
-3314.4884313483644
 20
9838.1757922208526
 40
497.49021243478586
 50
83.682415811803978
 51
90.1228282103406
  0
ARC
  8
_0-1_レイヤ___3
  6
CONTINUOUS
 62
    7
 10
-6834.9576104027974
 20
10144.758611797955
 40
85.687131946339932
 50
144.22233369227075
 51
147.28839169837414
  0
ARC
  8
_0-1_レイヤ___3
  6
CONTINUOUS
 62
    7
 10
-6772.3665018165402
 20
10100.105046321711
 40
162.57352260626021
 50
139.79746805851795
 51
144.35142471935831
  0
ARC
  8
_0-1_レイヤ___3
  6
CONTINUOUS
 62
    7
 10
-6716.1446876625705
 20
10053.353651080004
 40
235.69226502681684
 50
128.64561282955955
 51
139.93931535075046
  0
ARC
  8
_0-1_レイヤ___3
  6
CONTINUOUS
 62
    7
 10
-6684.3717736842755
 20
10016.65063554152
 40
284.20673230090733
 50
110.99190648966825
 51
129.02750531113131
  0
ARC
  8
_0-1_レイヤ___3
  6
CONTINUOUS
 62
    7
 10
-6666.7549979676569
 20
9975.7474653034878
 40
328.71106488204566
 50
95.239897903240603
 51
111.30471079897622
  0
ARC
  8
_0-1_レイヤ___3
  6
CONTINUOUS
 62
    7
 10
-6657.2413299848804
 20
9909.5217699453515
 40
395.54368721071808
 50
89.900565237320635
 51
95.736139417888069
  0
ARC
  8
_0-1_レイヤ___3
  6
CONTINUOUS
 62
    7
 10
-6478.1521475972031
 20
10144.758611797977
 40
85.68713194632798
 50
32.711608301614113
 51
35.777666307717489
  0
ARC
  8
_0-1_レイヤ___3
  6
CONTINUOUS
 62
    7
 10
-6540.7432561834594
 20
10100.105046321711
 40
162.57352260626021
 50
35.648575280641708
 51
40.202531941482064
  0
ARC
  8
_0-1_レイヤ___3
  6
CONTINUOUS
 62
    7
 10
-6596.9650698374298
 20
10053.353656136811
 40
235.69226138958246
 50
40.060683786625717
 51
51.354386307816618
  0
ARC
  8
_0-1_レイヤ___3
  6
CONTINUOUS
 62
    7
 10
-6628.7379833157238
 20
10016.650635541526
 40
284.20673230090097
 50
50.972494688867947
 51
69.008093510331008
  0
ARC
  8
_0-1_レイヤ___3
  6
CONTINUOUS
 62
    7
 10
-6646.3547595323425
 20
9975.7474617603402
 40
328.71106836472558
 50
68.695289344213663
 51
84.760102239949276
  0
ARC
  8
_0-1_レイヤ___3
  6
CONTINUOUS
 62
    7
 10
-6655.8684275151199
 20
9909.5217797552341
 40
395.54367739998446
 50
84.263860512151453
 51
90.099434692718887
  0
ARC
  8
_0-1_レイヤ___3
  6
CONTINUOUS
 62
    7
 10
-6333.9576174028389
 20
10237.371115202044
 40
85.687131946304817
 50
212.71160830164183
 51
215.77766630774522
  0
ARC
  8
_0-1_レイヤ___3
  6
CONTINUOUS
 62
    7
 10
-6271.3665088165408
 20
10282.024680678278
 40
162.57352260625143
 50
215.64857528063774
 51
220.20253194147807
  0
ARC
  8
_0-1_レイヤ___3
  6
CONTINUOUS
 62
    7
 10
-6215.1446951625703
 20
10328.77607086319
 40
235.69226138958246
 50
220.0606837866257
 51
231.35438630781661
  0
ARC
  8
_0-1_レイヤ___3
  6
CONTINUOUS
 62
    7
 10
-6183.3717816842764
 20
10365.479091458477
 40
284.20673230090415
 50
230.9724946888683
 51
249.00809351033138
  0
ARC
  8
_0-1_レイヤ___3
  6
CONTINUOUS
 62
    7
 10
-6165.7550054676576
 20
10406.382265239659
 40
328.71106836472171
 50
248.69528934421351
 51
264.76010223994911
  0
ARC
  8
_0-1_レイヤ___3
  6
CONTINUOUS
 62
    7
 10
-6156.2413374848802
 20
10472.607947244769
 40
395.54367739998446
 50
264.26386051215144
 51
270.09943469271889
  0
ARC
  8
_0-1_レイヤ___3
  6
CONTINUOUS
 62
    7
 10
-5977.1521550971602
 20
10237.371096519395
 40
85.687121429300191
 50
324.22234402269203
 51
327.28840202879542
  0
ARC
  8
_0-1_レイヤ___3
  6
CONTINUOUS
 62
    7
 10
-6039.743263183459
 20
10282.024680678278
 40
162.57352260625143
 50
319.79746805852193
 51
324.35142471936229
  0
ARC
  8
_0-1_レイヤ___3
  6
CONTINUOUS
 62
    7
 10
-6095.9650773374287
 20
10328.776075920003
 40
235.69226502682088
 50
308.64561282955856
 51
319.9393153507495
  0
ARC
  8
_0-1_レイヤ___3
  6
CONTINUOUS
 62
    7
 10
-6127.7379913157238
 20
10365.479091458477
 40
284.20673230090415
 50
290.99190648966862
 51
309.02750531113168
  0
ARC
  8
_0-1_レイヤ___3
  6
CONTINUOUS
 62
    7
 10
-6145.3547670323424
 20
10406.382261696517
 40
328.71106488204964
 50
275.23989790324043
 51
291.30471079897609
  0
ARC
  8
_0-1_レイヤ___3
  6
CONTINUOUS
 62
    7
 10
-6154.8684350151198
 20
10472.60795705465
 40
395.54368721071808
 50
269.90056523732062
 51
275.73613941788807
  0
ARC
  8
_0-1_レイヤ___3
  6
CONTINUOUS
 62
    7
 10
-4562.8576439027975
 20
10144.758630480626
 40
85.687121429323383
 50
144.22234402271977
 51
147.28840202882316
  0
ARC
  8
_0-1_レイヤ___3
  6
CONTINUOUS
 62
    7
 10
-4500.2665358165405
 20
10100.105046321711
 40
162.57352260626021
 50
139.79746805851795
 51
144.35142471935831
  0
ARC
  8
_0-1_レイヤ___3
  6
CONTINUOUS
 62
    7
 10
-4444.0447216625707
 20
10053.353651079999
 40
235.69226502682088
 50
128.64561282955856
 51
139.93931535074947
  0
ARC
  8
_0-1_レイヤ___3
  6
CONTINUOUS
 62
    7
 10
-4412.2718076842757
 20
10016.650635541522
 40
284.20673230090415
 50
110.99190648966862
 51
129.0275053111317
  0
ARC
  8
_0-1_レイヤ___3
  6
CONTINUOUS
 62
    7
 10
-4394.6550319676571
 20
9975.747465303486
 40
328.71106488204964
 50
95.239897903240447
 51
111.30471079897607
  0
ARC
  8
_0-1_レイヤ___3
  6
CONTINUOUS
 62
    7
 10
-4385.1413639848806
 20
9909.5217699453642
 40
395.54368721070705
 50
89.90056523732072
 51
95.73613941788814
  0
ARC
  8
_0-1_レイヤ___3
  6
CONTINUOUS
 62
    7
 10
-4206.1892611875182
 20
10144.733370282671
 40
85.731971558135825
 50
32.712410299046745
 51
35.776864310284864
  0
ARC
  8
_0-1_レイヤ___3
  6
CONTINUOUS
 62
    7
 10
-4268.8078522340775
 20
10100.054739876003
 40
162.65530541513274
 50
35.649720744070684
 51
40.201386478045109
  0
ARC
  8
_0-1_レイヤ___3
  6
CONTINUOUS
 62
    7
 10
-4325.0235368896301
 20
10053.33922448892
 40
235.74627358302268
 50
40.05422816298821
 51
51.343586766425858
  0
ARC
  8
_0-1_レイヤ___3
  6
CONTINUOUS
 62
    7
 10
-4357.5478157618109
 20
10015.621078401622
 40
285.52275923749096
 50
50.974792361685537
 51
70.765150450440316
  0
ARC
  8
_0-1_レイヤ___3
  6
CONTINUOUS
 62
    7
 10
-4375.8269770371544
 20
9970.1725065434257
 40
334.4639357459223
 50
70.373519651520297
 51
85.910519893971738
  0
ARC
  8
_0-1_レイヤ___3
  6
CONTINUOUS
 62
    7
 10
-4383.9992004674614
 20
9903.8985793447791
 40
401.16654099226736
 50
85.421325868018101
 51
90.065086140256781
  0
ARC
  8
_0-1_レイヤ___3
  6
CONTINUOUS
 62
    7
 10
-4061.8622254001116
 20
10237.436075383321
 40
85.802528749285102
 50
212.71367058105758
 51
215.7756040283295
  0
ARC
  8
_0-1_レイヤ___3
  6
CONTINUOUS
 62
    7
 10
-3999.1870760191214
 20
10282.286544738772
 40
162.87201205520844
 50
215.68663731110288
 51
220.23440846731762
  0
ARC
  8
_0-1_レイヤ___3
  6
CONTINUOUS
 62
    7
 10
-3942.9175568337532
 20
10329.089688295313
 40
236.06034213028335
 50
220.0850184249372
 51
231.36454602664637
  0
ARC
  8
_0-1_レイヤ___3
  6
CONTINUOUS
 62
    7
 10
-3910.3895361090076
 20
10366.825234270487
 40
285.8521394627619
 50
230.99411895665307
 51
250.76855345956992
  0
ARC
  8
_0-1_レイヤ___3
  6
CONTINUOUS
 62
    7
 10
-3892.1624755039556
 20
10412.175246068236
 40
334.68285969358692
 50
250.37954526170159
 51
265.90970154733179
  0
ARC
  8
_0-1_レイヤ___3
  6
CONTINUOUS
 62
    7
 10
-3884.0090733106636
 20
10478.2707129091
 40
401.2061044525978
 50
265.42155495706544
 51
270.06485705120957
  0
ARC
  8
_0-1_レイヤ___3
  6
CONTINUOUS
 62
    7
 10
-3705.1521885971601
 20
10237.371115202024
 40
85.687131946292851
 50
324.22233369226649
 51
327.28839169836988
  0
ARC
  8
_0-1_レイヤ___3
  6
CONTINUOUS
 62
    7
 10
-3767.7432971834596
 20
10282.024680678292
 40
162.57352260626021
 50
319.79746805851795
 51
324.35142471935831
  0
ARC
  8
_0-1_レイヤ___3
  6
CONTINUOUS
 62
    7
 10
-3823.9651113374293
 20
10328.776075920003
 40
235.69226502682088
 50
308.64561282955856
 51
319.9393153507495
  0
ARC
  8
_0-1_レイヤ___3
  6
CONTINUOUS
 62
    7
 10
-3855.7380253157235
 20
10365.479091458477
 40
284.20673230090415
 50
290.99190648966862
 51
309.02750531113168
  0
ARC
  8
_0-1_レイヤ___3
  6
CONTINUOUS
 62
    7
 10
-3873.354801032342
 20
10406.382261696512
 40
328.71106488204566
 50
275.2398979032406
 51
291.3047107989762
  0
ARC
  8
_0-1_レイヤ___3
  6
CONTINUOUS
 62
    7
 10
-3882.8684690151194
 20
10472.60795705465
 40
395.54368721071808
 50
269.90056523732062
 51
275.73613941788807
  0
ARC
  8
_0-1_レイヤ___3
  6
CONTINUOUS
 62
    7
 10
-2290.8576774027965
 20
10144.758611797966
 40
85.687131946333949
 50
144.22233369227664
 51
147.28839169838002
  0
ARC
  8
_0-1_レイヤ___3
  6
CONTINUOUS
 62
    7
 10
-2228.2665688165407
 20
10100.105046321725
 40
162.57352260625143
 50
139.79746805852193
 51
144.35142471936226
  0
ARC
  8
_0-1_レイヤ___3
  6
CONTINUOUS
 62
    7
 10
-2172.0447551625703
 20
10053.353656136807
 40
235.69226138958453
 50
128.64561369218288
 51
139.93931621337379
  0
ARC
  8
_0-1_レイヤ___3
  6
CONTINUOUS
 62
    7
 10
-2140.2718416842758
 20
10016.650635541526
 40
284.20673230090256
 50
110.99190648966881
 51
129.02750531113188
  0
ARC
  8
_0-1_レイヤ___3
  6
CONTINUOUS
 62
    7
 10
-2122.6550654676571
 20
9975.747461760342
 40
328.71106836472364
 50
95.239897760050809
 51
111.30471065578642
  0
ARC
  8
_0-1_レイヤ___3
  6
CONTINUOUS
 62
    7
 10
-2113.1413974848801
 20
9909.5217797552341
 40
395.54367739998446
 50
89.900565307281127
 51
95.736139487848547
  0
ARC
  8
_0-1_レイヤ___3
  6
CONTINUOUS
 62
    7
 10
-1934.0522155972035
 20
10144.758611797955
 40
85.687131946339932
 50
32.711608301625859
 51
35.777666307729241
  0
ARC
  8
_0-1_レイヤ___3
  6
CONTINUOUS
 62
    7
 10
-1996.6433241834598
 20
10100.105046321725
 40
162.57352260625143
 50
35.648575280637729
 51
40.202531941478085
  0
ARC
  8
_0-1_レイヤ___3
  6
CONTINUOUS
 62
    7
 10
-2052.8651378374298
 20
10053.353656136811
 40
235.69226138958246
 50
40.060683786625717
 51
51.354386307816618
  0
ARC
  8
_0-1_レイヤ___3
  6
CONTINUOUS
 62
    7
 10
-2084.6380513157237
 20
10016.650635541526
 40
284.20673230090256
 50
50.972494688868125
 51
69.008093510331193
  0
ARC
  8
_0-1_レイヤ___3
  6
CONTINUOUS
 62
    7
 10
-2102.2548275323425
 20
9975.747461760342
 40
328.71106836472364
 50
68.695289344213577
 51
84.760102239949205
  0
ARC
  8
_0-1_レイヤ___3
  6
CONTINUOUS
 62
    7
 10
-2111.7684955151199
 20
9909.5217797552286
 40
395.54367739998997
 50
84.263860512151496
 51
90.09943469271893
  0
ARC
  8
_0-1_レイヤ___3
  6
CONTINUOUS
 62
    7
 10
-1789.8576854028386
 20
10237.371115202044
 40
85.687131946304817
 50
212.71160830164183
 51
215.77766630774522
  0
ARC
  8
_0-1_レイヤ___3
  6
CONTINUOUS
 62
    7
 10
-1727.2665768165405
 20
10282.024680678269
 40
162.57352260624702
 50
215.64857528063575
 51
220.20253194147608
  0
ARC
  8
_0-1_レイヤ___3
  6
CONTINUOUS
 62
    7
 10
-1671.0447626625705
 20
10328.776075920005
 40
235.69226502682301
 50
220.06068464925102
 51
231.35438717044192
  0
ARC
  8
_0-1_レイヤ___3
  6
CONTINUOUS
 62
    7
 10
-1639.2718491842761
 20
10365.479088307937
 40
284.20672953857877
 50
230.9724943672266
 51
249.00809318868966
  0
ARC
  8
_0-1_レイヤ___3
  6
CONTINUOUS
 62
    7
 10
-1621.6550734676571
 20
10406.382265239659
 40
328.71106836472364
 50
248.69528934421356
 51
264.76010223994922
  0
ARC
  8
_0-1_レイヤ___3
  6
CONTINUOUS
 62
    7
 10
-1612.1414054848799
 20
10472.607947244769
 40
395.54367739998446
 50
264.26386051215144
 51
270.09943469271889
  0
ARC
  8
_0-1_レイヤ___3
  6
CONTINUOUS
 62
    7
 10
-1433.0522225971606
 20
10237.371115202033
 40
85.68713194629882
 50
324.22233369226063
 51
327.28839169836402
  0
ARC
  8
_0-1_レイヤ___3
  6
CONTINUOUS
 62
    7
 10
-1495.6433311834594
 20
10282.024680678278
 40
162.57352260625143
 50
319.79746805852193
 51
324.35142471936229
  0
ARC
  8
_0-1_レイヤ___3
  6
CONTINUOUS
 62
    7
 10
-1551.8651453374298
 20
10328.77607592001
 40
235.69226502682505
 50
308.64561282955759
 51
319.93931535074847
  0
ARC
  8
_0-1_レイヤ___3
  6
CONTINUOUS
 62
    7
 10
-1583.6380588157244
 20
10365.479088307933
 40
284.20672953857724
 50
290.99190681131051
 51
309.02750563277357
  0
ARC
  8
_0-1_レイヤ___3
  6
CONTINUOUS
 62
    7
 10
-1601.2548345323426
 20
10406.382265239659
 40
328.71106836472171
 50
275.23989776005089
 51
291.30471065578649
  0
ARC
  8
_0-1_レイヤ___3
  6
CONTINUOUS
 62
    7
 10
-1610.7685030151197
 20
10472.60795705465
 40
395.54368721071808
 50
269.90056523732062
 51
275.73613941788807
  0
ARC
  8
_0-1_レイヤ___3
  6
CONTINUOUS
 62
    7
 10
-640.93049659558972
 20
10245.524901377827
 40
100.9705718426374
 50
212.64045269264682
 51
215.49730146255212
  0
ARC
  8
_0-1_レイヤ___3
  6
CONTINUOUS
 62
    7
 10
-552.66785194392128
 20
10307.947182752345
 40
209.0758271115559
 50
215.37936993240547
 51
221.38465549162268
  0
ARC
  8
_0-1_レイヤ___3
  6
CONTINUOUS
 62
    7
 10
-479.13235423571393
 20
10370.555274237853
 40
305.6439400285019
 50
221.07703081915608
 51
231.23007117872271
  0
ARC
  8
_0-1_レイヤ___3
  6
CONTINUOUS
 62
    7
 10
-442.10252755693944
 20
10414.013849938307
 40
362.7188131343749
 50
230.96826502924114
 51
251.34834199623455
  0
ARC
  8
_0-1_レイヤ___3
  6
CONTINUOUS
 62
    7
 10
-420.23152458832328
 20
10469.11676633332
 40
421.93378118613771
 50
250.92742234098728
 51
264.01237634896836
  0
ARC
  8
_0-1_レイヤ___3
  6
CONTINUOUS
 62
    7
 10
-409.52198446129643
 20
10543.581950562448
 40
497.11823018035136
 50
263.68004814851218
 51
270.12297957024816
  0
ARC
  8
_0-1_レイヤ___3
  6
CONTINUOUS
 62
    7
 10
-175.84591341847215
 20
10245.502223718271
 40
100.93010227783145
 50
324.50212566871295
 51
327.36012017608812
  0
ARC
  8
_0-1_レイヤ___3
  6
CONTINUOUS
 62
    7
 10
-264.07958312639153
 20
10307.897670728826
 40
208.9961945030376
 50
318.6141993796906
 51
324.62177519628352
  0
ARC
  8
_0-1_レイヤ___3
  6
CONTINUOUS
 62
    7
 10
-337.62051756901485
 20
10370.546918730302
 40
305.59542888809415
 50
308.76110525464964
 51
318.91711914959734
  0
ARC
  8
_0-1_レイヤ___3
  6
CONTINUOUS
 62
    7
 10
-374.71868033572463
 20
10414.072350149027
 40
362.76505364824902
 50
288.6444027766882
 51
309.02607137185748
  0
ARC
  8
_0-1_レイヤ___3
  6
CONTINUOUS
 62
    7
 10
-396.6608469280348
 20
10469.392110608376
 40
422.20787734973584
 50
275.98405353516426
 51
289.06580942457413
  0
ARC
  8
_0-1_レイヤ___3
  6
CONTINUOUS
 62
    7
 10
-407.38847434836458
 20
10543.953934779156
 40
497.49021243479353
 50
269.87717178965937
 51
276.31758418819595
  0
ARC
  8
_0-1_レイヤ___3
  6
CONTINUOUS
 62
    7
 10
-1276.0226190732164
 20
10136.86405511169
 40
100.7533113132661
 50
144.59559624777009
 51
147.4554239348
  0
ARC
  8
_0-1_レイヤ___3
  6
CONTINUOUS
 62
    7
 10
-1187.8515067695196
 20
10074.411363475117
 40
208.80176608438217
 50
138.63276352575733
 51
144.64423277713425
  0
ARC
  8
_0-1_レイヤ___3
  6
CONTINUOUS
 62
    7
 10
-1114.3625214196113
 20
10011.8442922704
 40
305.30820552446175
 50
128.77234981341056
 51
138.93522570002384
  0
ARC
  8
_0-1_レイヤ___3
  6
CONTINUOUS
 62
    7
 10
-1077.2630257264518
 20
9968.3715807244535
 40
362.43800051855146
 50
108.64653596687239
 51
129.04116488951158
  0
ARC
  8
_0-1_レイヤ___3
  6
CONTINUOUS
 62
    7
 10
-1055.2727247403093
 20
9912.976211014502
 40
421.96811857703125
 50
95.984238880830361
 51
109.07079194618402
  0
ARC
  8
_0-1_レイヤ___3
  6
CONTINUOUS
 62
    7
 10
-1044.5243282788269
 20
9838.2288048303435
 40
497.43720610568312
 50
89.876828286418601
 51
96.317927691436694
  0
ARC
  8
_0-1_レイヤ___3
  6
CONTINUOUS
 62
    7
 10
-810.8873059267836
 20
10136.864055111695
 40
100.75331131326293
 50
32.544576065197333
 51
35.404403752227225
  0
ARC
  8
_0-1_レイヤ___3
  6
CONTINUOUS
 62
    7
 10
-899.05841773048019
 20
10074.411372997445
 40
208.80176016648454
 50
35.355765171199238
 51
41.367234422576153
  0
ARC
  8
_0-1_レイヤ___3
  6
CONTINUOUS
 62
    7
 10
-972.5474030803889
 20
10011.84428664744
 40
305.30820959523527
 50
41.064775033949324
 51
51.22765092056261
  0
ARC
  8
_0-1_レイヤ___3
  6
CONTINUOUS
 62
    7
 10
-1009.6468992735483
 20
9968.3715807244535
 40
362.43800051855209
 50
50.958835110488486
 51
71.353464033127693
  0
ARC
  8
_0-1_レイヤ___3
  6
CONTINUOUS
 62
    7
 10
-1031.6372002596906
 20
9912.9762110145039
 40
421.96811857702994
 50
70.929208053815955
 51
84.015761119169611
  0
ARC
  8
_0-1_レイヤ___3
  6
CONTINUOUS
 62
    7
 10
-1042.385596721173
 20
9838.2288048303435
 40
497.43720610568312
 50
83.682072308563306
 51
90.123171713581399
  0
ARC
  8
_0-1_レイヤ___3
  6
CONTINUOUS
 62
    7
 10
-18.757711402796531
 20
10144.758611797961
 40
85.687131946336947
 50
144.22233369227371
 51
147.2883916983771
  0
ARC
  8
_0-1_レイヤ___3
  6
CONTINUOUS
 62
    7
 10
43.83339718345951
 20
10100.105046321722
 40
162.57352260625362
 50
139.79746805852093
 51
144.35142471936129
  0
ARC
  8
_0-1_レイヤ___3
  6
CONTINUOUS
 62
    7
 10
100.05521083742991
 20
10053.353656136809
 40
235.69226138958345
 50
128.64561369218313
 51
139.93931621337404
  0
ARC
  8
_0-1_レイヤ___3
  6
CONTINUOUS
 62
    7
 10
131.82812431572415
 20
10016.650635541526
 40
284.20673230090256
 50
110.99190648966881
 51
129.02750531113188
  0
ARC
  8
_0-1_レイヤ___3
  6
CONTINUOUS
 62
    7
 10
149.4449005323429
 20
9975.7474617603439
 40
328.71106836472256
 50
95.239897760050852
 51
111.30471065578647
  0
ARC
  8
_0-1_レイヤ___3
  6
CONTINUOUS
 62
    7
 10
158.95856851511979
 20
9909.5217797552305
 40
395.54367739998719
 50
89.900565307281099
 51
95.736139487848533
  0
ARC
  8
_0-1_レイヤ___3
  6
CONTINUOUS
 62
    7
 10
337.95232440006856
 20
10144.693651616688
 40
85.802528749315769
 50
32.713670581037185
 51
35.77560402830909
  0
ARC
  8
_0-1_レイヤ___3
  6
CONTINUOUS
 62
    7
 10
275.27717551912218
 20
10099.843194853276
 40
162.87200430350629
 50
35.686633815836018
 51
40.234404972050754
  0
ARC
  8
_0-1_レイヤ___3
  6
CONTINUOUS
 62
    7
 10
219.00765633375315
 20
10053.040033641475
 40
236.0603457731514
 50
40.085019287030654
 51
51.364546888739845
  0
ARC
  8
_0-1_レイヤ___3
  6
CONTINUOUS
 62
    7
 10
186.47963510900809
 20
10015.304492729518
 40
285.85213946276093
 50
50.994118956652962
 51
70.768553459569802
  0
ARC
  8
_0-1_レイヤ___3
  6
CONTINUOUS
 62
    7
 10
168.25257500395566
 20
9969.954484598471
 40
334.68285607188528
 50
70.379545131548312
 51
85.909701417178496
  0
ARC
  8
_0-1_レイヤ___3
  6
CONTINUOUS
 62
    7
 10
160.0991728106635
 20
9903.859001758221
 40
401.20611678583725
 50
85.421555026476128
 51
90.064857120620218
  0
ARC
  8
_0-1_レイヤ___3
  6
CONTINUOUS
 62
    7
 10
482.27936018747573
 20
10237.396356717345
 40
85.731971558109663
 50
212.71241029907154
 51
215.77686431030966
  0
ARC
  8
_0-1_レイヤ___3
  6
CONTINUOUS
 62
    7
 10
544.89795123407805
 20
10282.074987124
 40
162.65530541513496
 50
215.64972074407166
 51
220.20138647804609
  0
ARC
  8
_0-1_レイヤ___3
  6
CONTINUOUS
 62
    7
 10
601.11363638963041
 20
10328.790507569851
 40
235.74627722112217
 50
220.05422902587941
 51
231.34358762931706
  0
ARC
  8
_0-1_レイヤ___3
  6
CONTINUOUS
 62
    7
 10
633.63791526181126
 20
10366.508645732083
 40
285.52275669592325
 50
230.9747920774642
 51
250.76515016621897
  0
ARC
  8
_0-1_レイヤ___3
  6
CONTINUOUS
 62
    7
 10
651.91707603715417
 20
10411.957220456574
 40
334.46393574591974
 50
250.37351965152021
 51
265.91051989397164
  0
ARC
  8
_0-1_レイヤ___3
  6
CONTINUOUS
 62
    7
 10
660.08929996746156
 20
10478.231159986703
 40
401.16655332430651
 50
265.42132593742883
 51
270.06508620966753
  0
ARC
  8
_0-1_レイヤ___3
  6
CONTINUOUS
 62
    7
 10
838.94774340283914
 20
10237.371115202037
 40
85.687131946301065
 50
324.22233369225842
 51
327.28839169836181
  0
ARC
  8
_0-1_レイヤ___3
  6
CONTINUOUS
 62
    7
 10
776.3566348165408
 20
10282.024680678278
 40
162.57352260625197
 50
319.79746805852164
 51
324.351424719362
  0
ARC
  8
_0-1_レイヤ___3
  6
CONTINUOUS
 62
    7
 10
720.13482116257035
 20
10328.77607086319
 40
235.69226138958373
 50
308.64561369218308
 51
319.93931621337396
  0
ARC
  8
_0-1_レイヤ___3
  6
CONTINUOUS
 62
    7
 10
688.36190768427605
 20
10365.479091458476
 40
284.20673230090233
 50
290.99190648966885
 51
309.0275053111319
  0
ARC
  8
_0-1_レイヤ___3
  6
CONTINUOUS
 62
    7
 10
670.7451314676573
 20
10406.382265239659
 40
328.71106836472325
 50
275.23989776005084
 51
291.30471065578644
  0
ARC
  8
_0-1_レイヤ___3
  6
CONTINUOUS
 62
    7
 10
661.23146348488046
 20
10472.607947244771
 40
395.54367739998719
 50
269.90056530728111
 51
275.7361394878485
  0
ARC
  8
_0-1_レイヤ___3
  6
CONTINUOUS
 62
    7
 10
1631.0773369267383
 20
10245.265671888308
 40
100.75331131322702
 50
212.54457606521339
 51
215.4044037522433
  0
ARC
  8
_0-1_レイヤ___3
  6
CONTINUOUS
 62
    7
 10
1719.2484492304802
 20
10307.718363524884
 40
208.80176608438285
 50
215.35576722286598
 51
221.3672364742429
  0
ARC
  8
_0-1_レイヤ___3
  6
CONTINUOUS
 62
    7
 10
1792.7374350803889
 20
10370.285440352563
 40
305.30820959523629
 50
221.06477503394947
 51
231.22765092056275
  0
ARC
  8
_0-1_レイヤ___3
  6
CONTINUOUS
 62
    7
 10
1829.8369312735485
 20
10413.75814627555
 40
362.43800051855175
 50
230.95883511048842
 51
251.35346403312764
  0
ARC
  8
_0-1_レイヤ___3
  6
CONTINUOUS
 62
    7
 10
1851.8272322596908
 20
10469.153515985499
 40
421.96811857703062
 50
250.92920805381596
 51
264.01576111916961
  0
ARC
  8
_0-1_レイヤ___3
  6
CONTINUOUS
 62
    7
 10
1862.5756287211732
 20
10543.90092216966
 40
497.43720610568437
 50
263.68207230856331
 51
270.12317171358143
  0
ARC
  8
_0-1_レイヤ___3
  6
CONTINUOUS
 62
    7
 10
2096.2126510732619
 20
10245.26567188831
 40
100.75331131322829
 50
324.59559624775562
 51
327.45542393478553
  0
ARC
  8
_0-1_レイヤ___3
  6
CONTINUOUS
 62
    7
 10
2008.0415387695198
 20
10307.718363524888
 40
208.8017660843839
 50
318.63276352575673
 51
324.64423277713365
  0
ARC
  8
_0-1_レイヤ___3
  6
CONTINUOUS
 62
    7
 10
1934.5525534196111
 20
10370.285434729602
 40
305.30820552446175
 50
308.77234981341053
 51
318.93522570002381
  0
ARC
  8
_0-1_レイヤ___3
  6
CONTINUOUS
 62
    7
 10
1897.4530572264518
 20
10413.758149055178
 40
362.43800299241167
 50
288.64653575148515
 51
309.04116467412439
  0
ARC
  8
_0-1_レイヤ___3
  6
CONTINUOUS
 62
    7
 10
1875.4627562403095
 20
10469.153511626333
 40
421.96811429374577
 50
275.9842390100597
 51
289.07079207541335
  0
ARC
  8
_0-1_レイヤ___3
  6
CONTINUOUS
 62
    7
 10
1864.7143602788269
 20
10543.900922169654
 40
497.43720610568181
 50
269.87682828641857
 51
276.31792769143669
  0
ARC
  8
_0-1_レイヤ___3
  6
CONTINUOUS
 62
    7
 10
996.0359454185176
 20
10136.627503281727
 40
100.93010227787077
 50
144.50212566872608
 51
147.3601201761013
  0
ARC
  8
_0-1_レイヤ___3
  6
CONTINUOUS
 62
    7
 10
1084.269615126392
 20
10074.232056271174
 40
208.99619450303848
 50
138.61419937969035
 51
144.62177519628324
  0
ARC
  8
_0-1_レイヤ___3
  6
CONTINUOUS
 62
    7
 10
1157.8105495690149
 20
10011.582808269703
 40
305.59542888809329
 50
128.76110525464975
 51
138.91711914959751
  0
ARC
  8
_0-1_レイヤ___3
  6
CONTINUOUS
 62
    7
 10
1194.9087118357247
 20
9968.0573796324115
 40
362.76505117262718
 50
108.64440299195788
 51
129.02607158712718
  0
ARC
  8
_0-1_レイヤ___3
  6
CONTINUOUS
 62
    7
 10
1216.8508784280348
 20
9912.7376120308472
 40
422.20788163462692
 50
95.984053405987382
 51
109.06580929539723
  0
ARC
  8
_0-1_レイヤ___3
  6
CONTINUOUS
 62
    7
 10
1227.5785063483647
 20
9838.1757922208417
 40
497.49021243479706
 50
89.877171789659343
 51
96.317584188195951
  0
ARC
  8
_0-1_レイヤ___3
  6
CONTINUOUS
 62
    7
 10
1461.1205275955444
 20
10136.604825622167
 40
100.97057184267894
 50
32.640452692635513
 51
35.497301462540811
  0
ARC
  8
_0-1_レイヤ___3
  6
CONTINUOUS
 62
    7
 10
1372.8578834439213
 20
10074.182553779814
 40
209.07582118488511
 50
35.379367881899604
 51
41.384653441116832
  0
ARC
  8
_0-1_レイヤ___3
  6
CONTINUOUS
 62
    7
 10
1299.3223857357139
 20
10011.574447133708
 40
305.64394410371193
 50
41.077031552933882
 51
51.230071912500513
  0
ARC
  8
_0-1_レイヤ___3
  6
CONTINUOUS
 62
    7
 10
1262.2925590569398
 20
9968.1158798433516
 40
362.71881065871497
 50
50.968264813883259
 51
71.34834178087668
  0
ARC
  8
_0-1_レイヤ___3
  6
CONTINUOUS
 62
    7
 10
1240.4215560883235
 20
9913.0129563069768
 40
421.93378546990107
 50
70.92742247026915
 51
84.012376478250204
  0
ARC
  8
_0-1_レイヤ___3
  6
CONTINUOUS
 62
    7
 10
1229.7120159612969
 20
9838.5477853209923
 40
497.11822129585903
 50
83.680048093082036
 51
90.122979514817999
  0
ARC
  8
_0-1_レイヤ___3
  6
CONTINUOUS
 62
    7
 10
2253.2422545972036
 20
10144.758611797966
 40
85.687131946333949
 50
144.22233369227664
 51
147.28839169838002
  0
ARC
  8
_0-1_レイヤ___3
  6
CONTINUOUS
 62
    7
 10
2315.8333631834594
 20
10100.105046321722
 40
162.57352260625362
 50
139.79746805852093
 51
144.35142471936129
  0
ARC
  8
_0-1_レイヤ___3
  6
CONTINUOUS
 62
    7
 10
2372.0551768374298
 20
10053.353656136809
 40
235.69226138958345
 50
128.64561369218313
 51
139.93931621337404
  0
ARC
  8
_0-1_レイヤ___3
  6
CONTINUOUS
 62
    7
 10
2403.8280903157242
 20
10016.650635541526
 40
284.20673230090256
 50
110.99190648966881
 51
129.02750531113188
  0
ARC
  8
_0-1_レイヤ___3
  6
CONTINUOUS
 62
    7
 10
2421.444866532343
 20
9975.747461760342
 40
328.71106836472364
 50
95.239897760050809
 51
111.30471065578642
  0
ARC
  8
_0-1_レイヤ___3
  6
CONTINUOUS
 62
    7
 10
2430.9585345151199
 20
9909.5217797552323
 40
395.54367739998577
 50
89.900565307281113
 51
95.736139487848533
  0
ARC
  8
_0-1_レイヤ___3
  6
CONTINUOUS
 62
    7
 10
2610.0477174027969
 20
10144.758611797966
 40
85.687131946333949
 50
32.711608301619982
 51
35.777666307723365
  0
ARC
  8
_0-1_レイヤ___3
  6
CONTINUOUS
 62
    7
 10
2547.4566088165411
 20
10100.105046321722
 40
162.57352260625362
 50
35.648575280638724
 51
40.202531941479087
  0
ARC
  8
_0-1_レイヤ___3
  6
CONTINUOUS
 62
    7
 10
2491.2347946625705
 20
10053.353651079997
 40
235.69226502682244
 50
40.060684649250895
 51
51.354387170441797
  0
ARC
  8
_0-1_レイヤ___3
  6
CONTINUOUS
 62
    7
 10
2459.4618806842759
 20
10016.650635541524
 40
284.20673230090301
 50
50.972494688868174
 51
69.00809351033125
  0
ARC
  8
_0-1_レイヤ___3
  6
CONTINUOUS
 62
    7
 10
2441.8451049676569
 20
9975.7474653034842
 40
328.71106488205066
 50
68.695289201023982
 51
84.760102096759596
  0
ARC
  8
_0-1_レイヤ___3
  6
CONTINUOUS
 62
    7
 10
2432.3314369848804
 20
9909.5217699453588
 40
395.5436872107112
 50
84.263860582111889
 51
90.099434762679323
  0
ARC
  8
_0-1_レイヤ___3
  6
CONTINUOUS
 62
    7
 10
2754.242247097161
 20
10237.371096519384
 40
85.687121429294223
 50
212.7115979711987
 51
215.77765597730209
  0
ARC
  8
_0-1_レイヤ___3
  6
CONTINUOUS
 62
    7
 10
2816.8333551834594
 20
10282.024680678278
 40
162.57352260625251
 50
215.64857528063823
 51
220.20253194147855
  0
ARC
  8
_0-1_レイヤ___3
  6
CONTINUOUS
 62
    7
 10
2873.05516933743
 20
10328.776075920005
 40
235.69226502682244
 50
220.06068464925087
 51
231.35438717044178
  0
ARC
  8
_0-1_レイヤ___3
  6
CONTINUOUS
 62
    7
 10
2904.8280833157241
 20
10365.479091458477
 40
284.20673230090335
 50
230.97249468886821
 51
249.00809351033129
  0
ARC
  8
_0-1_レイヤ___3
  6
CONTINUOUS
 62
    7
 10
2922.4448590323432
 20
10406.382261696517
 40
328.71106488204964
 50
248.69528920102391
 51
264.76010209675957
  0
ARC
  8
_0-1_レイヤ___3
  6
CONTINUOUS
 62
    7
 10
2931.9585270151197
 20
10472.607957054643
 40
395.54368721071256
 50
264.26386058211187
 51
270.09943476267932
  0
ARC
  8
_0-1_レイヤ___3
  6
CONTINUOUS
 62
    7
 10
3111.0477094028392
 20
10237.371115202039
 40
85.687131946301804
 50
324.22233369225773
 51
327.28839169836107
  0
ARC
  8
_0-1_レイヤ___3
  6
CONTINUOUS
 62
    7
 10
3048.4566008165402
 20
10282.024680678278
 40
162.57352260625143
 50
319.79746805852193
 51
324.35142471936229
  0
ARC
  8
_0-1_レイヤ___3
  6
CONTINUOUS
 62
    7
 10
2992.2347871625702
 20
10328.77607086319
 40
235.69226138958345
 50
308.64561369218313
 51
319.93931621337401
  0
ARC
  8
_0-1_レイヤ___3
  6
CONTINUOUS
 62
    7
 10
2960.4618736842758
 20
10365.479091458477
 40
284.20673230090335
 50
290.99190648966874
 51
309.02750531113179
  0
ARC
  8
_0-1_レイヤ___3
  6
CONTINUOUS
 62
    7
 10
2942.8450974676571
 20
10406.382265239659
 40
328.71106836472256
 50
275.23989776005084
 51
291.30471065578644
  0
ARC
  8
_0-1_レイヤ___3
  6
CONTINUOUS
 62
    7
 10
2933.3314294848797
 20
10472.607947244771
 40
395.54367739998719
 50
269.90056530728111
 51
275.7361394878485
  0
ARC
  8
_0-1_レイヤ___3
  6
CONTINUOUS
 62
    7
 10
3903.1359024184721
 20
10245.502223718282
 40
100.9301022778378
 50
212.6398798239172
 51
215.49787433129242
  0
ARC
  8
_0-1_レイヤ___3
  6
CONTINUOUS
 62
    7
 10
3991.3695716263919
 20
10307.897661200306
 40
208.99618857862353
 50
215.37822275321037
 51
221.38579856980323
  0
ARC
  8
_0-1_レイヤ___3
  6
CONTINUOUS
 62
    7
 10
4064.9105060690144
 20
10370.546924357084
 40
305.59543296261558
 50
221.08288158398486
 51
231.23889547893262
  0
ARC
  8
_0-1_レイヤ___3
  6
CONTINUOUS
 62
    7
 10
4102.0086688357251
 20
10414.07234736759
 40
362.76505117262622
 50
230.97392841287277
 51
251.35559700804205
  0
ARC
  8
_0-1_レイヤ___3
  6
CONTINUOUS
 62
    7
 10
4123.9508354280351
 20
10469.392114969156
 40
422.20788163462777
 50
250.93419070460283
 51
264.01594659401269
  0
ARC
  8
_0-1_レイヤ___3
  6
CONTINUOUS
 62
    7
 10
4134.6784633483649
 20
10543.953934779158
 40
497.49021243479604
 50
263.68241581180405
 51
270.12282821034069
  0
ARC
  8
_0-1_レイヤ___3
  6
CONTINUOUS
 62
    7
 10
4368.2204845955894
 20
10245.524901377848
 40
100.97057184265014
 50
324.50269853743714
 51
327.35954730734244
  0
ARC
  8
_0-1_レイヤ___3
  6
CONTINUOUS
 62
    7
 10
4279.9578399439215
 20
10307.947182752338
 40
209.07582711155086
 50
318.61534450837905
 51
324.62063006759627
  0
ARC
  8
_0-1_レイヤ___3
  6
CONTINUOUS
 62
    7
 10
4206.4223422357136
 20
10370.555274237853
 40
305.6439400285019
 50
308.76992882127729
 51
318.92296918084389
  0
ARC
  8
_0-1_レイヤ___3
  6
CONTINUOUS
 62
    7
 10
4169.3925160569397
 20
10414.01384715665
 40
362.71881065871611
 50
288.65165821912319
 51
309.03173518611663
  0
ARC
  8
_0-1_レイヤ___3
  6
CONTINUOUS
 62
    7
 10
4147.5215130883234
 20
10469.116770693026
 40
421.93378546990107
 50
275.98762352174981
 51
289.07257752973084
  0
ARC
  8
_0-1_レイヤ___3
  6
CONTINUOUS
 62
    7
 10
4136.8119729612963
 20
10543.581941679005
 40
497.11822129585721
 50
269.87702048518202
 51
276.31995190691799
  0
ARC
  8
_0-1_レイヤ___3
  6
CONTINUOUS
 62
    7
 10
3268.0773129267836
 20
10136.864055111695
 40
100.75331131326293
 50
144.59559624777279
 51
147.4554239348027
  0
ARC
  8
_0-1_レイヤ___3
  6
CONTINUOUS
 62
    7
 10
3356.2484252304803
 20
10074.411363475112
 40
208.80176608438552
 50
138.63276352575616
 51
144.64423277713306
  0
ARC
  8
_0-1_レイヤ___3
  6
CONTINUOUS
 62
    7
 10
3429.7374105803892
 20
10011.8442922704
 40
305.30820552446175
 50
128.77234981341056
 51
138.93522570002384
  0
ARC
  8
_0-1_レイヤ___3
  6
CONTINUOUS
 62
    7
 10
3466.8369067735489
 20
9968.371577944823
 40
362.43800299241201
 50
108.64653575148515
 51
129.04116467412436
  0
ARC
  8
_0-1_レイヤ___3
  6
CONTINUOUS
 62
    7
 10
3488.8272077596912
 20
9912.9762153736719
 40
421.96811429374492
 50
95.984239010059753
 51
109.07079207541342
  0
ARC
  8
_0-1_レイヤ___3
  6
CONTINUOUS
 62
    7
 10
3499.5756037211731
 20
9838.2288048303435
 40
497.43720610568312
 50
89.876828286418601
 51
96.317927691436694
  0
ARC
  8
_0-1_レイヤ___3
  6
CONTINUOUS
 62
    7
 10
3733.2126270732165
 20
10136.864055111695
 40
100.75331131326293
 50
32.544576065197333
 51
35.404403752227225
  0
ARC
  8
_0-1_レイヤ___3
  6
CONTINUOUS
 62
    7
 10
3645.0415147695194
 20
10074.411363475116
 40
208.8017660843839
 50
35.355767222866348
 51
41.367236474243263
  0
ARC
  8
_0-1_レイヤ___3
  6
CONTINUOUS
 62
    7
 10
3571.5525289196112
 20
10011.844286647438
 40
305.30820959523646
 50
41.064775033949537
 51
51.227650920562823
  0
ARC
  8
_0-1_レイヤ___3
  6
CONTINUOUS
 62
    7
 10
3534.4530327264515
 20
9968.3715807244535
 40
362.43800051855209
 50
50.958835110488486
 51
71.353464033127693
  0
ARC
  8
_0-1_レイヤ___3
  6
CONTINUOUS
 62
    7
 10
3512.4627317403092
 20
9912.9762110145057
 40
421.96811857702875
 50
70.929208053815913
 51
84.015761119169582
  0
ARC
  8
_0-1_レイヤ___3
  6
CONTINUOUS
 62
    7
 10
3501.7143352788275
 20
9838.2288048303417
 40
497.43720610568568
 50
83.682072308563335
 51
90.123171713581428
  0
ARC
  8
_0-1_レイヤ___3
  6
CONTINUOUS
 62
    7
 10
4525.3422205972038
 20
10144.758611797966
 40
85.687131946333949
 50
144.22233369227664
 51
147.28839169838002
  0
ARC
  8
_0-1_レイヤ___3
  6
CONTINUOUS
 62
    7
 10
4587.9333291834591
 20
10100.105046321731
 40
162.57352260624702
 50
139.79746805852392
 51
144.35142471936425
  0
ARC
  8
_0-1_レイヤ___3
  6
CONTINUOUS
 62
    7
 10
4644.1551428374296
 20
10053.353656136806
 40
235.69226138958658
 50
128.64561369218239
 51
139.9393162133733
  0
ARC
  8
_0-1_レイヤ___3
  6
CONTINUOUS
 62
    7
 10
4675.9280563157245
 20
10016.650635541526
 40
284.20673230090256
 50
110.99190648966881
 51
129.02750531113188
  0
ARC
  8
_0-1_レイヤ___3
  6
CONTINUOUS
 62
    7
 10
4693.5448325323432
 20
9975.7474617603439
 40
328.71106836472171
 50
95.23989776005088
 51
111.30471065578651
  0
ARC
  8
_0-1_レイヤ___3
  6
CONTINUOUS
 62
    7
 10
4703.0585005151197
 20
9909.5217797552341
 40
395.54367739998446
 50
89.900565307281127
 51
95.736139487848547
  0
ARC
  8
_0-1_レイヤ___3
  6
CONTINUOUS
 62
    7
 10
4882.0522574000679
 20
10144.69365161669
 40
85.802528749314291
 50
32.713670581035714
 51
35.775604028307619
  0
ARC
  8
_0-1_レイヤ___3
  6
CONTINUOUS
 62
    7
 10
4819.3771080191218
 20
10099.843182261238
 40
162.87201205520404
 50
35.686637311100895
 51
40.234408467315632
  0
ARC
  8
_0-1_レイヤ___3
  6
CONTINUOUS
 62
    7
 10
4763.1075883337526
 20
10053.040033641475
 40
236.0603457731514
 50
40.085019287030654
 51
51.364546888739845
  0
ARC
  8
_0-1_レイヤ___3
  6
CONTINUOUS
 62
    7
 10
4730.5795676090074
 20
10015.304495598168
 40
285.85213691888589
 50
50.994118672633938
 51
70.768553175550778
  0
ARC
  8
_0-1_レイヤ___3
  6
CONTINUOUS
 62
    7
 10
4712.3525075039561
 20
9969.9544809317631
 40
334.68285969358885
 50
70.379545261701679
 51
85.909701547331878
  0
ARC
  8
_0-1_レイヤ___3
  6
CONTINUOUS
 62
    7
 10
4704.1991048106629
 20
9903.8590017582137
 40
401.2061167858443
 50
85.42155502647617
 51
90.06485712062026
  0
ARC
  8
_0-1_レイヤ___3
  6
CONTINUOUS
 62
    7
 10
5026.3422135971605
 20
10237.371115202033
 40
85.68713194629882
 50
212.71160830163598
 51
215.77766630773934
  0
ARC
  8
_0-1_レイヤ___3
  6
CONTINUOUS
 62
    7
 10
5088.9333216834584
 20
10282.024668103368
 40
162.57351487113877
 50
215.6485717820467
 51
220.20252844288706
  0
ARC
  8
_0-1_レイヤ___3
  6
CONTINUOUS
 62
    7
 10
5145.1551353374289
 20
10328.776075920005
 40
235.69226502682301
 50
220.06068464925102
 51
231.35438717044192
  0
ARC
  8
_0-1_レイヤ___3
  6
CONTINUOUS
 62
    7
 10
5176.9280493157239
 20
10365.479091458476
 40
284.20673230090256
 50
230.97249468886812
 51
249.00809351033121
  0
ARC
  8
_0-1_レイヤ___3
  6
CONTINUOUS
 62
    7
 10
5194.5448255323436
 20
10406.382265239663
 40
328.71106836472558
 50
248.69528934421368
 51
264.76010223994928
  0
ARC
  8
_0-1_レイヤ___3
  6
CONTINUOUS
 62
    7
 10
5204.0584935151201
 20
10472.607947244769
 40
395.54367739998446
 50
264.26386051215144
 51
270.09943469271889
  0
ARC
  8
_0-1_レイヤ___3
  6
CONTINUOUS
 62
    7
 10
5383.010595812525
 20
10237.39635671735
 40
85.731971558112647
 50
324.22313568968741
 51
327.28758970092554
  0
ARC
  8
_0-1_レイヤ___3
  6
CONTINUOUS
 62
    7
 10
5320.3920047659221
 20
10282.074987124006
 40
162.65530541513715
 50
319.79861352195292
 51
324.35027925592732
  0
ARC
  8
_0-1_レイヤ___3
  6
CONTINUOUS
 62
    7
 10
5264.1763201103695
 20
10328.790502511083
 40
235.74627358302268
 50
308.65641323357414
 51
319.94577183701176
  0
ARC
  8
_0-1_レイヤ___3
  6
CONTINUOUS
 62
    7
 10
5231.6520412381888
 20
10366.508648598377
 40
285.52275923748948
 50
289.23484954955984
 51
309.02520763831461
  0
ARC
  8
_0-1_レイヤ___3
  6
CONTINUOUS
 62
    7
 10
5213.3728799628461
 20
10411.957220456572
 40
334.46393574591821
 50
274.08948010602842
 51
289.62648034847984
  0
ARC
  8
_0-1_レイヤ___3
  6
CONTINUOUS
 62
    7
 10
5205.2006565325382
 20
10478.231147655228
 40
401.16654099227435
 50
269.93491385974318
 51
274.57867413198187
  0
ARC
  8
_0-1_レイヤ___3
  6
CONTINUOUS
 62
    7
 10
6175.1772699267367
 20
10245.265671888299
 40
100.75331131322194
 50
212.54457606520913
 51
215.40440375223901
  0
ARC
  8
_0-1_レイヤ___3
  6
CONTINUOUS
 62
    7
 10
6263.3483817304796
 20
10307.718354002554
 40
208.80176016648289
 50
215.35576517119864
 51
221.36723442257554
  0
ARC
  8
_0-1_レイヤ___3
  6
CONTINUOUS
 62
    7
 10
6336.8373670803885
 20
10370.285440352563
 40
305.30820959523527
 50
221.06477503394933
 51
231.22765092056261
  0
ARC
  8
_0-1_レイヤ___3
  6
CONTINUOUS
 62
    7
 10
6373.9368632735477
 20
10413.758146275548
 40
362.43800051855146
 50
230.95883511048842
 51
251.35346403312761
  0
ARC
  8
_0-1_レイヤ___3
  6
CONTINUOUS
 62
    7
 10
6395.9271642596905
 20
10469.153515985501
 40
421.96811857703369
 50
250.92920805381607
 51
264.01576111916972
  0
ARC
  8
_0-1_レイヤ___3
  6
CONTINUOUS
 62
    7
 10
6406.6755607211735
 20
10543.900922169661
 40
497.43720610568812
 50
263.68207230856331
 51
270.12317171358143
  0
ARC
  8
_0-1_レイヤ___3
  6
CONTINUOUS
 62
    7
 10
6640.3125830732624
 20
10245.265671888299
 40
100.75331131322194
 50
324.59559624776097
 51
327.45542393479087
  0
ARC
  8
_0-1_レイヤ___3
  6
CONTINUOUS
 62
    7
 10
6552.1414712695196
 20
10307.718354002558
 40
208.80176016648622
 50
318.63276557742324
 51
324.64423482880017
  0
ARC
  8
_0-1_レイヤ___3
  6
CONTINUOUS
 62
    7
 10
6478.6524859196106
 20
10370.285440352563
 40
305.30820959523527
 50
308.77234907943739
 51
318.93522496605067
  0
ARC
  8
_0-1_レイヤ___3
  6
CONTINUOUS
 62
    7
 10
6441.5529897264514
 20
10413.758146275548
 40
362.43800051855146
 50
288.64653596687236
 51
309.04116488951161
  0
ARC
  8
_0-1_レイヤ___3
  6
CONTINUOUS
 62
    7
 10
6419.5626887403087
 20
10469.153515985501
 40
421.96811857703369
 50
275.98423888083028
 51
289.07079194618393
  0
ARC
  8
_0-1_レイヤ___3
  6
CONTINUOUS
 62
    7
 10
6408.8142922788284
 20
10543.900922169647
 40
497.43720610567294
 50
269.87682828641869
 51
276.31792769143675
  0
ARC
  8
_0-1_レイヤ___3
  6
CONTINUOUS
 62
    7
 10
5540.1358774185173
 20
10136.627503281741
 40
100.93010227786282
 50
144.50212566873279
 51
147.36012017610801
  0
ARC
  8
_0-1_レイヤ___3
  6
CONTINUOUS
 62
    7
 10
5628.3695471263927
 20
10074.232056271167
 40
208.99619450304266
 50
138.6141993796889
 51
144.62177519628176
  0
ARC
  8
_0-1_レイヤ___3
  6
CONTINUOUS
 62
    7
 10
5701.9104815690162
 20
10011.582808269701
 40
305.59542888809415
 50
128.76110525464961
 51
138.91711914959737
  0
ARC
  8
_0-1_レイヤ___3
  6
CONTINUOUS
 62
    7
 10
5739.008644335725
 20
9968.0573768509767
 40
362.76505364824754
 50
108.64440277668834
 51
129.02607137185763
  0
ARC
  8
_0-1_レイヤ___3
  6
CONTINUOUS
 62
    7
 10
5760.9508109280341
 20
9912.7376163916269
 40
422.2078773497347
 50
95.984053535164293
 51
109.06580942457414
  0
ARC
  8
_0-1_レイヤ___3
  6
CONTINUOUS
 62
    7
 10
5771.6784383483646
 20
9838.1757922208435
 40
497.49021243479604
 50
89.877171789659343
 51
96.317584188195951
  0
ARC
  8
_0-1_レイヤ___3
  6
CONTINUOUS
 62
    7
 10
6005.2204605955449
 20
10136.604825622162
 40
100.97057184268152
 50
32.640452692637687
 51
35.497301462542985
  0
ARC
  8
_0-1_レイヤ___3
  6
CONTINUOUS
 62
    7
 10
5916.9578159439207
 20
10074.182544247664
 40
209.07582711155086
 50
35.379369932403733
 51
41.384655491620954
  0
ARC
  8
_0-1_レイヤ___3
  6
CONTINUOUS
 62
    7
 10
5843.4223182357146
 20
10011.574452762146
 40
305.6439400285019
 50
41.077030819156093
 51
51.230071178722717
  0
ARC
  8
_0-1_レイヤ___3
  6
CONTINUOUS
 62
    7
 10
5806.3924915569396
 20
9968.115877061693
 40
362.71881313437632
 50
50.968265029241259
 51
71.34834199623468
  0
ARC
  8
_0-1_レイヤ___3
  6
CONTINUOUS
 62
    7
 10
5784.5214885883233
 20
9913.0129606666815
 40
421.93378118613651
 50
70.927422340987263
 51
84.012376348968317
  0
ARC
  8
_0-1_レイヤ___3
  6
CONTINUOUS
 62
    7
 10
5773.8119484612971
 20
9838.5477764375537
 40
497.11823018035136
 50
83.680048148512199
 51
90.122979570248162
  0
ARC
  8
_0-1_レイヤ___3
  6
CONTINUOUS
 62
    7
 10
6797.3421865972032
 20
10144.758611797955
 40
85.687131946339932
 50
144.22233369227075
 51
147.28839169837414
  0
ARC
  8
_0-1_レイヤ___3
  6
CONTINUOUS
 62
    7
 10
6859.9332951834594
 20
10100.105046321725
 40
162.57352260625143
 50
139.79746805852193
 51
144.35142471936226
  0
ARC
  8
_0-1_レイヤ___3
  6
CONTINUOUS
 62
    7
 10
6916.1551093374292
 20
10053.353651079999
 40
235.69226502682088
 50
128.64561282955856
 51
139.93931535074947
  0
ARC
  8
_0-1_レイヤ___3
  6
CONTINUOUS
 62
    7
 10
6947.9280228157231
 20
10016.650638692066
 40
284.20672953857724
 50
110.99190681131051
 51
129.0275056327736
  0
ARC
  8
_0-1_レイヤ___3
  6
CONTINUOUS
 62
    7
 10
6965.5447985323426
 20
9975.7474617603402
 40
328.71106836472558
 50
95.239897760050724
 51
111.30471065578634
  0
ARC
  8
_0-1_レイヤ___3
  6
CONTINUOUS
 62
    7
 10
6975.0584670151202
 20
9909.5217699453515
 40
395.54368721071808
 50
89.900565237320635
 51
95.736139417888069
  0
ARC
  8
_0-1_レイヤ___3
  6
CONTINUOUS
 62
    7
 10
7154.1476494027975
 20
10144.758611797955
 40
85.687131946339932
 50
32.711608301625859
 51
35.777666307729241
  0
ARC
  8
_0-1_レイヤ___3
  6
CONTINUOUS
 62
    7
 10
7091.5565408165412
 20
10100.105046321725
 40
162.57352260625143
 50
35.648575280637729
 51
40.202531941478085
  0
ARC
  8
_0-1_レイヤ___3
  6
CONTINUOUS
 62
    7
 10
7035.3347266625697
 20
10053.353651079993
 40
235.69226502682505
 50
40.060684649251506
 51
51.354387170442408
  0
ARC
  8
_0-1_レイヤ___3
  6
CONTINUOUS
 62
    7
 10
7003.5618131842766
 20
10016.650638692066
 40
284.20672953857724
 50
50.972494367226417
 51
69.008093188689486
  0
ARC
  8
_0-1_レイヤ___3
  6
CONTINUOUS
 62
    7
 10
6985.945037467658
 20
9975.7474617603439
 40
328.71106836472171
 50
68.695289344213506
 51
84.760102239949134
  0
ARC
  8
_0-1_レイヤ___3
  6
CONTINUOUS
 62
    7
 10
6976.4313694848806
 20
9909.5217797552341
 40
395.54367739998446
 50
84.263860512151453
 51
90.099434692718887
  0
ARC
  8
_0-1_レイヤ___3
  6
CONTINUOUS
 62
    7
 10
1089.6710026043893
 20
1347.2145019367056
 40
15.147679427684986
 50
244.9646152923585
 51
268.82673241824875
  0
ARC
  8
_0-1_レイヤ___3
  6
CONTINUOUS
 62
    7
 10
1087.0721659539299
 20
1341.5031977384665
 40
8.8734195852828019
 50
216.30014516218705
 51
244.56278850246639
  0
ARC
  8
_0-1_レイヤ___3
  6
CONTINUOUS
 62
    7
 10
1084.6683695279341
 20
1339.3295961620174
 40
5.6588837097315707
 50
146.29267294164765
 51
212.9704140076839
  0
ARC
  8
_0-1_レイヤ___3
  6
CONTINUOUS
 62
    7
 10
1094.4265432919719
 20
1333.9074948946316
 40
16.809909329998355
 50
97.058695797607513
 51
149.3779671984118
  0
ARC
  8
_0-1_レイヤ___3
  6
CONTINUOUS
 62
    7
 10
1093.3329862176338
 20
1341.1505969047573
 40
9.4893291507183495
 50
56.569905961786418
 51
95.880057398856934
  0
ARC
  8
_0-1_レイヤ___3
  6
CONTINUOUS
 62
    7
 10
1091.9509151678699
 20
1341.9402034444338
 40
9.7224006089054047
 50
289.40325332277496
 51
47.166870062500429
  0
ARC
  8
_0-1_レイヤ___3
  6
CONTINUOUS
 62
    7
 10
1090.2459400171047
 20
1349.255590788568
 40
17.208369844599932
 50
267.05173044110495
 51
286.66487100643235
  0
ARC
  8
_0-1_レイヤ___3
  6
CONTINUOUS
 62
    7
 10
1102.5390140725581
 20
1227.7400227073256
 40
47.083943983964033
 50
226.35265062417449
 51
240.22989235920573
  0
ARC
  8
_0-1_レイヤ___3
  6
CONTINUOUS
 62
    7
 10
1094.8823772702308
 20
1218.4277487110458
 40
35.072041685136796
 50
216.69554677276071
 51
224.90320881796478
  0
ARC
  8
_0-1_レイヤ___3
  6
CONTINUOUS
 62
    7
 10
1068.2966496413849
 20
1199.0297870396673
 40
2.1889832427355835
 50
186.28894491096497
 51
225.44376867727735
  0
ARC
  8
_0-1_レイヤ___3
  6
CONTINUOUS
 62
    7
 10
1066.912524016725
 20
1198.8032703096987
 40
0.7917957642342633
 50
132.18232631187649
 51
180.96028807052608
  0
ARC
  8
_0-1_レイヤ___3
  6
CONTINUOUS
 62
    7
 10
1067.7850586191084
 20
1197.658188366561
 40
2.229574840367452
 50
103.07053287271198
 51
129.03645774826472
  0
ARC
  8
_0-1_レイヤ___3
  6
CONTINUOUS
 62
    7
 10
1064.5801851781027
 20
1213.3341438404036
 40
13.771544093538573
 50
281.3092208595798
 51
291.82843749962444
  0
ARC
  8
_0-1_レイヤ___3
  6
CONTINUOUS
 62
    7
 10
1069.2581216278718
 20
1201.2319863577452
 40
0.8130830720398312
 50
302.99000620268549
 51
37.77053819787951
  0
ARC
  8
_0-1_レイヤ___3
  6
CONTINUOUS
 62
    7
 10
1066.150408614039
 20
1199.5602264246977
 40
4.3328570397966866
 50
30.051093985725952
 51
42.187587713197878
  0
ARC
  8
_0-1_レイヤ___3
  6
CONTINUOUS
 62
    7
 10
1088.7799428854237
 20
819.8946560619404
 40
383.06787333970163
 50
91.259353681434206
 51
92.905776878023914
  0
ARC
  8
_0-1_レイヤ___3
  6
CONTINUOUS
 62
    7
 10
1079.3812937898379
 20
1194.6779542215743
 40
8.2504017125083315
 50
57.938571752485046
 51
83.181358591181592
  0
ARC
  8
_0-1_レイヤ___3
  6
CONTINUOUS
 62
    7
 10
1075.1131124785957
 20
1189.1677796247259
 40
15.201601999778028
 50
21.868354208773773
 51
55.328573310923893
  0
ARC
  8
_0-1_レイヤ___3
  6
CONTINUOUS
 62
    7
 10
1080.9707635826919
 20
1191.9754607272605
 40
8.7299569330028994
 50
309.81662388295388
 51
19.08570259611658
  0
ARC
  8
_0-1_レイヤ___3
  6
CONTINUOUS
 62
    7
 10
1084.5724725518414
 20
1187.5053767161987
 40
2.9917404213673553
 50
257.02677013907294
 51
311.65308686360288
  0
ARC
  8
_0-1_レイヤ___3
  6
CONTINUOUS
 62
    7
 10
1085.2895117903211
 20
1191.6500615337704
 40
7.1953370792990228
 50
243.87196142865025
 51
258.8723122184378
  0
ARC
  8
_0-1_レイヤ___3
  6
CONTINUOUS
 62
    7
 10
1094.64226607317
 20
1210.6991805093369
 40
28.416621899618999
 50
236.98887997409435
 51
243.8554426633799
  0
ARC
  8
_0-1_レイヤ___3
  6
CONTINUOUS
 62
    7
 10
1213.0049802553333
 20
1331.2368059130042
 40
2.2270963052326804
 50
270.92252643534169
 51
307.50281719905951
  0
ARC
  8
_0-1_レイヤ___3
  6
CONTINUOUS
 62
    7
 10
1213.0835409852289
 20
1330.126486747223
 40
1.1173048277919069
 50
226.95065524677315
 51
267.80961485721667
  0
ARC
  8
_0-1_レイヤ___3
  6
CONTINUOUS
 62
    7
 10
1198.0177247163874
 20
1317.2781198909322
 40
18.690776650889276
 50
40.070781223227364
 51
47.100372353944664
  0
ARC
  8
_0-1_レイヤ___3
  6
CONTINUOUS
 62
    7
 10
1210.7759597858876
 20
1330.0645334430633
 40
0.906145770379916
 50
92.221348234255743
 51
117.26577743865192
  0
ARC
  8
_0-1_レイヤ___3
  6
CONTINUOUS
 62
    7
 10
1215.2241648459267
 20
1332.451274931884
 40
5.1139406631300757
 50
173.72763126501928
 51
198.01156962100561
  0
ARC
  8
_0-1_レイヤ___3
  6
CONTINUOUS
 62
    7
 10
1212.2396874160324
 20
1332.7014054624121
 40
2.1214147806159152
 50
110.38225248103612
 51
171.63575943393565
  0
ARC
  8
_0-1_レイヤ___3
  6
CONTINUOUS
 62
    7
 10
1433.3087686086913
 20
838.27042467653905
 40
543.71973606085999
 50
113.76918246853886
 51
114.07582929750207
  0
ARC
  8
_0-1_レイヤ___3
  6
CONTINUOUS
 62
    7
 10
1214.9803205664666
 20
1333.9827680168321
 40
2.0574719067147611
 50
47.101793201552333
 51
113.47170474855992
  0
ARC
  8
_0-1_レイヤ___3
  6
CONTINUOUS
 62
    7
 10
1212.4876784098087
 20
1331.5310075242405
 40
5.5525035096327633
 50
18.25160402843596
 51
45.480351358781974
  0
ARC
  8
_0-1_レイヤ___3
  6
CONTINUOUS
 62
    7
 10
1213.6015910501028
 20
1331.5699982846459
 40
4.4932539090529842
 50
337.76879630468426
 51
22.231203695315713
  0
ARC
  8
_0-1_レイヤ___3
  6
CONTINUOUS
 62
    7
 10
1216.885162155816
 20
1331.3248391066168
 40
1.6980486018223924
 50
266.47764404391825
 51
301.04392617963032
  0
ARC
  8
_0-1_レイヤ___3
  6
CONTINUOUS
 62
    7
 10
1215.9122797251162
 20
1324.3856840119993
 40
5.3157525081263497
 50
80.596095963682757
 51
106.96919492951847
  0
ARC
  8
_0-1_レイヤ___3
  6
CONTINUOUS
 62
    7
 10
1151.6870427534798
 20
1269.0016662585842
 40
3.0627401222137096
 50
188.85891765423747
 51
214.4299526271891
  0
ARC
  8
_0-1_レイヤ___3
  6
CONTINUOUS
 62
    7
 10
1153.0339506625251
 20
1269.4434519146828
 40
4.4674936072996809
 50
150.10657462935472
 51
191.79828137084104
  0
ARC
  8
_0-1_レイヤ___3
  6
CONTINUOUS
 62
    7
 10
1150.9517886082103
 20
1267.971629820411
 40
4.1091882594680049
 50
347.32512454223786
 51
115.83876476811221
  0
ARC
  8
_0-1_レイヤ___3
  6
CONTINUOUS
 62
    7
 10
1152.5027745094258
 20
1268.0829903879808
 40
2.6586154852684407
 50
253.79539987055693
 51
337.60297197266016
  0
ARC
  8
_0-1_レイヤ___3
  6
CONTINUOUS
 62
    7
 10
1153.1149473613982
 20
1270.3659066443199
 40
5.0219137660936211
 50
218.05952355439862
 51
254.35716508347076
  0
ARC
  8
_0-1_レイヤ___3
  6
CONTINUOUS
 62
    7
 10
1225.9246288227484
 20
1193.4236317198893
 40
4.1917197904319989
 50
144.29449042613956
 51
262.27022200084076
  0
ARC
  8
_0-1_レイヤ___3
  6
CONTINUOUS
 62
    7
 10
1224.1341672527251
 20
1194.0006726149365
 40
2.469254737680969
 50
113.21481634189901
 51
130.79595007432289
  0
ARC
  8
_0-1_レイヤ___3
  6
CONTINUOUS
 62
    7
 10
1225.1391498987175
 20
1191.7317559494857
 40
4.9506950778798338
 50
31.928731066350039
 51
113.55336034784995
  0
ARC
  8
_0-1_レイヤ___3
  6
CONTINUOUS
 62
    7
 10
1218.7252692649668
 20
1186.5854690273577
 40
13.152118982539545
 50
24.837665889056815
 51
36.182808923165787
  0
ARC
  8
_0-1_レイヤ___3
  6
CONTINUOUS
 62
    7
 10
1209.4975606160306
 20
1182.2799282679418
 40
23.334836673787184
 50
17.430890272119932
 51
24.914266966745092
  0
LINE
  8
_0-1_レイヤ___3
  6
CONTINUOUS
 62
    7
 10
1231.7608374591555
 20
1189.2700002846461
 11
1225.3608374591556
 21
1189.2700002846461
  0
ARC
  8
_0-1_レイヤ___3
  6
CONTINUOUS
 62
    7
 10
1101.8338655691746
 20
1295.3969721746271
 40
3.7291361929185158
 50
271.9512493187687
 51
358.04875068122675
  0
ARC
  8
_0-1_レイヤ___3
  6
CONTINUOUS
 62
    7
 10
1101.9671734366552
 20
1295.0708224961163
 40
3.599181361922537
 50
3.1723227193421133
 51
90.10083136387432
  0
ARC
  8
_0-1_レイヤ___3
  6
CONTINUOUS
 62
    7
 10
1102.0701818158313
 20
1294.9483416716957
 40
3.7232625069529162
 50
91.682867219051829
 51
175.04397869772271
  0
ARC
  8
_0-1_レイヤ___3
  6
CONTINUOUS
 62
    7
 10
1102.0878133491369
 20
1295.3969721746273
 40
3.7291361929188103
 50
181.95124931877777
 51
268.04875068123579
  0
ARC
  8
_0-1_レイヤ___3
  6
CONTINUOUS
 62
    7
 10
1175.8338635691739
 20
1371.7969721746274
 40
3.7291361929193991
 50
271.95124931877325
 51
358.0487506812313
  0
ARC
  8
_0-1_レイヤ___3
  6
CONTINUOUS
 62
    7
 10
1175.8338635691746
 20
1371.5430243946648
 40
3.7291361929188103
 50
1.9512493187777669
 51
88.048750681235802
  0
ARC
  8
_0-1_レイヤ___3
  6
CONTINUOUS
 62
    7
 10
1176.0878113491367
 20
1371.5430243946648
 40
3.7291361929188103
 50
91.951249318764212
 51
178.04875068122226
  0
ARC
  8
_0-1_レイヤ___3
  6
CONTINUOUS
 62
    7
 10
1176.0878113491372
 20
1371.7969721746274
 40
3.7291361929193991
 50
181.9512493187687
 51
268.04875068122675
  0
ARC
  8
_0-1_レイヤ___3
  6
CONTINUOUS
 62
    7
 10
1149.433865569174
 20
1171.1969741746273
 40
3.7291361929189577
 50
271.95124931877547
 51
358.04875068123351
  0
ARC
  8
_0-1_レイヤ___3
  6
CONTINUOUS
 62
    7
 10
1149.4338655691745
 20
1170.9430263946651
 40
3.7291361929186633
 50
1.9512493187709792
 51
88.048750681229009
  0
ARC
  8
_0-1_レイヤ___3
  6
CONTINUOUS
 62
    7
 10
1149.6878133491368
 20
1170.9430263946647
 40
3.7291361929189577
 50
91.951249318766443
 51
178.0487506812245
  0
ARC
  8
_0-1_レイヤ___3
  6
CONTINUOUS
 62
    7
 10
1149.6878133491368
 20
1171.1969741746273
 40
3.7291361929192517
 50
181.95124931877098
 51
268.04875068122902
  0
ARC
  8
_0-1_レイヤ___3
  6
CONTINUOUS
 62
    7
 10
1205.8338635691746
 20
1255.1969741746277
 40
3.7291361929189577
 50
271.95124931876649
 51
358.04875068122448
  0
ARC
  8
_0-1_レイヤ___3
  6
CONTINUOUS
 62
    7
 10
1205.8338646397151
 20
1254.9430253946648
 40
3.7291351570482929
 50
1.951265234268764
 51
88.048766596726807
  0
ARC
  8
_0-1_レイヤ___3
  6
CONTINUOUS
 62
    7
 10
1206.087810278596
 20
1254.9430253946648
 40
3.7291351570482929
 50
91.951233403273164
 51
178.04873476573121
  0
ARC
  8
_0-1_レイヤ___3
  6
CONTINUOUS
 62
    7
 10
1206.0878113491367
 20
1255.1969741746277
 40
3.7291361929189577
 50
181.9512493187755
 51
268.04875068123351
  0
ARC
  8
_0-1_レイヤ___3
  6
CONTINUOUS
 62
    7
 10
1295.271000604389
 20
1244.4145039367074
 40
15.147679427686324
 50
244.96461529235967
 51
268.82673241824995
  0
ARC
  8
_0-1_レイヤ___3
  6
CONTINUOUS
 62
    7
 10
1292.6721639539282
 20
1238.7031997384654
 40
8.8734195852811624
 50
216.30014516218807
 51
244.56278850246741
  0
ARC
  8
_0-1_レイヤ___3
  6
CONTINUOUS
 62
    7
 10
1290.2683675279343
 20
1236.5295981620172
 40
5.6588837097318283
 50
146.29267294164768
 51
212.97041400768393
  0
ARC
  8
_0-1_レイヤ___3
  6
CONTINUOUS
 62
    7
 10
1300.0402172535041
 20
1231.1021994985006
 40
16.824376646403927
 50
97.305489827255457
 51
149.38616600136984
  0
ARC
  8
_0-1_レイヤ___3
  6
CONTINUOUS
 62
    7
 10
1298.8537768225724
 20
1238.749095457217
 40
9.0909876988557023
 50
55.821596082176647
 51
96.016948398120647
  0
ARC
  8
_0-1_レイヤ___3
  6
CONTINUOUS
 62
    7
 10
1297.9956150420589
 20
1238.4573259990148
 40
9.8296355028003859
 50
345.70351619411497
 51
52.637137500208588
  0
ARC
  8
_0-1_レイヤ___3
  6
CONTINUOUS
 62
    7
 10
1299.0206115395461
 20
1238.9622099225696
 40
8.9917551147833485
 50
297.27246380719032
 51
340.96778001783599
  0
ARC
  8
_0-1_レイヤ___3
  6
CONTINUOUS
 62
    7
 10
1296.6933668581264
 20
1242.826637850043
 40
13.496284885791017
 50
275.38872547016751
 51
298.53671020934826
  0
ARC
  8
_0-1_レイヤ___3
  6
CONTINUOUS
 62
    7
 10
1295.6388620809294
 20
1249.8793460407283
 40
20.620495868951942
 50
268.11571200448918
 51
276.46551113168402
  0
ARC
  8
_0-1_レイヤ___3
  6
CONTINUOUS
 62
    7
 10
1360.8813550091809
 20
1360.1751731256584
 40
15.721694094744835
 50
244.28922472371642
 51
267.37323509139321
  0
ARC
  8
_0-1_レイヤ___3
  6
CONTINUOUS
 62
    7
 10
1358.2433694762931
 20
1354.3659540232309
 40
9.3442809840941763
 50
216.17850262343646
 51
243.40996150981894
  0
ARC
  8
_0-1_レイヤ___3
  6
CONTINUOUS
 62
    7
 10
1355.5258993739778
 20
1352.0701765721178
 40
5.8009300965639978
 50
148.86021939503317
 51
213.71857641308927
  0
ARC
  8
_0-1_レイヤ___3
  6
CONTINUOUS
 62
    7
 10
1365.219920243499
 20
1346.0124058447607
 40
17.231620571543523
 50
96.595084355570904
 51
148.28880530572263
  0
ARC
  8
_0-1_レイヤ___3
  6
CONTINUOUS
 62
    7
 10
1364.081195444686
 20
1353.8052935684414
 40
9.3624955513845798
 50
57.142470791687444
 51
95.149691985214773
  0
ARC
  8
_0-1_レイヤ___3
  6
CONTINUOUS
 62
    7
 10
1363.1233786736959
 20
1353.9540187350353
 40
9.7973070201101606
 50
331.83784681174143
 51
51.95818879018519
  0
ARC
  8
_0-1_レイヤ___3
  6
CONTINUOUS
 62
    7
 10
1363.358674095914
 20
1354.9557211540989
 40
10.11163059935579
 50
285.02979531241652
 51
326.19545104153997
  0
ARC
  8
_0-1_レイヤ___3
  6
CONTINUOUS
 62
    7
 10
1361.0200906659798
 20
1361.406852029485
 40
16.958635979480107
 50
267.09571064290736
 51
287.0089013727702
  0
ARC
  8
_0-1_レイヤ___3
  6
CONTINUOUS
 62
    7
 10
1443.2640229948004
 20
1339.8563697913894
 40
15.389358402417209
 50
245.16681141274822
 51
268.87112871859046
  0
ARC
  8
_0-1_レイヤ___3
  6
CONTINUOUS
 62
    7
 10
1440.717791913532
 20
1334.1105906935318
 40
9.1060805556694131
 50
216.53200618869792
 51
244.52307411461572
  0
ARC
  8
_0-1_レイヤ___3
  6
CONTINUOUS
 62
    7
 10
1438.2656848657518
 20
1331.9106243122735
 40
5.8343132601954704
 50
147.2131008010235
 51
213.50533216208089
  0
ARC
  8
_0-1_レイヤ___3
  6
CONTINUOUS
 62
    7
 10
1447.3406101864016
 20
1326.7304143838694
 40
16.278292815333316
 50
87.252744181966747
 51
149.18196752749196
  0
ARC
  8
_0-1_レイヤ___3
  6
CONTINUOUS
 62
    7
 10
1447.0541026257342
 20
1334.6845730212647
 40
8.3736493523779991
 50
54.128255718851364
 51
82.681123383218178
  0
ARC
  8
_0-1_レイヤ___3
  6
CONTINUOUS
 62
    7
 10
1446.0616317326071
 20
1333.7355250382675
 40
9.7274178181804771
 50
345.07385884063586
 51
52.666676796266444
  0
ARC
  8
_0-1_レイヤ___3
  6
CONTINUOUS
 62
    7
 10
1446.8585050122806
 20
1334.267240412363
 40
9.1227679160594253
 50
297.42853094789604
 51
340.55329524896479
  0
ARC
  8
_0-1_レイヤ___3
  6
CONTINUOUS
 62
    7
 10
1444.6058236751901
 20
1338.0185744172954
 40
13.492809480692816
 50
275.59292707768907
 51
298.58119600775086
  0
ARC
  8
_0-1_レイヤ___3
  6
CONTINUOUS
 62
    7
 10
1443.6223265987394
 20
1344.7198341748551
 40
20.26063737284985
 50
268.12900743867158
 51
276.51405374100511
  0
ARC
  8
_0-1_レイヤ___3
  6
CONTINUOUS
 62
    7
 10
1062.0414308707136
 20
1117.5574095137572
 40
13.690282984502634
 50
233.09650071783634
 51
268.82560284228691
  0
ARC
  8
_0-1_レイヤ___3
  6
CONTINUOUS
 62
    7
 10
1058.0538369587321
 20
1111.7278671379906
 40
6.6415968327289834
 50
182.9159537640115
 51
230.4057730921779
  0
ARC
  8
_0-1_レイヤ___3
  6
CONTINUOUS
 62
    7
 10
1057.5356310542379
 20
1111.2072412134196
 40
6.1175221994238704
 50
147.76813320312002
 51
178.28803296818597
  0
ARC
  8
_0-1_レイヤ___3
  6
CONTINUOUS
 62
    7
 10
1066.3406161864013
 20
1106.1304183838697
 40
16.278292815333447
 50
87.252744181967614
 51
149.18196752749284
  0
ARC
  8
_0-1_レイヤ___3
  6
CONTINUOUS
 62
    7
 10
1066.0541086257342
 20
1114.0845770212652
 40
8.3736493523779991
 50
54.128255718851364
 51
82.681123383218178
  0
ARC
  8
_0-1_レイヤ___3
  6
CONTINUOUS
 62
    7
 10
1065.0851277897914
 20
1113.1618502720105
 40
9.6922440678826725
 50
344.85729014250552
 51
52.682725940556097
  0
ARC
  8
_0-1_レイヤ___3
  6
CONTINUOUS
 62
    7
 10
1065.8274764888336
 20
1113.7264447446544
 40
9.1530310589802006
 50
296.98576602730918
 51
340.22685121787117
  0
ARC
  8
_0-1_レイヤ___3
  6
CONTINUOUS
 62
    7
 10
1063.4723121741554
 20
1117.6599468591339
 40
13.730538490305488
 50
275.38478290535278
 51
298.29545452534103
  0
ARC
  8
_0-1_レイヤ___3
  6
CONTINUOUS
 62
    7
 10
1062.4373246386403
 20
1124.5178727975272
 40
20.658949366189397
 50
268.12349238583749
 51
276.4577276994404
  0
ARC
  8
_0-1_レイヤ___3
  6
CONTINUOUS
 62
    7
 10
806.21850665851582
 20
1305.2961703522351
 40
13.706718025812943
 50
270.51138977315009
 51
306.44421582904926
  0
ARC
  8
_0-1_レイヤ___3
  6
CONTINUOUS
 62
    7
 10
806.73537743799329
 20
1297.8255676781466
 40
6.2480383098710588
 50
188.79729066978453
 51
266.37963468098172
  0
ARC
  8
_0-1_レイヤ___3
  6
CONTINUOUS
 62
    7
 10
816.57132231802393
 20
1298.970809882994
 40
16.147719426037398
 50
125.29737441498517
 51
187.47534699669637
  0
ARC
  8
_0-1_レイヤ___3
  6
CONTINUOUS
 62
    7
 10
811.36300871988851
 20
1305.1424198720797
 40
8.1300923515698145
 50
91.424880523952865
 51
120.46591127789176
  0
ARC
  8
_0-1_レイヤ___3
  6
CONTINUOUS
 62
    7
 10
810.50584893928203
 20
1303.6821207909268
 40
9.610224381128214
 50
326.72931217820798
 51
86.091918797204571
  0
ARC
  8
_0-1_レイヤ___3
  6
CONTINUOUS
 62
    7
 10
804.54445578799437
 20
1308.3614235178466
 40
17.173518335315386
 50
304.86189281348203
 51
324.58719047425274
  0
ARC
  8
_0-1_レイヤ___3
  6
CONTINUOUS
 62
    7
 10
887.88423590163632
 20
1233.1280425156567
 40
60.298708179936838
 50
269.73071975891622
 51
276.93111676040326
  0
ARC
  8
_0-1_レイヤ___3
  6
CONTINUOUS
 62
    7
 10
887.88832689713786
 20
1205.5537558525166
 40
32.725018337547681
 50
254.16886952992229
 51
269.4966603418124
  0
ARC
  8
_0-1_レイヤ___3
  6
CONTINUOUS
 62
    7
 10
879.25356243167528
 20
1176.4043908946885
 40
2.3526716551885429
 50
225.3731995517698
 51
262.85274791560244
  0
ARC
  8
_0-1_レイヤ___3
  6
CONTINUOUS
 62
    7
 10
878.20503603520763
 20
1175.2165661107235
 40
0.7757544534602722
 50
170.09554582855
 51
218.84504237151191
  0
ARC
  8
_0-1_レイヤ___3
  6
CONTINUOUS
 62
    7
 10
879.55084208182541
 20
1174.942609609079
 40
2.1489675079458896
 50
141.85253012868492
 51
169.07201291812129
  0
ARC
  8
_0-1_レイヤ___3
  6
CONTINUOUS
 62
    7
 10
866.58934034816184
 20
1185.8566467290043
 40
14.796978489889955
 50
319.61814855464326
 51
329.51522342480439
  0
ARC
  8
_0-1_レイヤ___3
  6
CONTINUOUS
 62
    7
 10
878.53414386135398
 20
1178.6085005080897
 40
0.8471048380298573
 50
342.23237242550573
 51
75.876835772648548
  0
ARC
  8
_0-1_レイヤ___3
  6
CONTINUOUS
 62
    7
 10
877.08555869937811
 20
1175.4378248153616
 40
4.3217395355930215
 50
67.479526344112017
 51
78.3150157178478
  0
ARC
  8
_0-1_レイヤ___3
  6
CONTINUOUS
 62
    7
 10
841.43771721751023
 20
1225.5532391309644
 40
58.644781161595731
 50
308.51984159192938
 51
314.11561028345704
  0
ARC
  8
_0-1_レイヤ___3
  6
CONTINUOUS
 62
    7
 10
899.53139145004343
 20
1165.845503111768
 40
24.661511482782473
 50
123.16338895683131
 51
134.45137579508122
  0
ARC
  8
_0-1_レイヤ___3
  6
CONTINUOUS
 62
    7
 10
890.76199075142938
 20
1179.3367413094907
 40
8.5707844285680057
 50
95.36350761746543
 51
123.42479092206783
  0
ARC
  8
_0-1_レイヤ___3
  6
CONTINUOUS
 62
    7
 10
890.86892714855708
 20
1173.2215099359157
 40
14.676610149615239
 50
59.214266266452853
 51
93.547318933525773
  0
ARC
  8
_0-1_レイヤ___3
  6
CONTINUOUS
 62
    7
 10
893.60037836338279
 20
1178.4973419328967
 40
8.7533254202913842
 50
347.9503222004966
 51
56.898008146620803
  0
ARC
  8
_0-1_レイヤ___3
  6
CONTINUOUS
 62
    7
 10
898.99108909305369
 20
1177.424659903397
 40
3.2583494598619338
 50
294.08591982248987
 51
346.60824337811027
  0
ARC
  8
_0-1_レイヤ___3
  6
CONTINUOUS
 62
    7
 10
896.70787906107023
 20
1181.7861041579247
 40
8.1775251347527078
 50
282.09141084635905
 51
296.21981404450679
  0
ARC
  8
_0-1_レイヤ___3
  6
CONTINUOUS
 62
    7
 10
891.81510965726602
 20
1204.7240111964734
 40
31.631451495805997
 50
276.07166465457072
 51
282.05404757412418
  0
ARC
  8
_0-1_レイヤ___3
  6
CONTINUOUS
 62
    7
 10
912.60775383005466
 20
1369.3217994016218
 40
2.1999796789714647
 50
311.33805324826591
 51
348.14907242467052
  0
ARC
  8
_0-1_レイヤ___3
  6
CONTINUOUS
 62
    7
 10
913.4009598408386
 20
1368.5268620570123
 40
1.0815078707920642
 50
264.68835518071211
 51
307.6003223798736
  0
ARC
  8
_0-1_レイヤ___3
  6
CONTINUOUS
 62
    7
 10
913.90858477122663
 20
1371.5530132981974
 40
4.1477806276121569
 50
242.61656047855206
 51
261.57454450893454
  0
ARC
  8
_0-1_レイヤ___3
  6
CONTINUOUS
 62
    7
 10
911.4794051991754
 20
1367.1589030965222
 40
0.8817891696972162
 50
53.74791992012964
 51
144.57677417129398
  0
ARC
  8
_0-1_レイヤ___3
  6
CONTINUOUS
 62
    7
 10
913.58594948004168
 20
1371.9785464611052
 40
5.1521667984006889
 50
212.50383677462216
 51
236.7472094519286
  0
ARC
  8
_0-1_レイヤ___3
  6
CONTINUOUS
 62
    7
 10
910.92271936439772
 20
1370.1918853359498
 40
1.9475152039609664
 50
146.38677137739535
 51
210.27655372603263
  0
ARC
  8
_0-1_レイヤ___3
  6
CONTINUOUS
 62
    7
 10
1024.7285248817445
 20
1302.6955742025827
 40
134.26094643824061
 50
148.087033751918
 51
149.28587970771133
  0
ARC
  8
_0-1_レイヤ___3
  6
CONTINUOUS
 62
    7
 10
912.59305045892177
 20
1372.7040220850665
 40
2.0712556184543414
 50
85.908277882002622
 51
152.20093031613774
  0
ARC
  8
_0-1_レイヤ___3
  6
CONTINUOUS
 62
    7
 10
912.22687286846451
 20
1368.4599925853979
 40
6.3309032244030607
 50
62.390949201257996
 51
85.34336973777657
  0
ARC
  8
_0-1_レイヤ___3
  6
CONTINUOUS
 62
    7
 10
912.97894427212157
 20
1370.3972145796217
 40
4.2720036843005733
 50
11.788707729513369
 51
59.286647854426576
  0
ARC
  8
_0-1_レイヤ___3
  6
CONTINUOUS
 62
    7
 10
915.82514888233391
 20
1371.6776658407048
 40
1.3965197800385254
 50
304.73406399005393
 51
343.02725431098037
  0
ARC
  8
_0-1_レイヤ___3
  6
CONTINUOUS
 62
    7
 10
919.9122166683577
 20
1364.9700236526476
 40
6.461150723842688
 50
120.62454244463618
 51
142.87156635462415
  0
ARC
  8
_0-1_レイヤ___3
  6
CONTINUOUS
 62
    7
 10
902.01569807278133
 20
1282.4450711725572
 40
2.657035483854882
 50
228.66529522958569
 51
255.73178721055791
  0
ARC
  8
_0-1_レイヤ___3
  6
CONTINUOUS
 62
    7
 10
902.71356929197168
 20
1283.5635769191226
 40
3.9636152354813796
 50
184.24769660937426
 51
231.77065680664916
  0
ARC
  8
_0-1_レイヤ___3
  6
CONTINUOUS
 62
    7
 10
902.31711072060023
 20
1281.5956916966534
 40
3.9306937823354127
 50
22.028973805358696
 51
154.78874565225487
  0
ARC
  8
_0-1_レイヤ___3
  6
CONTINUOUS
 62
    7
 10
903.71718106651031
 20
1282.2314977946587
 40
2.3952233777320449
 50
293.20212164061661
 51
20.491715231158004
  0
ARC
  8
_0-1_レイヤ___3
  6
CONTINUOUS
 62
    7
 10
902.77559545409019
 20
1284.8019471391226
 40
5.1308525967285341
 50
253.99419897642628
 51
291.55740792113721
  0
ARC
  8
_0-1_レイヤ___3
  6
CONTINUOUS
 62
    7
 10
1007.2610333587835
 20
1268.4941664779981
 40
4.1885306674406992
 50
183.6160114666817
 51
300.08758883759458
  0
ARC
  8
_0-1_レイヤ___3
  6
CONTINUOUS
 62
    7
 10
1005.0692698187129
 20
1267.741310877341
 40
2.0475992584360454
 50
146.54892282635333
 51
166.19232171240247
  0
ARC
  8
_0-1_レイヤ___3
  6
CONTINUOUS
 62
    7
 10
1007.7024989361951
 20
1266.520022257587
 40
4.9368387633874518
 50
70.372004862849963
 51
151.57498197979686
  0
ARC
  8
_0-1_レイヤ___3
  6
CONTINUOUS
 62
    7
 10
1005.8622028109966
 20
1258.7034740765878
 40
12.948154239909833
 50
62.899140426279708
 51
74.323613918063003
  0
ARC
  8
_0-1_レイヤ___3
  6
CONTINUOUS
 62
    7
 10
1001.0646390119564
 20
1249.4563275393089
 40
23.365661621857441
 50
55.316075504726165
 51
62.756411431141537
  0
LINE
  8
_0-1_レイヤ___3
  6
CONTINUOUS
 62
    7
 10
1014.3608414591552
 20
1268.6699982846462
 11
1009.3608414591552
 21
1264.8699982846463
  0
ARC
  8
_0-1_レイヤ___3
  6
CONTINUOUS
 62
    7
 10
846.54760020086542
 20
1272.919587475641
 40
3.8664193880687665
 50
312.52267986259631
 51
33.791773312141281
  0
ARC
  8
_0-1_レイヤ___3
  6
CONTINUOUS
 62
    7
 10
846.95125502159556
 20
1272.7900946383115
 40
3.6182520400108626
 50
39.058378363808991
 51
127.25607481092864
  0
ARC
  8
_0-1_レイヤ___3
  6
CONTINUOUS
 62
    7
 10
847.04074710549037
 20
1272.860409847086
 40
3.6182520400108626
 50
129.05837836380894
 51
217.2560748109286
  0
ARC
  8
_0-1_レイヤ___3
  6
CONTINUOUS
 62
    7
 10
847.01043265015073
 20
1273.2832415429366
 40
3.8664193880687665
 50
222.52267986259631
 51
303.79177331214129
  0
ARC
  8
_0-1_レイヤ___3
  6
CONTINUOUS
 62
    7
 10
858.48093981282091
 20
1378.6795867222063
 40
3.6182520400108626
 50
309.05837836380897
 51
37.256074810928624
  0
ARC
  8
_0-1_レイヤ___3
  6
CONTINUOUS
 62
    7
 10
858.55125502159524
 20
1378.5900946383113
 40
3.6182520400108626
 50
39.058378363808991
 51
127.25607481092864
  0
ARC
  8
_0-1_レイヤ___3
  6
CONTINUOUS
 62
    7
 10
858.64074710549005
 20
1378.6604098470857
 40
3.6182520400108626
 50
129.05837836380894
 51
217.2560748109286
  0
ARC
  8
_0-1_レイヤ___3
  6
CONTINUOUS
 62
    7
 10
858.57043189671572
 20
1378.7499019309807
 40
3.6182520400108626
 50
219.05837836380897
 51
307.25607481092862
  0
ARC
  8
_0-1_レイヤ___3
  6
CONTINUOUS
 62
    7
 10
723.56159276123378
 20
1290.7169831606093
 40
14.317143909078116
 50
272.15854599242118
 51
306.91476388383035
  0
ARC
  8
_0-1_レイヤ___3
  6
CONTINUOUS
 62
    7
 10
724.22980568105402
 20
1282.9112412338109
 40
6.5025218663912199
 50
220.71114468273106
 51
268.86361614078368
  0
ARC
  8
_0-1_レイヤ___3
  6
CONTINUOUS
 62
    7
 10
724.25178354270599
 20
1282.2679547563951
 40
6.1202188424724921
 50
185.60684589154803
 51
216.00673613386496
  0
ARC
  8
_0-1_レイヤ___3
  6
CONTINUOUS
 62
    7
 10
735.18596089366554
 20
1283.5688622565397
 40
17.13068124571063
 50
134.77290973142942
 51
186.36407419628742
  0
ARC
  8
_0-1_レイヤ___3
  6
CONTINUOUS
 62
    7
 10
729.64538024782371
 20
1288.7741808798867
 40
9.5369256040345114
 50
95.321741587552864
 51
133.1675369167645
  0
ARC
  8
_0-1_レイヤ___3
  6
CONTINUOUS
 62
    7
 10
728.80836848862373
 20
1288.0233772382587
 40
10.246731249846974
 50
36.164277532368125
 51
90.265731452628472
  0
ARC
  8
_0-1_レイヤ___3
  6
CONTINUOUS
 62
    7
 10
729.59960130885406
 20
1289.3669818247004
 40
8.8367062788654476
 50
333.39805663844942
 51
32.155150409359202
  0
ARC
  8
_0-1_レイヤ___3
  6
CONTINUOUS
 62
    7
 10
724.98797805701145
 20
1291.2267285405267
 40
13.798775362086396
 50
312.11008004217791
 51
335.0681728679582
  0
ARC
  8
_0-1_レイヤ___3
  6
CONTINUOUS
 62
    7
 10
719.9329134273006
 20
1296.1749393464197
 40
20.863828845102322
 50
305.87952447592721
 51
313.29673721945517
  0
ARC
  8
_0-1_レイヤ___3
  6
CONTINUOUS
 62
    7
 10
764.43646972843283
 20
1257.6849242583025
 40
3.6505493035353904
 50
309.547588843646
 51
36.766858908777806
  0
ARC
  8
_0-1_レイヤ___3
  6
CONTINUOUS
 62
    7
 10
764.42501858629157
 20
1257.5460928292453
 40
3.7442761983822024
 50
38.364015237065018
 51
123.45543092129392
  0
ARC
  8
_0-1_レイヤ___3
  6
CONTINUOUS
 62
    7
 10
765.02952627151501
 20
1257.8137572046662
 40
3.9089616344941893
 50
133.05568872252113
 51
213.25875902990114
  0
ARC
  8
_0-1_レイヤ___3
  6
CONTINUOUS
 62
    7
 10
764.69666833201984
 20
1257.9939057400472
 40
3.744276198382269
 50
218.36401523705865
 51
303.45543092128759
  0
ARC
  8
_0-1_レイヤ___3
  6
CONTINUOUS
 62
    7
 10
776.08093981282082
 20
1363.4795867222065
 40
3.6182520400108626
 50
309.05837836380897
 51
37.256074810928624
  0
ARC
  8
_0-1_レイヤ___3
  6
CONTINUOUS
 62
    7
 10
776.15125502159572
 20
1363.390094638311
 40
3.6182520400108142
 50
39.058378363815415
 51
127.25607481093506
  0
ARC
  8
_0-1_レイヤ___3
  6
CONTINUOUS
 62
    7
 10
776.57407634924141
 20
1363.4204103378352
 40
3.8664114634158162
 50
132.52257908629821
 51
213.79187408843936
  0
ARC
  8
_0-1_レイヤ___3
  6
CONTINUOUS
 62
    7
 10
776.21043265014976
 20
1363.8832415429363
 40
3.8664193880687145
 50
222.52267986260273
 51
303.79177331214771
  0
ARC
  8
_0-1_レイヤ___3
  6
CONTINUOUS
 62
    7
 10
849.88093981282134
 20
1191.2795887222067
 40
3.6182520400108626
 50
309.05837836380897
 51
37.256074810928624
  0
ARC
  8
_0-1_レイヤ___3
  6
CONTINUOUS
 62
    7
 10
849.95125502159567
 20
1191.1900966383118
 40
3.6182520400108626
 50
39.058378363808991
 51
127.25607481092864
  0
ARC
  8
_0-1_レイヤ___3
  6
CONTINUOUS
 62
    7
 10
850.04074710549048
 20
1191.2604118470861
 40
3.6182520400108626
 50
129.05837836380894
 51
217.2560748109286
  0
ARC
  8
_0-1_レイヤ___3
  6
CONTINUOUS
 62
    7
 10
849.97043189671615
 20
1191.3499039309809
 40
3.6182520400108626
 50
219.05837836380897
 51
307.25607481092862
  0
ARC
  8
_0-1_レイヤ___3
  6
CONTINUOUS
 62
    7
 10
960.48093781282091
 20
1204.0795887222064
 40
3.6182520400108626
 50
309.05837836380897
 51
37.256074810928624
  0
ARC
  8
_0-1_レイヤ___3
  6
CONTINUOUS
 62
    7
 10
960.51125226816055
 20
1203.6567570263558
 40
3.8664193880687665
 50
42.522679862596327
 51
123.79177331214129
  0
ARC
  8
_0-1_レイヤ___3
  6
CONTINUOUS
 62
    7
 10
960.64074510549005
 20
1204.0604118470858
 40
3.6182520400108626
 50
129.05837836380894
 51
217.2560748109286
  0
ARC
  8
_0-1_レイヤ___3
  6
CONTINUOUS
 62
    7
 10
960.57042989671572
 20
1204.1499039309806
 40
3.6182520400108626
 50
219.05837836380897
 51
307.25607481092862
  0
ARC
  8
_0-1_レイヤ___3
  6
CONTINUOUS
 62
    7
 10
953.34759820086504
 20
1304.919587475641
 40
3.8664193880687665
 50
312.52267986259631
 51
33.791773312141281
  0
ARC
  8
_0-1_レイヤ___3
  6
CONTINUOUS
 62
    7
 10
953.75125302159518
 20
1304.7900946383115
 40
3.6182520400108871
 50
39.05837836380578
 51
127.25607481092541
  0
ARC
  8
_0-1_レイヤ___3
  6
CONTINUOUS
 62
    7
 10
953.84074510548999
 20
1304.860409847086
 40
3.6182520400108626
 50
129.05837836380894
 51
217.2560748109286
  0
ARC
  8
_0-1_レイヤ___3
  6
CONTINUOUS
 62
    7
 10
953.81043065015035
 20
1305.2832415429364
 40
3.8664193880687918
 50
222.52267986259309
 51
303.79177331213805
  0
ARC
  8
_0-1_レイヤ___3
  6
CONTINUOUS
 62
    7
 10
924.00743900689747
 20
1108.7429246948941
 40
14.353969838516552
 50
270.69217578500604
 51
305.5883509275547
  0
ARC
  8
_0-1_レイヤ___3
  6
CONTINUOUS
 62
    7
 10
924.56254387480215
 20
1100.6583560837114
 40
6.2799646562991516
 50
189.05497437737731
 51
266.51535846685476
  0
ARC
  8
_0-1_レイヤ___3
  6
CONTINUOUS
 62
    7
 10
935.04199178084548
 20
1101.5183647772963
 40
16.783242236202515
 50
134.20218824527495
 51
186.32289207195814
  0
ARC
  8
_0-1_レイヤ___3
  6
CONTINUOUS
 62
    7
 10
929.80014840797935
 20
1106.6127933790292
 40
9.4787928376609898
 50
93.86730871160411
 51
132.95691962700329
  0
ARC
  8
_0-1_レイヤ___3
  6
CONTINUOUS
 62
    7
 10
928.5058469392817
 20
1106.4821247909263
 40
9.610224381128802
 50
326.72931217820843
 51
86.091918797205011
  0
ARC
  8
_0-1_レイヤ___3
  6
CONTINUOUS
 62
    7
 10
922.54445378799744
 20
1111.1614275178479
 40
17.173518335314235
 50
304.86189281347026
 51
324.58719047424097
  0
ARC
  8
_0-1_レイヤ___3
  6
CONTINUOUS
 62
    7
 10
805.98084732496659
 20
776.66330367622527
 40
13.675129120994267
 50
52.208414361217059
 51
87.988508729057514
  0
ARC
  8
_0-1_レイヤ___3
  6
CONTINUOUS
 62
    7
 10
806.70601135631728
 20
784.11607271178445
 40
6.2187681855606067
 50
92.259406793741519
 51
171.17622416658995
  0
ARC
  8
_0-1_レイヤ___3
  6
CONTINUOUS
 62
    7
 10
816.73306437734936
 20
782.95342863403016
 40
16.310138882852772
 50
172.54365958129367
 51
234.40987389987413
  0
ARC
  8
_0-1_レイヤ___3
  6
CONTINUOUS
 62
    7
 10
811.62829226719907
 20
776.87967786459103
 40
8.4226530541556173
 50
238.60665098420401
 51
266.81850695910589
  0
ARC
  8
_0-1_レイヤ___3
  6
CONTINUOUS
 62
    7
 10
811.12234008627922
 20
778.29883917843154
 40
9.828908309862225
 50
270.22444877250234
 51
338.0825947512264
  0
ARC
  8
_0-1_レイヤ___3
  6
CONTINUOUS
 62
    7
 10
811.57987245643426
 20
777.30371906950131
 40
9.0642792744862959
 50
342.8441138466564
 51
26.371703252333404
  0
ARC
  8
_0-1_レイヤ___3
  6
CONTINUOUS
 62
    7
 10
807.15350918195782
 20
775.48785475892964
 40
13.840748965036758
 50
24.967109774230718
 51
47.854637315633184
  0
ARC
  8
_0-1_レイヤ___3
  6
CONTINUOUS
 62
    7
 10
802.12798143835244
 20
770.55910337576711
 40
20.871548826417552
 50
46.704636440007789
 51
54.119101864628426
  0
ARC
  8
_0-1_レイヤ___3
  6
CONTINUOUS
 62
    7
 10
889.05044622966329
 20
858.0823326454813
 40
50.955367251473518
 50
83.112709697366597
 51
96.501461530611664
  0
ARC
  8
_0-1_レイヤ___3
  6
CONTINUOUS
 62
    7
 10
888.6343140131288
 20
869.64929857849734
 40
39.42585924535593
 50
97.804059454885447
 51
104.20302224861354
  0
ARC
  8
_0-1_レイヤ___3
  6
CONTINUOUS
 62
    7
 10
879.3646275016431
 20
905.46285664883521
 40
2.4407788292997838
 50
99.522357778373276
 51
136.27218428351532
  0
ARC
  8
_0-1_レイヤ___3
  6
CONTINUOUS
 62
    7
 10
878.27943077140617
 20
906.63610433016152
 40
0.8512190690810349
 50
142.86304278668581
 51
189.88296749358193
  0
ARC
  8
_0-1_レイヤ___3
  6
CONTINUOUS
 62
    7
 10
879.47433756293435
 20
906.89096819974316
 40
2.0726481445999907
 50
191.15447658038246
 51
218.87931037583346
  0
ARC
  8
_0-1_レイヤ___3
  6
CONTINUOUS
 62
    7
 10
867.12328776214974
 20
896.26570931084552
 40
14.221025951201367
 50
30.624360886591713
 51
40.970445169349709
  0
ARC
  8
_0-1_レイヤ___3
  6
CONTINUOUS
 62
    7
 10
878.56214160805166
 20
903.30580551871526
 40
0.8243917654635257
 50
278.27863382258738
 51
14.341231125408813
  0
ARC
  8
_0-1_レイヤ___3
  6
CONTINUOUS
 62
    7
 10
876.89081319399804
 20
907.06010333424979
 40
4.9081578696460042
 50
282.59221066583723
 51
291.38943591814655
  0
ARC
  8
_0-1_レイヤ___3
  6
CONTINUOUS
 62
    7
 10
1067.5400237354211
 20
1115.938096358391
 40
285.64719351790427
 50
228.41863372291181
 51
230.49864259088108
  0
ARC
  8
_0-1_レイヤ___3
  6
CONTINUOUS
 62
    7
 10
890.92306772831421
 20
903.32847277021619
 40
9.3083357396717012
 50
236.90790675733734
 51
264.06660290418336
  0
ARC
  8
_0-1_レイヤ___3
  6
CONTINUOUS
 62
    7
 10
890.86892714855708
 20
908.71849463337617
 40
14.676610149615239
 50
266.45268106647421
 51
300.78573373354715
  0
ARC
  8
_0-1_レイヤ___3
  6
CONTINUOUS
 62
    7
 10
893.60037836338222
 20
903.4426626363952
 40
8.7533254202918478
 50
303.10199185338047
 51
12.049677799504664
  0
ARC
  8
_0-1_レイヤ___3
  6
CONTINUOUS
 62
    7
 10
898.99108909305426
 20
904.51534466589487
 40
3.2583494598614386
 50
13.391756621896942
 51
65.914080177517334
  0
ARC
  8
_0-1_レイヤ___3
  6
CONTINUOUS
 62
    7
 10
896.70787906106796
 20
900.15390041136789
 40
8.1775251347534663
 50
63.780185955477933
 51
77.908589153625684
  0
ARC
  8
_0-1_レイヤ___3
  6
CONTINUOUS
 62
    7
 10
891.81510965727171
 20
877.21599337281896
 40
31.631451495805134
 50
77.945952425885551
 51
83.928335345439024
  0
ARC
  8
_0-1_レイヤ___3
  6
CONTINUOUS
 62
    7
 10
912.71709763698652
 20
712.6552450003087
 40
2.0854058100731656
 50
11.471970494458949
 51
49.882589549131204
  0
ARC
  8
_0-1_レイヤ___3
  6
CONTINUOUS
 62
    7
 10
913.4424443093269
 20
713.41977854526272
 40
1.0352277310197637
 50
53.319393084954235
 51
95.632384921565276
  0
ARC
  8
_0-1_レイヤ___3
  6
CONTINUOUS
 62
    7
 10
914.18829769691968
 20
709.88221561098248
 40
4.6457412739517014
 50
100.51050036940738
 51
118.36956928695506
  0
ARC
  8
_0-1_レイヤ___3
  6
CONTINUOUS
 62
    7
 10
911.5108227163239
 20
714.68926539712947
 40
0.8592138339619726
 50
209.20621421521247
 51
303.16373510229158
  0
ARC
  8
_0-1_レイヤ___3
  6
CONTINUOUS
 62
    7
 10
913.55886601870395
 20
709.98819183626074
 40
5.1149675984795309
 50
123.16327986570265
 51
147.58567390774667
  0
ARC
  8
_0-1_レイヤ___3
  6
CONTINUOUS
 62
    7
 10
910.98222252339667
 20
711.72890488648113
 40
2.0086353638012899
 50
150.10581418258667
 51
213.16733990063167
  0
ARC
  8
_0-1_レイヤ___3
  6
CONTINUOUS
 62
    7
 10
1344.81250807476
 20
957.31142752641085
 40
500.5218620174673
 50
209.52797388464779
 51
209.86533119076083
  0
ARC
  8
_0-1_レイヤ___3
  6
CONTINUOUS
 62
    7
 10
912.45427613360107
 20
708.94483758018146
 40
1.9060554275626718
 50
207.32090149004657
 51
276.22154614719858
  0
ARC
  8
_0-1_レイヤ___3
  6
CONTINUOUS
 62
    7
 10
911.78077841950824
 20
713.95410291771759
 40
6.9599593142603915
 50
277.26430152069327
 51
299.0546794128777
  0
ARC
  8
_0-1_レイヤ___3
  6
CONTINUOUS
 62
    7
 10
912.31955360277027
 20
712.61101721235514
 40
5.5272128903690003
 50
300.93426767314111
 51
321.761286766257
  0
ARC
  8
_0-1_レイヤ___3
  6
CONTINUOUS
 62
    7
 10
915.13020351291232
 20
710.53157515837688
 40
2.0353511242956479
 50
318.76622427283155
 51
3.8999471787258502
  0
ARC
  8
_0-1_レイヤ___3
  6
CONTINUOUS
 62
    7
 10
915.74714446931864
 20
710.06541086478569
 40
1.5375555987265435
 50
23.154998363207909
 51
58.047590926808688
  0
ARC
  8
_0-1_レイヤ___3
  6
CONTINUOUS
 62
    7
 10
939.64834547614032
 20
737.61854194968782
 40
34.957379210963865
 50
224.60714355159732
 51
228.66601053163293
  0
ARC
  8
_0-1_レイヤ___3
  6
CONTINUOUS
 62
    7
 10
902.01569807278133
 20
799.49493339673518
 40
2.657035483854882
 50
104.2682127894421
 51
131.33470477041431
  0
ARC
  8
_0-1_レイヤ___3
  6
CONTINUOUS
 62
    7
 10
902.71356929197168
 20
798.37642765016972
 40
3.9636152354813796
 50
128.22934319335084
 51
175.75230339062574
  0
ARC
  8
_0-1_レイヤ___3
  6
CONTINUOUS
 62
    7
 10
902.56504740154128
 20
800.10448205237913
 40
4.0656738162686032
 50
200.66026872632389
 51
302.354897298244
  0
ARC
  8
_0-1_レイヤ___3
  6
CONTINUOUS
 62
    7
 10
901.96508265183809
 20
799.73531915710987
 40
4.1353331138481995
 50
312.16205223507791
 51
345.07156565219526
  0
ARC
  8
_0-1_レイヤ___3
  6
CONTINUOUS
 62
    7
 10
903.58489616111285
 20
799.54114883201191
 40
2.5306136404283643
 50
339.86449148843644
 51
65.835032654851133
  0
ARC
  8
_0-1_レイヤ___3
  6
CONTINUOUS
 62
    7
 10
902.67542594800148
 20
797.28612189208411
 40
4.961217820224471
 50
66.913237558598567
 51
105.36529719163843
  0
ARC
  8
_0-1_レイヤ___3
  6
CONTINUOUS
 62
    7
 10
1007.2591399306884
 20
813.43015733968764
 40
4.2030524213806402
 50
59.997240317073022
 51
177.27464256899552
  0
ARC
  8
_0-1_レイヤ___3
  6
CONTINUOUS
 62
    7
 10
1005.3600578077788
 20
814.09838115910156
 40
2.3464379047390675
 50
191.51421374138806
 51
211.56773809564197
  0
ARC
  8
_0-1_レイヤ___3
  6
CONTINUOUS
 62
    7
 10
1007.5944314609649
 20
815.30129874259751
 40
4.8820556448605403
 50
209.86815809056978
 51
291.21181703885782
  0
ARC
  8
_0-1_レイヤ___3
  6
CONTINUOUS
 62
    7
 10
1005.6135743807005
 20
823.59817398078258
 40
13.383475770715181
 50
286.25973139340647
 51
297.34308757929716
  0
ARC
  8
_0-1_レイヤ___3
  6
CONTINUOUS
 62
    7
 10
1000.8980092638348
 20
832.76139327685291
 40
23.688858511953498
 50
297.29441434513677
 51
304.63309871899548
  0
LINE
  8
_0-1_レイヤ___3
  6
CONTINUOUS
 62
    7
 10
1014.3608414591552
 20
813.27000628464566
 11
1009.3608414591552
 21
817.07000628464607
  0
ARC
  8
_0-1_レイヤ___3
  6
CONTINUOUS
 62
    7
 10
846.67287074619253
 20
808.92150969552608
 40
3.7073227160385831
 50
326.40181187480044
 51
47.848220823003146
  0
ARC
  8
_0-1_レイヤ___3
  6
CONTINUOUS
 62
    7
 10
846.82501858629166
 20
809.1939117400475
 40
3.744276198382269
 50
236.54456907871241
 51
321.63598476294135
  0
ARC
  8
_0-1_レイヤ___3
  6
CONTINUOUS
 62
    7
 10
847.08521823962826
 20
808.88493125830246
 40
3.6505507430265101
 50
143.23313838006533
 51
230.45240844519711
  0
ARC
  8
_0-1_レイヤ___3
  6
CONTINUOUS
 62
    7
 10
846.97043189671604
 20
808.79010263831128
 40
3.6182520400109111
 50
52.743925189077792
 51
140.94162163619743
  0
ARC
  8
_0-1_レイヤ___3
  6
CONTINUOUS
 62
    7
 10
858.48093981282091
 20
703.26041984708604
 40
3.6182520400108626
 50
322.74392518907138
 51
50.941621636191016
  0
ARC
  8
_0-1_レイヤ___3
  6
CONTINUOUS
 62
    7
 10
858.55125502159524
 20
703.34991193098085
 40
3.6182520400108626
 50
232.74392518907138
 51
320.94162163619103
  0
ARC
  8
_0-1_レイヤ___3
  6
CONTINUOUS
 62
    7
 10
858.64074710549005
 20
703.27959672220663
 40
3.6182520400108626
 50
142.7439251890714
 51
230.94162163619106
  0
ARC
  8
_0-1_レイヤ___3
  6
CONTINUOUS
 62
    7
 10
858.61043265015041
 20
702.85676502635602
 40
3.8664193880687665
 50
56.208226687858726
 51
137.47732013740369
  0
ARC
  8
_0-1_レイヤ___3
  6
CONTINUOUS
 62
    7
 10
849.88093981282134
 20
890.66041584708523
 40
3.6182520400108626
 50
322.74392518907138
 51
50.941621636191016
  0
ARC
  8
_0-1_レイヤ___3
  6
CONTINUOUS
 62
    7
 10
849.95125502159624
 20
890.74990793098073
 40
3.6182520400108142
 50
232.74392518906495
 51
320.94162163618461
  0
ARC
  8
_0-1_レイヤ___3
  6
CONTINUOUS
 62
    7
 10
850.04074710549048
 20
890.67959272220628
 40
3.6182520400108626
 50
142.7439251890714
 51
230.94162163619106
  0
ARC
  8
_0-1_レイヤ___3
  6
CONTINUOUS
 62
    7
 10
850.01043265015028
 20
890.25676102635566
 40
3.8664193880687145
 50
56.20822668785231
 51
137.47732013739727
  0
ARC
  8
_0-1_レイヤ___3
  6
CONTINUOUS
 62
    7
 10
960.48093781282091
 20
877.86041584708551
 40
3.6182520400108626
 50
322.74392518907138
 51
50.941621636191016
  0
ARC
  8
_0-1_レイヤ___3
  6
CONTINUOUS
 62
    7
 10
960.55125302159581
 20
877.949907930981
 40
3.6182520400108142
 50
232.74392518906495
 51
320.94162163618461
  0
ARC
  8
_0-1_レイヤ___3
  6
CONTINUOUS
 62
    7
 10
960.64074510549005
 20
877.87959272220655
 40
3.6182520400108626
 50
142.7439251890714
 51
230.94162163619106
  0
ARC
  8
_0-1_レイヤ___3
  6
CONTINUOUS
 62
    7
 10
960.57042989671515
 20
877.79010063831129
 40
3.6182520400108142
 50
52.743925189064967
 51
140.94162163618461
  0
ARC
  8
_0-1_レイヤ___3
  6
CONTINUOUS
 62
    7
 10
953.34759820086504
 20
776.82041709365103
 40
3.8664193880687665
 50
326.20822668785871
 51
47.47732013740368
  0
ARC
  8
_0-1_レイヤ___3
  6
CONTINUOUS
 62
    7
 10
953.71125226816048
 20
777.28324954293635
 40
3.8664193880687665
 50
236.20822668785871
 51
317.47732013740369
  0
ARC
  8
_0-1_レイヤ___3
  6
CONTINUOUS
 62
    7
 10
953.88521623962788
 20
776.88493125830269
 40
3.6505507430265101
 50
143.23313838006533
 51
230.45240844519711
  0
ARC
  8
_0-1_レイヤ___3
  6
CONTINUOUS
 62
    7
 10
953.77042989671565
 20
776.79010263831151
 40
3.6182520400108626
 50
52.743925189071383
 51
140.94162163619103
  0
ARC
  8
_0-1_レイヤ___3
  6
CONTINUOUS
 62
    7
 10
923.76158876123327
 20
973.22301940868351
 40
14.31714390907738
 50
53.085236116166598
 51
87.841454007575734
  0
ARC
  8
_0-1_レイヤ___3
  6
CONTINUOUS
 62
    7
 10
924.42980168105407
 20
981.02876133548216
 40
6.5025218663904392
 50
91.13638385921611
 51
139.28885531726874
  0
ARC
  8
_0-1_レイヤ___3
  6
CONTINUOUS
 62
    7
 10
924.45177954270662
 20
981.67204781289593
 40
6.1202188424728767
 50
143.99326386612555
 51
174.39315410844247
  0
ARC
  8
_0-1_レイヤ___3
  6
CONTINUOUS
 62
    7
 10
935.00430294437479
 20
980.50358123330307
 40
16.736937013871227
 50
173.94169771685247
 51
234.90152806421145
  0
ARC
  8
_0-1_レイヤ___3
  6
CONTINUOUS
 62
    7
 10
929.60969557306782
 20
973.99515213603672
 40
8.3372391571246602
 50
239.52085156332785
 51
266.91386014612044
  0
ARC
  8
_0-1_レイヤ___3
  6
CONTINUOUS
 62
    7
 10
929.12233808627889
 20
975.49883717843136
 40
9.828908309862225
 50
270.22444877250234
 51
338.0825947512264
  0
ARC
  8
_0-1_レイヤ___3
  6
CONTINUOUS
 62
    7
 10
929.57987045643335
 20
974.50371706950159
 40
9.0642792744869993
 50
342.84411384665117
 51
26.371703252328189
  0
ARC
  8
_0-1_レイヤ___3
  6
CONTINUOUS
 62
    7
 10
925.15350718195805
 20
972.68785275893015
 40
13.840748965036758
 50
24.967109774230718
 51
47.854637315633184
  0
ARC
  8
_0-1_レイヤ___3
  6
CONTINUOUS
 62
    7
 10
920.1279794383521
 20
967.75910137576284
 40
20.871548826420934
 50
46.704636440015477
 51
54.119101864636121
  0
ARC
  8
_0-1_レイヤ___3
  6
CONTINUOUS
 62
    7
 10
805.98084732496773
 20
528.07671289306745
 40
13.675129120993951
 50
272.01149127093885
 51
307.79158563877928
  0
ARC
  8
_0-1_レイヤ___3
  6
CONTINUOUS
 62
    7
 10
806.70601135631671
 20
520.62394385750758
 40
6.2187681855600117
 50
188.82377583341622
 51
267.74059320626463
  0
ARC
  8
_0-1_レイヤ___3
  6
CONTINUOUS
 62
    7
 10
816.86704664679894
 20
521.79753697976503
 40
16.444410364471885
 50
125.82972914007496
 51
187.4335867527767
  0
ARC
  8
_0-1_レイヤ___3
  6
CONTINUOUS
 62
    7
 10
811.36702595565907
 20
528.25138275281256
 40
8.021277873016075
 50
91.472918445199596
 51
120.95766809425777
  0
ARC
  8
_0-1_レイヤ___3
  6
CONTINUOUS
 62
    7
 10
811.12234008627979
 20
526.44117739086118
 40
9.8289083098619408
 50
21.917405248776085
 51
89.775551227500102
  0
ARC
  8
_0-1_レイヤ___3
  6
CONTINUOUS
 62
    7
 10
811.57987245643312
 20
527.43629749979141
 40
9.0642792744870597
 50
333.62829674766698
 51
17.155886153343996
  0
ARC
  8
_0-1_レイヤ___3
  6
CONTINUOUS
 62
    7
 10
807.15350918195782
 20
529.2521618103624
 40
13.840748965036758
 50
312.14536268436683
 51
335.03289022576928
  0
ARC
  8
_0-1_レイヤ___3
  6
CONTINUOUS
 62
    7
 10
802.12798143835244
 20
534.18091319352493
 40
20.871548826417552
 50
305.88089813537158
 51
313.29536355999221
  0
ARC
  8
_0-1_レイヤ___3
  6
CONTINUOUS
 62
    7
 10
912.71709763698766
 20
592.08477156898334
 40
2.0854058100724222
 50
310.11741045085671
 51
348.52802950552893
  0
ARC
  8
_0-1_レイヤ___3
  6
CONTINUOUS
 62
    7
 10
913.44244430932633
 20
591.32023802402932
 40
1.0352277310199745
 50
264.36761507847672
 51
306.68060691508776
  0
ARC
  8
_0-1_レイヤ___3
  6
CONTINUOUS
 62
    7
 10
914.18829769691968
 20
594.85780095830955
 40
4.6457412739517014
 50
241.63043071304494
 51
259.4894996305926
  0
ARC
  8
_0-1_レイヤ___3
  6
CONTINUOUS
 62
    7
 10
911.5108227163239
 20
590.05075117216256
 40
0.8592138339619726
 50
56.836264897708418
 51
150.79378578478753
  0
ARC
  8
_0-1_レイヤ___3
  6
CONTINUOUS
 62
    7
 10
913.55886601870395
 20
594.7518247330313
 40
5.1149675984795309
 50
212.41432609225333
 51
236.83672013429737
  0
ARC
  8
_0-1_レイヤ___3
  6
CONTINUOUS
 62
    7
 10
910.98222252339667
 20
593.01111168281091
 40
2.0086353638012899
 50
146.83266009936833
 51
209.89418581741333
  0
ARC
  8
_0-1_レイヤ___3
  6
CONTINUOUS
 62
    7
 10
1344.81250807476
 20
347.42858904288113
 40
500.5218620174673
 50
150.13466880923917
 51
150.47202611535221
  0
ARC
  8
_0-1_レイヤ___3
  6
CONTINUOUS
 62
    7
 10
912.55586399533684
 20
595.73413363498071
 40
2.0243436628407903
 50
84.757198216303166
 51
152.46372111563417
  0
ARC
  8
_0-1_レイヤ___3
  6
CONTINUOUS
 62
    7
 10
912.14860771407189
 20
592.35386548566657
 40
5.4285447327796259
 50
56.297006569854886
 51
83.736780386338665
  0
ARC
  8
_0-1_レイヤ___3
  6
CONTINUOUS
 62
    7
 10
912.31955360277198
 20
592.12899935693622
 40
5.527212890367962
 50
38.238713233755263
 51
59.065732326871107
  0
ARC
  8
_0-1_レイヤ___3
  6
CONTINUOUS
 62
    7
 10
915.13020351291232
 20
594.20844141091516
 40
2.0353511242956479
 50
356.10005282127418
 51
41.233775727168428
  0
ARC
  8
_0-1_レイヤ___3
  6
CONTINUOUS
 62
    7
 10
915.74714446931864
 20
594.67460570450635
 40
1.5375555987265435
 50
301.95240907319129
 51
336.84500163679206
  0
ARC
  8
_0-1_レイヤ___3
  6
CONTINUOUS
 62
    7
 10
939.64834547614032
 20
567.12147461960421
 40
34.957379210963865
 50
131.33398946836707
 51
135.39285644840268
  0
ARC
  8
_0-1_レイヤ___3
  6
CONTINUOUS
 62
    7
 10
902.85782125522246
 20
506.28063137646535
 40
3.9086485104861808
 50
224.72678362813039
 51
247.48088324512813
  0
ARC
  8
_0-1_レイヤ___3
  6
CONTINUOUS
 62
    7
 10
904.16581206284945
 20
507.85559574965333
 40
5.949594477619609
 50
208.57327337900614
 51
226.6387093357977
  0
ARC
  8
_0-1_レイヤ___3
  6
CONTINUOUS
 62
    7
 10
900.01426360920334
 20
505.73757253654065
 40
1.2967582436967404
 50
165.1457767247561
 51
214.12929950113741
  0
ARC
  8
_0-1_レイヤ___3
  6
CONTINUOUS
 62
    7
 10
902.56504740154128
 20
504.63553451691297
 40
4.0656738162687205
 50
57.645102701760905
 51
159.339731273681
  0
ARC
  8
_0-1_レイヤ___3
  6
CONTINUOUS
 62
    7
 10
901.96508265183752
 20
505.00469741218211
 40
4.1353331138490548
 50
14.928434347797493
 51
47.837947764914858
  0
ARC
  8
_0-1_レイヤ___3
  6
CONTINUOUS
 62
    7
 10
903.58489616111285
 20
505.19886773728018
 40
2.5306136404283643
 50
294.16496734514885
 51
20.135508511563533
  0
ARC
  8
_0-1_レイヤ___3
  6
CONTINUOUS
 62
    7
 10
902.67542594800148
 20
507.45389467720798
 40
4.961217820224471
 50
254.63470280836157
 51
293.08676244140145
  0
ARC
  8
_0-1_レイヤ___3
  6
CONTINUOUS
 62
    7
 10
846.54760020086542
 20
495.91959947564106
 40
3.8664193880687665
 50
312.52267986259631
 51
33.791773312141281
  0
ARC
  8
_0-1_レイヤ___3
  6
CONTINUOUS
 62
    7
 10
846.91125426816143
 20
495.45676702635575
 40
3.8664193880687145
 50
42.522679862602743
 51
123.7917733121477
  0
ARC
  8
_0-1_レイヤ___3
  6
CONTINUOUS
 62
    7
 10
847.04074710549037
 20
495.86042184708532
 40
3.6182520400108626
 50
129.05837836380894
 51
217.2560748109286
  0
ARC
  8
_0-1_レイヤ___3
  6
CONTINUOUS
 62
    7
 10
846.97043189671547
 20
495.9499139309807
 40
3.6182520400108142
 50
219.05837836381539
 51
307.25607481093505
  0
ARC
  8
_0-1_レイヤ___3
  6
CONTINUOUS
 62
    7
 10
858.43646867868301
 20
601.48493325830282
 40
3.6505507430265101
 50
309.54759155480292
 51
36.766861619934701
  0
ARC
  8
_0-1_レイヤ___3
  6
CONTINUOUS
 62
    7
 10
858.42501858629134
 20
601.34610282924518
 40
3.7442761983822024
 50
38.364015237065018
 51
123.45543092129392
  0
ARC
  8
_0-1_レイヤ___3
  6
CONTINUOUS
 62
    7
 10
858.68521823962794
 20
601.65508331098954
 40
3.6505507430265101
 50
129.54759155480289
 51
216.76686161993467
  0
ARC
  8
_0-1_レイヤ___3
  6
CONTINUOUS
 62
    7
 10
858.69666833201961
 20
601.79391374004717
 40
3.7442761983822024
 50
218.36401523706502
 51
303.4554309212939
  0
ARC
  8
_0-1_レイヤ___3
  6
CONTINUOUS
 62
    7
 10
953.34759820086504
 20
527.91959947564101
 40
3.8664193880687665
 50
312.52267986259631
 51
33.791773312141281
  0
ARC
  8
_0-1_レイヤ___3
  6
CONTINUOUS
 62
    7
 10
953.71125226816048
 20
527.45676702635569
 40
3.8664193880687665
 50
42.522679862596327
 51
123.79177331214129
  0
ARC
  8
_0-1_レイヤ___3
  6
CONTINUOUS
 62
    7
 10
953.84074510548999
 20
527.86042184708572
 40
3.6182520400108626
 50
129.05837836380894
 51
217.2560748109286
  0
ARC
  8
_0-1_レイヤ___3
  6
CONTINUOUS
 62
    7
 10
953.77042989671565
 20
527.94991393098053
 40
3.6182520400108626
 50
219.05837836380897
 51
307.25607481092862
  0
ARC
  8
_0-1_レイヤ___3
  6
CONTINUOUS
 62
    7
 10
662.43061652535403
 20
1294.3095834826272
 40
15.26985678394748
 50
282.98174176087656
 51
306.72142995854557
  0
ARC
  8
_0-1_レイヤ___3
  6
CONTINUOUS
 62
    7
 10
663.96045357984292
 20
1288.2077940431927
 40
8.981157368274939
 50
254.1057227297116
 51
282.21599562346887
  0
ARC
  8
_0-1_レイヤ___3
  6
CONTINUOUS
 62
    7
 10
663.38570336811699
 20
1285.1196187257297
 40
5.860970600256258
 50
186.36364629919629
 51
251.24059843394184
  0
ARC
  8
_0-1_レイヤ___3
  6
CONTINUOUS
 62
    7
 10
674.56140386691345
 20
1286.3430908152272
 40
17.103434210816065
 50
134.65332948533498
 51
186.28739168511146
  0
ARC
  8
_0-1_レイヤ___3
  6
CONTINUOUS
 62
    7
 10
669.02537134905629
 20
1291.6635370818249
 40
9.4299049315740184
 50
94.040985882069933
 51
133.44480587246238
  0
ARC
  8
_0-1_レイヤ___3
  6
CONTINUOUS
 62
    7
 10
668.32234208627938
 20
1291.2411653908609
 40
9.8289083098619408
 50
21.917405248776085
 51
89.775551227500102
  0
ARC
  8
_0-1_レイヤ___3
  6
CONTINUOUS
 62
    7
 10
668.77987445643384
 20
1292.2362854997914
 40
9.0642792744862959
 50
333.62829674766658
 51
17.155886153343609
  0
ARC
  8
_0-1_レイヤ___3
  6
CONTINUOUS
 62
    7
 10
664.35351118195797
 20
1294.0521498103612
 40
13.840748965035907
 50
312.14536268437161
 51
335.03289022577405
  0
ARC
  8
_0-1_レイヤ___3
  6
CONTINUOUS
 62
    7
 10
659.32798343834804
 20
1298.9809011935249
 40
20.871548826420351
 50
305.88089813538085
 51
313.29536356000153
  0
ARC
  8
_0-1_レイヤ___3
  6
CONTINUOUS
 62
    7
 10
805.98084732496773
 20
1438.8766988930672
 40
13.675129120993951
 50
272.01149127093885
 51
307.79158563877928
  0
ARC
  8
_0-1_レイヤ___3
  6
CONTINUOUS
 62
    7
 10
806.70601135631728
 20
1431.4239298575078
 40
6.2187681855601609
 50
188.82377583341469
 51
267.7405932062631
  0
ARC
  8
_0-1_レイヤ___3
  6
CONTINUOUS
 62
    7
 10
816.86704664679894
 20
1432.597522979765
 40
16.444410364471885
 50
125.82972914007496
 51
187.4335867527767
  0
ARC
  8
_0-1_レイヤ___3
  6
CONTINUOUS
 62
    7
 10
811.36702595565907
 20
1439.051368752813
 40
8.021277873016075
 50
91.472918445199596
 51
120.95766809425777
  0
ARC
  8
_0-1_レイヤ___3
  6
CONTINUOUS
 62
    7
 10
811.12234008627979
 20
1437.2411633908612
 40
9.8289083098619408
 50
21.917405248776085
 51
89.775551227500102
  0
ARC
  8
_0-1_レイヤ___3
  6
CONTINUOUS
 62
    7
 10
811.57987245643312
 20
1438.2362834997914
 40
9.0642792744870597
 50
333.62829674766698
 51
17.155886153343996
  0
ARC
  8
_0-1_レイヤ___3
  6
CONTINUOUS
 62
    7
 10
807.15350918195782
 20
1440.0521478103624
 40
13.840748965036758
 50
312.14536268436683
 51
335.03289022576928
  0
ARC
  8
_0-1_レイヤ___3
  6
CONTINUOUS
 62
    7
 10
802.12798143835016
 20
1444.9808991935247
 40
20.871548826418955
 50
305.88089813537624
 51
313.29536355999687
  0
ARC
  8
_0-1_レイヤ___3
  6
CONTINUOUS
 62
    7
 10
912.71709763698652
 20
1502.8847595689831
 40
2.0854058100731656
 50
310.11741045086882
 51
348.52802950554104
  0
ARC
  8
_0-1_レイヤ___3
  6
CONTINUOUS
 62
    7
 10
913.4424443093269
 20
1502.1202260240289
 40
1.0352277310197637
 50
264.36761507843471
 51
306.68060691504576
  0
ARC
  8
_0-1_レイヤ___3
  6
CONTINUOUS
 62
    7
 10
914.18829769691968
 20
1505.6577889583093
 40
4.6457412739517014
 50
241.63043071304494
 51
259.4894996305926
  0
ARC
  8
_0-1_レイヤ___3
  6
CONTINUOUS
 62
    7
 10
911.5108227163239
 20
1500.8507391721625
 40
0.8592138339620186
 50
56.836264897721037
 51
150.79378578480015
  0
ARC
  8
_0-1_レイヤ___3
  6
CONTINUOUS
 62
    7
 10
913.55886601870395
 20
1505.5518127330311
 40
5.1149675984795309
 50
212.41432609225333
 51
236.83672013429737
  0
ARC
  8
_0-1_レイヤ___3
  6
CONTINUOUS
 62
    7
 10
910.98222252339667
 20
1503.8110996828109
 40
2.0086353638018331
 50
146.83266009936875
 51
209.89418581741376
  0
ARC
  8
_0-1_レイヤ___3
  6
CONTINUOUS
 62
    7
 10
1344.8125080747116
 20
1258.2285770428816
 40
500.52186201742541
 50
150.13466880923644
 51
150.47202611534948
  0
ARC
  8
_0-1_レイヤ___3
  6
CONTINUOUS
 62
    7
 10
912.55586399533684
 20
1506.5341216349807
 40
2.0243436628407903
 50
84.757198216303166
 51
152.46372111563417
  0
ARC
  8
_0-1_レイヤ___3
  6
CONTINUOUS
 62
    7
 10
912.14860771407302
 20
1503.153853485667
 40
5.4285447327792147
 50
56.297006569866767
 51
83.736780386350546
  0
ARC
  8
_0-1_レイヤ___3
  6
CONTINUOUS
 62
    7
 10
912.3195536027697
 20
1502.9289873569364
 40
5.5272128903695181
 50
38.238713233736902
 51
59.065732326852753
  0
ARC
  8
_0-1_レイヤ___3
  6
CONTINUOUS
 62
    7
 10
915.13020351291345
 20
1505.0084294109151
 40
2.035351124294595
 50
356.10005282128418
 51
41.233775727178433
  0
ARC
  8
_0-1_レイヤ___3
  6
CONTINUOUS
 62
    7
 10
915.7471444693175
 20
1505.4745937045063
 40
1.5375555987272631
 50
301.95240907321431
 51
336.84500163681508
  0
ARC
  8
_0-1_レイヤ___3
  6
CONTINUOUS
 62
    7
 10
939.64834547614032
 20
1477.9214626196042
 40
34.957379210963865
 50
131.33398946836707
 51
135.39285644840268
  0
ARC
  8
_0-1_レイヤ___3
  6
CONTINUOUS
 62
    7
 10
902.85782125522417
 20
1417.0806173764659
 40
3.9086485104869837
 50
224.72678362811283
 51
247.48088324511059
  0
ARC
  8
_0-1_レイヤ___3
  6
CONTINUOUS
 62
    7
 10
904.16581206284832
 20
1418.6555817496535
 40
5.9495944776188914
 50
208.57327337901145
 51
226.63870933580301
  0
ARC
  8
_0-1_レイヤ___3
  6
CONTINUOUS
 62
    7
 10
900.01426360920391
 20
1416.5375585365414
 40
1.2967582436974159
 50
165.14577672475102
 51
214.12929950113232
  0
ARC
  8
_0-1_レイヤ___3
  6
CONTINUOUS
 62
    7
 10
902.56504740154128
 20
1415.4355205169136
 40
4.0656738162686032
 50
57.645102701756016
 51
159.33973127367611
  0
ARC
  8
_0-1_レイヤ___3
  6
CONTINUOUS
 62
    7
 10
901.96508265183809
 20
1415.8046834121824
 40
4.1353331138481995
 50
14.928434347804734
 51
47.837947764922099
  0
ARC
  8
_0-1_レイヤ___3
  6
CONTINUOUS
 62
    7
 10
903.58489616111228
 20
1415.9988537372803
 40
2.530613640428748
 50
294.16496734515249
 51
20.135508511567195
  0
ARC
  8
_0-1_レイヤ___3
  6
CONTINUOUS
 62
    7
 10
902.67542594800091
 20
1418.2538806772077
 40
4.9612178202244994
 50
254.63470280836657
 51
293.08676244140639
  0
ARC
  8
_0-1_レイヤ___3
  6
CONTINUOUS
 62
    7
 10
1007.2591399306884
 20
1402.1098452296042
 40
4.2030524213807992
 50
182.72535743100048
 51
300.00275968292294
  0
ARC
  8
_0-1_レイヤ___3
  6
CONTINUOUS
 62
    7
 10
1005.3600578077777
 20
1401.4416214101907
 40
2.3464379047383082
 50
148.4322619043507
 51
168.48578625860463
  0
ARC
  8
_0-1_レイヤ___3
  6
CONTINUOUS
 62
    7
 10
1007.6666825797702
 20
1400.3559182698459
 40
4.8882742163834099
 50
70.718454894686658
 51
151.74518727725763
  0
ARC
  8
_0-1_レイヤ___3
  6
CONTINUOUS
 62
    7
 10
1005.853387538624
 20
1393.2661796204929
 40
12.195358333623068
 50
61.562359565834583
 51
73.677370330264154
  0
ARC
  8
_0-1_レイヤ___3
  6
CONTINUOUS
 62
    7
 10
1001.4667641203323
 20
1385.0084795318467
 40
21.545700058868196
 50
53.240856075480956
 51
61.761852035548557
  0
LINE
  8
_0-1_レイヤ___3
  6
CONTINUOUS
 62
    7
 10
1014.3608414591552
 20
1402.2699962846459
 11
1009.3608414591552
 21
1398.4699962846457
  0
ARC
  8
_0-1_レイヤ___3
  6
CONTINUOUS
 62
    7
 10
846.54760020086542
 20
1406.7195854756412
 40
3.8664193880687665
 50
312.52267986259631
 51
33.791773312141281
  0
ARC
  8
_0-1_レイヤ___3
  6
CONTINUOUS
 62
    7
 10
846.91125426816143
 20
1406.2567530263555
 40
3.8664193880687145
 50
42.522679862602743
 51
123.7917733121477
  0
ARC
  8
_0-1_レイヤ___3
  6
CONTINUOUS
 62
    7
 10
847.04074710549037
 20
1406.6604078470855
 40
3.6182520400108626
 50
129.05837836380894
 51
217.2560748109286
  0
ARC
  8
_0-1_レイヤ___3
  6
CONTINUOUS
 62
    7
 10
846.97043189671547
 20
1406.7498999309807
 40
3.6182520400108142
 50
219.05837836381539
 51
307.25607481093505
  0
ARC
  8
_0-1_レイヤ___3
  6
CONTINUOUS
 62
    7
 10
858.43646867868301
 20
1512.2849212583023
 40
3.6505507430265101
 50
309.54759155480292
 51
36.766861619934701
  0
ARC
  8
_0-1_レイヤ___3
  6
CONTINUOUS
 62
    7
 10
858.55125502159524
 20
1512.1900926383112
 40
3.6182520400109111
 50
39.058378363802568
 51
127.2560748109222
  0
ARC
  8
_0-1_レイヤ___3
  6
CONTINUOUS
 62
    7
 10
858.52963074827926
 20
1512.3613978735057
 40
3.4698910153342917
 50
128.68441707201114
 51
217.06555023018524
  0
ARC
  8
_0-1_レイヤ___3
  6
CONTINUOUS
 62
    7
 10
858.69666833201961
 20
1512.5939017400472
 40
3.744276198382269
 50
218.36401523705865
 51
303.45543092128759
  0
ARC
  8
_0-1_レイヤ___3
  6
CONTINUOUS
 62
    7
 10
723.63282805656809
 20
1424.2154963779049
 40
14.193218563277743
 50
271.88965481730992
 51
306.93090994550761
  0
ARC
  8
_0-1_レイヤ___3
  6
CONTINUOUS
 62
    7
 10
724.39547848973632
 20
1416.3146874981849
 40
6.2915937783872629
 50
187.71566450762427
 51
267.31587798266634
  0
ARC
  8
_0-1_レイヤ___3
  6
CONTINUOUS
 62
    7
 10
734.96052301775421
 20
1417.3478510501027
 40
16.904304321475017
 50
133.89154311155258
 51
186.3780016629394
  0
ARC
  8
_0-1_レイヤ___3
  6
CONTINUOUS
 62
    7
 10
729.32800966291211
 20
1422.8513012398869
 40
9.0365112485069545
 50
93.598456014416101
 51
132.34698664724124
  0
ARC
  8
_0-1_レイヤ___3
  6
CONTINUOUS
 62
    7
 10
728.93253628538446
 20
1422.0454067566438
 40
9.8260896155870388
 50
23.540988729734089
 51
91.00117755200796
  0
ARC
  8
_0-1_レイヤ___3
  6
CONTINUOUS
 62
    7
 10
729.37279915667887
 20
1423.0348974368544
 40
9.0568329281094346
 50
335.29757061668971
 51
18.909581795531555
  0
ARC
  8
_0-1_レイヤ___3
  6
CONTINUOUS
 62
    7
 10
725.17680902607538
 20
1424.6616273160068
 40
13.551473414728431
 50
313.2430193495909
 51
336.46314105876462
  0
ARC
  8
_0-1_レイヤ___3
  6
CONTINUOUS
 62
    7
 10
720.2793499740244
 20
1429.4406419178792
 40
20.390101315721182
 50
305.64130549726008
 51
314.06777816685161
  0
ARC
  8
_0-1_レイヤ___3
  6
CONTINUOUS
 62
    7
 10
764.48094084478214
 20
1391.4795857222064
 40
3.6182506132552117
 50
309.05837565265091
 51
37.25607209977057
  0
ARC
  8
_0-1_レイヤ___3
  6
CONTINUOUS
 62
    7
 10
764.55125502159547
 20
1391.3900926383112
 40
3.6182520400108382
 50
39.058378363812196
 51
127.25607481093185
  0
ARC
  8
_0-1_レイヤ___3
  6
CONTINUOUS
 62
    7
 10
764.97407518394823
 20
1391.4204093378353
 40
3.8664099388057123
 50
132.52257637514055
 51
213.79187137728169
  0
ARC
  8
_0-1_レイヤ___3
  6
CONTINUOUS
 62
    7
 10
764.57043189671538
 20
1391.5499019309809
 40
3.6182520400108142
 50
219.05837836381539
 51
307.25607481093505
  0
ARC
  8
_0-1_レイヤ___3
  6
CONTINUOUS
 62
    7
 10
776.08093981282082
 20
1497.279584722206
 40
3.6182520400108626
 50
309.05837836380897
 51
37.256074810928624
  0
ARC
  8
_0-1_レイヤ___3
  6
CONTINUOUS
 62
    7
 10
776.11125426816045
 20
1496.8567530263556
 40
3.8664193880688176
 50
42.522679862589897
 51
123.79177331213485
  0
ARC
  8
_0-1_レイヤ___3
  6
CONTINUOUS
 62
    7
 10
776.57407634924141
 20
1497.2204083378358
 40
3.8664114634158162
 50
132.52257908629821
 51
213.79187408843936
  0
ARC
  8
_0-1_レイヤ___3
  6
CONTINUOUS
 62
    7
 10
776.17043189671563
 20
1497.3498999309809
 40
3.6182520400109111
 50
219.05837836380257
 51
307.2560748109222
  0
ARC
  8
_0-1_レイヤ___3
  6
CONTINUOUS
 62
    7
 10
960.48093781282091
 20
1337.6795867222063
 40
3.6182520400108626
 50
309.05837836380897
 51
37.256074810928624
  0
ARC
  8
_0-1_レイヤ___3
  6
CONTINUOUS
 62
    7
 10
960.55125302159524
 20
1337.5900946383113
 40
3.6182520400108626
 50
39.058378363808991
 51
127.25607481092864
  0
ARC
  8
_0-1_レイヤ___3
  6
CONTINUOUS
 62
    7
 10
960.64074510549005
 20
1337.6604098470857
 40
3.6182520400108626
 50
129.05837836380894
 51
217.2560748109286
  0
ARC
  8
_0-1_レイヤ___3
  6
CONTINUOUS
 62
    7
 10
960.61043065015042
 20
1338.0832415429363
 40
3.8664193880687665
 50
222.52267986259631
 51
303.79177331214129
  0
ARC
  8
_0-1_レイヤ___3
  6
CONTINUOUS
 62
    7
 10
953.34759820086504
 20
1438.7195854756415
 40
3.8664193880687665
 50
312.52267986259631
 51
33.791773312141281
  0
ARC
  8
_0-1_レイヤ___3
  6
CONTINUOUS
 62
    7
 10
953.71125226816105
 20
1438.2567530263557
 40
3.8664193880687145
 50
42.522679862602743
 51
123.7917733121477
  0
ARC
  8
_0-1_レイヤ___3
  6
CONTINUOUS
 62
    7
 10
953.84074510548999
 20
1438.6604078470855
 40
3.6182520400108626
 50
129.05837836380894
 51
217.2560748109286
  0
ARC
  8
_0-1_レイヤ___3
  6
CONTINUOUS
 62
    7
 10
953.77042989671509
 20
1438.749899930981
 40
3.6182520400108142
 50
219.05837836381539
 51
307.25607481093505
  0
ARC
  8
_0-1_レイヤ___3
  6
CONTINUOUS
 62
    7
 10
662.39509668857409
 20
1428.5731332894964
 40
15.827251659443597
 50
282.64874916865455
 51
305.38809814849736
  0
ARC
  8
_0-1_レイヤ___3
  6
CONTINUOUS
 62
    7
 10
663.96357052570409
 20
1422.0048626428916
 40
9.0754010958096547
 50
254.25463028903397
 51
282.06708806415395
  0
ARC
  8
_0-1_レイヤ___3
  6
CONTINUOUS
 62
    7
 10
663.40082046634393
 20
1418.8195365903107
 40
5.8657738306329925
 50
185.37569014651541
 51
251.10052972369576
  0
ARC
  8
_0-1_レイヤ___3
  6
CONTINUOUS
 62
    7
 10
674.2419957808454
 20
1420.1183587772957
 40
16.783242236202433
 50
134.20218824527251
 51
186.32289207195569
  0
ARC
  8
_0-1_レイヤ___3
  6
CONTINUOUS
 62
    7
 10
669.00015240797927
 20
1425.21278737903
 40
9.4787928376602117
 50
93.867308711606142
 51
132.95691962700531
  0
ARC
  8
_0-1_レイヤ___3
  6
CONTINUOUS
 62
    7
 10
667.70585093928105
 20
1425.0821187909266
 40
9.6102243811285089
 50
326.72931217820712
 51
86.091918797203689
  0
ARC
  8
_0-1_レイヤ___3
  6
CONTINUOUS
 62
    7
 10
661.74445778799566
 20
1429.7614215178446
 40
17.173518335313041
 50
304.86189281348197
 51
324.58719047425268
  0
ARC
  8
_0-1_レイヤ___3
  6
CONTINUOUS
 62
    7
 10
753.88423790164097
 20
1033.1280465156524
 40
60.298708179932063
 50
269.73071975891219
 51
276.93111676039922
  0
ARC
  8
_0-1_レイヤ___3
  6
CONTINUOUS
 62
    7
 10
753.88832889713569
 20
1005.5537598525186
 40
32.725018337549493
 50
254.1688695299265
 51
269.49666034181661
  0
ARC
  8
_0-1_レイヤ___3
  6
CONTINUOUS
 62
    7
 10
745.25485502358947
 20
976.21141677324567
 40
2.1615015776789384
 50
223.26413562486113
 51
262.18233760892474
  0
ARC
  8
_0-1_レイヤ___3
  6
CONTINUOUS
 62
    7
 10
744.3021925110736
 20
975.22099707223811
 40
0.7919255497802304
 50
170.62455085106214
 51
218.31603734909822
  0
ARC
  8
_0-1_レイヤ___3
  6
CONTINUOUS
 62
    7
 10
745.7311179265605
 20
974.89683641909187
 40
2.2562503173495179
 50
142.51121188180494
 51
168.41333116505984
  0
ARC
  8
_0-1_レイヤ___3
  6
CONTINUOUS
 62
    7
 10
733.75412593568626
 20
984.87497571764811
 40
13.334721144913452
 50
319.81140105482257
 51
330.5067109368747
  0
ARC
  8
_0-1_レイヤ___3
  6
CONTINUOUS
 62
    7
 10
744.52951775755082
 20
978.58141216411491
 40
0.8745101397311585
 50
341.91942354004095
 51
76.015897752066437
  0
ARC
  8
_0-1_レイヤ___3
  6
CONTINUOUS
 62
    7
 10
743.06915410275394
 20
975.38450737635139
 40
4.3772819450071472
 50
67.548472668604148
 51
78.246069393203115
  0
ARC
  8
_0-1_レイヤ___3
  6
CONTINUOUS
 62
    7
 10
707.43771921751033
 20
1025.5532431309589
 40
58.644781161591347
 50
308.51984159193313
 51
314.1156102834608
  0
ARC
  8
_0-1_レイヤ___3
  6
CONTINUOUS
 62
    7
 10
765.53139345004354
 20
965.84550711176553
 40
24.661511482784732
 50
123.16338895682712
 51
134.45137579507701
  0
ARC
  8
_0-1_レイヤ___3
  6
CONTINUOUS
 62
    7
 10
756.76199275142949
 20
979.33674530949111
 40
8.5707844285680057
 50
95.36350761746543
 51
123.42479092206783
  0
ARC
  8
_0-1_レイヤ___3
  6
CONTINUOUS
 62
    7
 10
756.86892914855775
 20
973.22151393591662
 40
14.676610149615016
 50
59.214266266456519
 51
93.547318933529439
  0
ARC
  8
_0-1_レイヤ___3
  6
CONTINUOUS
 62
    7
 10
759.60038036338176
 20
978.49734593289691
 40
8.7533254202923132
 50
347.9503222004941
 51
56.898008146618288
  0
ARC
  8
_0-1_レイヤ___3
  6
CONTINUOUS
 62
    7
 10
764.99109109305437
 20
977.42466390339678
 40
3.2583494598610292
 50
294.08591982249135
 51
346.60824337811175
  0
ARC
  8
_0-1_レイヤ___3
  6
CONTINUOUS
 62
    7
 10
762.70788106106806
 20
981.78610815792672
 40
8.1775251347556495
 50
282.091410846369
 51
296.21981404451674
  0
ARC
  8
_0-1_レイヤ___3
  6
CONTINUOUS
 62
    7
 10
757.81511165726613
 20
1004.7240151964731
 40
31.631451495805997
 50
276.07166465457072
 51
282.05404757412418
  0
ARC
  8
_0-1_レイヤ___3
  6
CONTINUOUS
 62
    7
 10
778.59765181122611
 20
1169.3276954126045
 40
2.2110818473830922
 50
311.43375933524214
 51
348.05336633770605
  0
ARC
  8
_0-1_レイヤ___3
  6
CONTINUOUS
 62
    7
 10
779.39488527986668
 20
1168.5478558130987
 40
1.1018759573546126
 50
265.10402028590585
 51
307.18465727466321
  0
ARC
  8
_0-1_レイヤ___3
  6
CONTINUOUS
 62
    7
 10
775.84767993701519
 20
1149.8662023800737
 40
17.919662024142585
 50
78.889459295264189
 51
86.37443856150648
  0
ARC
  8
_0-1_レイヤ___3
  6
CONTINUOUS
 62
    7
 10
777.57924181020201
 20
1167.0534015802516
 40
0.9183301919782803
 50
130.66352815012684
 51
153.02201867508367
  0
ARC
  8
_0-1_レイヤ___3
  6
CONTINUOUS
 62
    7
 10
779.94597329949102
 20
1171.9355359716214
 40
5.485076213822544
 50
210.51999434522395
 51
234.50089981079532
  0
ARC
  8
_0-1_レイヤ___3
  6
CONTINUOUS
 62
    7
 10
776.97042738372772
 20
1170.1034526318128
 40
1.992514814861071
 50
144.87043004918459
 51
208.58859410441644
  0
ARC
  8
_0-1_レイヤ___3
  6
CONTINUOUS
 62
    7
 10
720.53247224987103
 20
1205.0368957876115
 40
64.385649506260762
 50
328.34803530685377
 51
330.84511574413989
  0
ARC
  8
_0-1_レイヤ___3
  6
CONTINUOUS
 62
    7
 10
778.59305245892187
 20
1172.7040240850661
 40
2.0712556184543414
 50
85.908277882002622
 51
152.20093031613774
  0
ARC
  8
_0-1_レイヤ___3
  6
CONTINUOUS
 62
    7
 10
778.22687486846576
 20
1168.4599945853981
 40
6.3309032244026611
 50
62.390949201270409
 51
85.343369737788976
  0
ARC
  8
_0-1_レイヤ___3
  6
CONTINUOUS
 62
    7
 10
778.97894627212168
 20
1170.3972165796224
 40
4.2720036843005733
 50
11.788707729513369
 51
59.286647854426576
  0
ARC
  8
_0-1_レイヤ___3
  6
CONTINUOUS
 62
    7
 10
781.73438695988978
 20
1171.6806240149062
 40
1.4843820236552858
 50
306.66883313338815
 51
343.94085980419169
  0
ARC
  8
_0-1_レイヤ___3
  6
CONTINUOUS
 62
    7
 10
786.82649936227222
 20
1163.7835064699548
 40
7.9160975778415876
 50
122.09190821190143
 51
140.01771933000481
  0
ARC
  8
_0-1_レイヤ___3
  6
CONTINUOUS
 62
    7
 10
768.82001315259686
 20
1083.1592527844864
 40
3.782068910648877
 50
224.46524843628333
 51
247.30580567301791
  0
ARC
  8
_0-1_レイヤ___3
  6
CONTINUOUS
 62
    7
 10
770.17514769158993
 20
1084.7797425177484
 40
5.8879592786724375
 50
208.50275588212872
 51
226.48255078400584
  0
ARC
  8
_0-1_レイヤ___3
  6
CONTINUOUS
 62
    7
 10
766.48360296305214
 20
1082.9158963469033
 40
1.758775518197546
 50
168.3848675310544
 51
212.53495065474797
  0
ARC
  8
_0-1_レイヤ___3
  6
CONTINUOUS
 62
    7
 10
768.31711272060033
 20
1081.5956956966543
 40
3.9306937823354127
 50
22.028973805358696
 51
154.78874565225487
  0
ARC
  8
_0-1_レイヤ___3
  6
CONTINUOUS
 62
    7
 10
769.67671463524653
 20
1082.2177224859488
 40
2.4379551553465877
 50
292.78427653430595
 51
20.462115721524452
  0
ARC
  8
_0-1_レイヤ___3
  6
CONTINUOUS
 62
    7
 10
768.48885556603307
 20
1085.2749373899089
 40
5.7173165775100667
 50
258.62103314075273
 51
291.89458519716629
  0
ARC
  8
_0-1_レイヤ___3
  6
CONTINUOUS
 62
    7
 10
968.25044522966323
 20
992.85768444361929
 40
50.955375829719429
 50
263.49853843691142
 51
276.88729027015648
  0
ARC
  8
_0-1_レイヤ___3
  6
CONTINUOUS
 62
    7
 10
967.83431201312908
 20
981.29070999079454
 40
39.42585924535593
 50
255.79697775138646
 51
262.19594054511458
  0
ARC
  8
_0-1_レイヤ___3
  6
CONTINUOUS
 62
    7
 10
958.56462550164338
 20
945.47715192045666
 40
2.4407788292997838
 50
223.72781571648468
 51
260.47764222162675
  0
ARC
  8
_0-1_レイヤ___3
  6
CONTINUOUS
 62
    7
 10
957.47942877140702
 20
944.30390423913059
 40
0.8512190690817274
 50
170.11703250640676
 51
217.13695721330288
  0
ARC
  8
_0-1_レイヤ___3
  6
CONTINUOUS
 62
    7
 10
958.67433556293349
 20
944.04904036955008
 40
2.0726481445984137
 50
141.1206896241824
 51
168.84552341963339
  0
ARC
  8
_0-1_レイヤ___3
  6
CONTINUOUS
 62
    7
 10
946.32328576215286
 20
954.67429925844931
 40
14.221025951200659
 50
319.02955483063255
 51
329.37563911339055
  0
ARC
  8
_0-1_レイヤ___3
  6
CONTINUOUS
 62
    7
 10
957.76213960805194
 20
947.63420305057684
 40
0.8243917654638437
 50
345.65876887457642
 51
81.721366177397854
  0
ARC
  8
_0-1_レイヤ___3
  6
CONTINUOUS
 62
    7
 10
956.09081119399832
 20
943.87990523503868
 40
4.908157869649548
 50
68.610564081866059
 51
77.407789334175405
  0
ARC
  8
_0-1_レイヤ___3
  6
CONTINUOUS
 62
    7
 10
1146.7400217354366
 20
735.00191221090154
 40
285.6471935179145
 50
129.50135740912131
 51
131.58136627709058
  0
ARC
  8
_0-1_レイヤ___3
  6
CONTINUOUS
 62
    7
 10
970.12306572831392
 20
947.61153579907636
 40
9.3083357396717012
 50
95.933397095816616
 51
123.09209324266267
  0
ARC
  8
_0-1_レイヤ___3
  6
CONTINUOUS
 62
    7
 10
970.13293923050298
 20
941.9802406289059
 40
14.921462254111585
 50
60.05686507854945
 51
93.735329182138372
  0
ARC
  8
_0-1_レイヤ___3
  6
CONTINUOUS
 62
    7
 10
972.86536284447834
 20
947.58776303318746
 40
8.7092454041693035
 50
347.27933503194748
 51
57.218712282474215
  0
ARC
  8
_0-1_レイヤ___3
  6
CONTINUOUS
 62
    7
 10
978.19108909305442
 20
946.42466390339655
 40
3.2583494598610292
 50
294.08591982249135
 51
346.60824337811175
  0
ARC
  8
_0-1_レイヤ___3
  6
CONTINUOUS
 62
    7
 10
975.90787906106812
 20
950.78610815792649
 40
8.1775251347556495
 50
282.091410846369
 51
296.21981404451674
  0
ARC
  8
_0-1_レイヤ___3
  6
CONTINUOUS
 62
    7
 10
971.01510965727186
 20
973.7240151964786
 40
31.631451495810513
 50
276.07166465455941
 51
282.05404757411287
  0
ARC
  8
_0-1_レイヤ___3
  6
CONTINUOUS
 62
    7
 10
991.91709763698668
 20
1138.2847635689834
 40
2.0854058100731656
 50
310.11741045086882
 51
348.52802950554104
  0
ARC
  8
_0-1_レイヤ___3
  6
CONTINUOUS
 62
    7
 10
992.64244430932706
 20
1137.5202300240292
 40
1.0352277310197637
 50
264.36761507843471
 51
306.68060691504576
  0
ARC
  8
_0-1_レイヤ___3
  6
CONTINUOUS
 62
    7
 10
993.38829769691927
 20
1141.0577929583112
 40
4.6457412739534307
 50
241.63043071305248
 51
259.48949963060016
  0
ARC
  8
_0-1_レイヤ___3
  6
CONTINUOUS
 62
    7
 10
990.71082271632349
 20
1136.2507431721624
 40
0.8592138339619726
 50
56.836264897708418
 51
150.79378578478753
  0
ARC
  8
_0-1_レイヤ___3
  6
CONTINUOUS
 62
    7
 10
992.75886601870354
 20
1140.9518167330302
 40
5.1149675984785867
 50
212.41432609224265
 51
236.83672013428668
  0
ARC
  8
_0-1_レイヤ___3
  6
CONTINUOUS
 62
    7
 10
990.18222252339683
 20
1139.211103682811
 40
2.0086353638018331
 50
146.83266009936875
 51
209.89418581741376
  0
ARC
  8
_0-1_レイヤ___3
  6
CONTINUOUS
 62
    7
 10
1424.0125080746629
 20
893.62858104297834
 40
500.52186201733559
 50
150.13466880924329
 51
150.47202611535633
  0
ARC
  8
_0-1_レイヤ___3
  6
CONTINUOUS
 62
    7
 10
991.65427613360066
 20
1141.9951709891106
 40
1.9060554275626718
 50
83.77845385280142
 51
152.67909850995343
  0
ARC
  8
_0-1_レイヤ___3
  6
CONTINUOUS
 62
    7
 10
990.98077841950783
 20
1136.9859056515745
 40
6.9599593142603915
 50
60.945320587122325
 51
82.735698479306762
  0
ARC
  8
_0-1_レイヤ___3
  6
CONTINUOUS
 62
    7
 10
991.51955360277043
 20
1138.3289913569351
 40
5.5272128903701798
 50
38.238713233753799
 51
59.06573232686965
  0
ARC
  8
_0-1_レイヤ___3
  6
CONTINUOUS
 62
    7
 10
994.33020351291248
 20
1140.4084334109152
 40
2.0353511242956479
 50
356.10005282127418
 51
41.233775727168428
  0
ARC
  8
_0-1_レイヤ___3
  6
CONTINUOUS
 62
    7
 10
994.9471444693188
 20
1140.8745977045064
 40
1.5375555987265435
 50
301.95240907319129
 51
336.84500163679206
  0
ARC
  8
_0-1_レイヤ___3
  6
CONTINUOUS
 62
    7
 10
1018.8483454761405
 20
1113.3214666196043
 40
34.957379210963865
 50
131.33398946836707
 51
135.39285644840268
  0
ARC
  8
_0-1_レイヤ___3
  6
CONTINUOUS
 62
    7
 10
981.21569807278092
 20
1051.4450751725578
 40
2.6570354838559567
 50
228.66529522959792
 51
255.73178721057013
  0
ARC
  8
_0-1_レイヤ___3
  6
CONTINUOUS
 62
    7
 10
981.91356929197184
 20
1052.5635809191224
 40
3.9636152354820027
 50
184.24769660936948
 51
231.77065680664438
  0
ARC
  8
_0-1_レイヤ___3
  6
CONTINUOUS
 62
    7
 10
981.76504740154144
 20
1050.835526516913
 40
4.0656738162692978
 50
57.645102701752734
 51
159.33973127367284
  0
ARC
  8
_0-1_レイヤ___3
  6
CONTINUOUS
 62
    7
 10
981.16508265183882
 20
1051.2046894121831
 40
4.1353331138476754
 50
14.928434347792862
 51
47.837947764910226
  0
ARC
  8
_0-1_レイヤ___3
  6
CONTINUOUS
 62
    7
 10
982.78489616111244
 20
1051.3988597372806
 40
2.5306136404289106
 50
294.16496734514385
 51
20.135508511558502
  0
ARC
  8
_0-1_レイヤ___3
  6
CONTINUOUS
 62
    7
 10
981.87542594800107
 20
1053.6538866772073
 40
4.9612178202236104
 50
254.63470280836222
 51
293.08676244140213
  0
ARC
  8
_0-1_レイヤ___3
  6
CONTINUOUS
 62
    7
 10
975.85044522966541
 20
697.05768844361933
 40
50.955375829719422
 50
263.49853843690869
 51
276.88729027015376
  0
ARC
  8
_0-1_レイヤ___3
  6
CONTINUOUS
 62
    7
 10
975.43431201312387
 20
685.49071399079457
 40
39.425859245354957
 50
255.79697775139368
 51
262.1959405451218
  0
ARC
  8
_0-1_レイヤ___3
  6
CONTINUOUS
 62
    7
 10
966.16462550164442
 20
649.67715592045602
 40
2.4407788292994086
 50
223.72781571645604
 51
260.4776422215981
  0
ARC
  8
_0-1_レイヤ___3
  6
CONTINUOUS
 62
    7
 10
965.07942877140636
 20
648.50390823913153
 40
0.8512190690812027
 50
170.11703250646468
 51
217.1369572133608
  0
ARC
  8
_0-1_レイヤ___3
  6
CONTINUOUS
 62
    7
 10
966.2743355629334
 20
648.24904436954989
 40
2.0726481445984137
 50
141.1206896241824
 51
168.84552341963339
  0
ARC
  8
_0-1_レイヤ___3
  6
CONTINUOUS
 62
    7
 10
953.92328576214993
 20
658.87430325844912
 40
14.22102595120321
 50
319.02955483064
 51
329.37563911339799
  0
ARC
  8
_0-1_レイヤ___3
  6
CONTINUOUS
 62
    7
 10
965.36213960805242
 20
651.83420705057733
 40
0.8243917654633137
 50
345.65876887456909
 51
81.721366177390493
  0
ARC
  8
_0-1_レイヤ___3
  6
CONTINUOUS
 62
    7
 10
963.69081119399823
 20
648.07990923503462
 40
4.9081578696530928
 50
68.610564081878707
 51
77.407789334188053
  0
ARC
  8
_0-1_レイヤ___3
  6
CONTINUOUS
 62
    7
 10
1102.9065748587118
 20
503.60618784527816
 40
203.38124728857679
 50
130.13796927278216
 51
132.78468743479254
  0
ARC
  8
_0-1_レイヤ___3
  6
CONTINUOUS
 62
    7
 10
978.02136049903481
 20
650.84724534029101
 40
10.326567584746524
 50
98.130785271257324
 51
127.04055217754969
  0
ARC
  8
_0-1_レイヤ___3
  6
CONTINUOUS
 62
    7
 10
977.5594709538376
 20
645.98967701158381
 40
15.113360055690777
 50
60.24182619757714
 51
93.788632873321319
  0
ARC
  8
_0-1_レイヤ___3
  6
CONTINUOUS
 62
    7
 10
980.34282007870559
 20
651.8599564331671
 40
8.6500276066331985
 50
346.69992124441035
 51
56.945655770720599
  0
ARC
  8
_0-1_レイヤ___3
  6
CONTINUOUS
 62
    7
 10
985.85791454400862
 20
650.31139568186313
 40
2.9362914550682633
 50
296.7785572010344
 51
351.35444827858288
  0
ARC
  8
_0-1_レイヤ___3
  6
CONTINUOUS
 62
    7
 10
983.82011119894855
 20
653.97528897853613
 40
7.1273600500365628
 50
282.97874071792512
 51
298.13334972121743
  0
ARC
  8
_0-1_レイヤ___3
  6
CONTINUOUS
 62
    7
 10
979.26909197973373
 20
674.07010328248111
 40
27.731043239472125
 50
275.57025924059121
 51
282.8169052566476
  0
ARC
  8
_0-1_レイヤ___3
  6
CONTINUOUS
 62
    7
 10
999.33407496489281
 20
842.47006618120372
 40
2.0658727799891397
 50
309.23846076573813
 51
348.83402617011478
  0
ARC
  8
_0-1_レイヤ___3
  6
CONTINUOUS
 62
    7
 10
1000.0877523219037
 20
841.65890740228156
 40
0.9634690276041744
 50
260.0237776612052
 51
305.03383775704037
  0
ARC
  8
_0-1_レイヤ___3
  6
CONTINUOUS
 62
    7
 10
995.38161549613392
 20
825.68464269640822
 40
15.6960543864414
 50
73.190210981126526
 51
81.059785899681373
  0
ARC
  8
_0-1_レイヤ___3
  6
CONTINUOUS
 62
    7
 10
998.3305180818877
 20
840.51026902867625
 40
0.8495957844252654
 50
126.86308258416813
 51
154.94919964344183
  0
ARC
  8
_0-1_レイヤ___3
  6
CONTINUOUS
 62
    7
 10
1000.4385748649145
 20
845.327739690405
 40
5.3059152529453062
 50
212.84466042926493
 51
237.15533957073509
  0
ARC
  8
_0-1_レイヤ___3
  6
CONTINUOUS
 62
    7
 10
997.71902689898639
 20
843.45120098636562
 40
2.0059111281388233
 50
146.78490614929177
 51
209.94193976745973
  0
ARC
  8
_0-1_レイヤ___3
  6
CONTINUOUS
 62
    7
 10
1038.4084269923942
 20
820.71336739157937
 40
48.612731435651114
 50
147.16813258187028
 51
150.63724164656571
  0
ARC
  8
_0-1_レイヤ___3
  6
CONTINUOUS
 62
    7
 10
999.24882168076124
 20
846.20137607227571
 40
1.8983665806089858
 50
84.194603609919739
 51
152.76976788417934
  0
ARC
  8
_0-1_レイヤ___3
  6
CONTINUOUS
 62
    7
 10
998.71522009249475
 20
842.34507753995126
 40
5.7905727393220818
 50
58.26697106131865
 51
82.801294921949832
  0
ARC
  8
_0-1_レイヤ___3
  6
CONTINUOUS
 62
    7
 10
999.43990655621747
 20
843.18212886090828
 40
4.7007957470175672
 50
15.900647531092263
 51
60.413805643658179
  0
ARC
  8
_0-1_レイヤ___3
  6
CONTINUOUS
 62
    7
 10
1002.5602028184596
 20
845.04024972979346
 40
1.5122718633052099
 50
302.86441327708542
 51
337.84723680867228
  0
ARC
  8
_0-1_レイヤ___3
  6
CONTINUOUS
 62
    7
 10
1006.467212428978
 20
838.0525537205026
 40
6.4973032549350052
 50
118.36087247647208
 51
141.80599551149481
  0
ARC
  8
_0-1_レイヤ___3
  6
CONTINUOUS
 62
    7
 10
988.66745073320203
 20
755.67420398444801
 40
2.6530168895438768
 50
231.08299603293199
 51
258.99142430542378
  0
ARC
  8
_0-1_レイヤ___3
  6
CONTINUOUS
 62
    7
 10
989.69076841866411
 20
757.05269167401502
 40
4.3689575115426553
 50
187.66434270171138
 51
231.99786755587496
  0
ARC
  8
_0-1_レイヤ___3
  6
CONTINUOUS
 62
    7
 10
989.06084145915543
 20
754.74633193770637
 40
4.081795346939626
 50
24.978831144491817
 51
155.02116885550819
  0
ARC
  8
_0-1_レイヤ___3
  6
CONTINUOUS
 62
    7
 10
990.19224988841586
 20
755.73273134109604
 40
2.6723093008972332
 50
291.71185854267446
 51
16.015316568569688
  0
ARC
  8
_0-1_レイヤ___3
  6
CONTINUOUS
 62
    7
 10
989.40497949330108
 20
757.62057926730813
 40
4.7175834829436711
 50
254.7088781273481
 51
292.1130117833751
  0
ARC
  8
_0-1_レイヤ___3
  6
CONTINUOUS
 62
    7
 10
737.21557624180036
 20
881.94773741608992
 40
42.781387293428551
 50
256.95736959862325
 51
278.80043760805773
  0
ARC
  8
_0-1_レイヤ___3
  6
CONTINUOUS
 62
    7
 10
727.96462950164425
 20
842.67715392045579
 40
2.4407788292994086
 50
223.72781571645604
 51
260.4776422215981
  0
ARC
  8
_0-1_レイヤ___3
  6
CONTINUOUS
 62
    7
 10
726.87943277140619
 20
841.50390623913131
 40
0.8512190690812027
 50
170.11703250646468
 51
217.1369572133608
  0
ARC
  8
_0-1_レイヤ___3
  6
CONTINUOUS
 62
    7
 10
728.07433956293437
 20
841.24904236954899
 40
2.0726481445999907
 50
141.12068962416654
 51
168.84552341961754
  0
ARC
  8
_0-1_レイヤ___3
  6
CONTINUOUS
 62
    7
 10
715.72328976214976
 20
851.87430125844662
 40
14.221025951201367
 50
319.02955483065028
 51
329.37563911340828
  0
ARC
  8
_0-1_レイヤ___3
  6
CONTINUOUS
 62
    7
 10
727.16214360805225
 20
844.83420505057688
 40
0.8243917654632076
 50
345.65876887460593
 51
81.721366177427328
  0
ARC
  8
_0-1_レイヤ___3
  6
CONTINUOUS
 62
    7
 10
725.49081519399465
 20
841.07990723504236
 40
4.9081578696470869
 50
68.610564081812058
 51
77.407789334121389
  0
ARC
  8
_0-1_レイヤ___3
  6
CONTINUOUS
 62
    7
 10
916.14002573542109
 20
632.20191421091704
 40
285.64719351789239
 50
129.501357409121
 51
131.58136627709024
  0
ARC
  8
_0-1_レイヤ___3
  6
CONTINUOUS
 62
    7
 10
739.52306972831423
 20
844.81153779907481
 40
9.3083357396728417
 50
95.933397095814115
 51
123.09209324266017
  0
ARC
  8
_0-1_レイヤ___3
  6
CONTINUOUS
 62
    7
 10
739.53415685537493
 20
839.48777008284742
 40
14.614682607537661
 50
59.730974011696489
 51
93.818621515843034
  0
ARC
  8
_0-1_レイヤ___3
  6
CONTINUOUS
 62
    7
 10
742.12861548660328
 20
844.8748372695436
 40
8.6672861720388141
 50
346.62578387605981
 51
56.591638929713227
  0
ARC
  8
_0-1_レイヤ___3
  6
CONTINUOUS
 62
    7
 10
747.69821480915368
 20
843.30609722307395
 40
2.8956570143765283
 50
296.29224099000749
 51
351.33820105642121
  0
ARC
  8
_0-1_レイヤ___3
  6
CONTINUOUS
 62
    7
 10
745.90099598871745
 20
846.6447402652434
 40
6.6862949516912735
 50
281.38473926786003
 51
297.4272022401517
  0
ARC
  8
_0-1_レイヤ___3
  6
CONTINUOUS
 62
    7
 10
742.91989301367607
 20
861.0597573831044
 40
21.406276020586699
 50
272.25146252607539
 51
281.59077275080426
  0
ARC
  8
_0-1_レイヤ___3
  6
CONTINUOUS
 62
    7
 10
873.2610353587836
 20
1068.494170477999
 40
4.1885306674414462
 50
183.61601146668195
 51
300.08758883759486
  0
ARC
  8
_0-1_レイヤ___3
  6
CONTINUOUS
 62
    7
 10
871.06927181871072
 20
1067.7413148773396
 40
2.0475992584351865
 50
146.54892282629191
 51
166.19232171234106
  0
ARC
  8
_0-1_レイヤ___3
  6
CONTINUOUS
 62
    7
 10
873.70250093619518
 20
1066.5200262575863
 40
4.9368387633878585
 50
70.372004862848158
 51
151.57498197979504
  0
ARC
  8
_0-1_レイヤ___3
  6
CONTINUOUS
 62
    7
 10
871.86220481100008
 20
1058.7034780765882
 40
12.948154239908794
 50
62.899140426291474
 51
74.32361391807477
  0
ARC
  8
_0-1_レイヤ___3
  6
CONTINUOUS
 62
    7
 10
867.06464101195252
 20
1049.4563315393086
 40
23.365661621859694
 50
55.316075504716949
 51
62.756411431132328
  0
ARC
  8
_0-1_レイヤ___3
  6
CONTINUOUS
 62
    7
 10
849.29258626056935
 20
1104.3598143880492
 40
47.31806519009146
 50
303.42984518955399
 51
311.03982277359466
  0
ARC
  8
_0-1_レイヤ___3
  6
CONTINUOUS
 62
    7
 10
712.88094181282077
 20
1072.8795907222068
 40
3.6182520400108626
 50
309.05837836380897
 51
37.256074810928624
  0
ARC
  8
_0-1_レイヤ___3
  6
CONTINUOUS
 62
    7
 10
712.95125702159567
 20
1072.7900986383113
 40
3.6182520400108142
 50
39.058378363815415
 51
127.25607481093506
  0
ARC
  8
_0-1_レイヤ___3
  6
CONTINUOUS
 62
    7
 10
713.04074910548991
 20
1072.8604138470857
 40
3.6182520400108626
 50
129.05837836380894
 51
217.2560748109286
  0
ARC
  8
_0-1_レイヤ___3
  6
CONTINUOUS
 62
    7
 10
713.0104346501497
 20
1073.2832455429364
 40
3.8664193880687145
 50
222.52267986260273
 51
303.79177331214771
  0
ARC
  8
_0-1_レイヤ___3
  6
CONTINUOUS
 62
    7
 10
724.48094181282102
 20
1178.6795887222061
 40
3.6182520400108626
 50
309.05837836380897
 51
37.256074810928624
  0
ARC
  8
_0-1_レイヤ___3
  6
CONTINUOUS
 62
    7
 10
724.51125626816065
 20
1178.2567570263561
 40
3.8664193880688176
 50
42.522679862589897
 51
123.79177331213485
  0
ARC
  8
_0-1_レイヤ___3
  6
CONTINUOUS
 62
    7
 10
724.64074910549016
 20
1178.6604118470862
 40
3.6182520400108626
 50
129.05837836380894
 51
217.2560748109286
  0
ARC
  8
_0-1_レイヤ___3
  6
CONTINUOUS
 62
    7
 10
724.57043389671583
 20
1178.749903930981
 40
3.6182520400109111
 50
219.05837836380257
 51
307.2560748109222
  0
ARC
  8
_0-1_レイヤ___3
  6
CONTINUOUS
 62
    7
 10
715.88094284478188
 20
991.27959172220608
 40
3.6182506132558201
 50
309.0583756526521
 51
37.256072099771728
  0
ARC
  8
_0-1_レイヤ___3
  6
CONTINUOUS
 62
    7
 10
715.91125626816051
 20
990.8567590263558
 40
3.8664193880687665
 50
42.522679862596327
 51
123.79177331214129
  0
ARC
  8
_0-1_レイヤ___3
  6
CONTINUOUS
 62
    7
 10
716.04074807352902
 20
991.26041484708617
 40
3.6182506132554151
 50
129.05837565265134
 51
217.25607209977096
  0
ARC
  8
_0-1_レイヤ___3
  6
CONTINUOUS
 62
    7
 10
715.97043389671569
 20
991.34990793098063
 40
3.6182520400109111
 50
219.05837836380257
 51
307.2560748109222
  0
ARC
  8
_0-1_レイヤ___3
  6
CONTINUOUS
 62
    7
 10
826.59205617003181
 20
1003.9786006957863
 40
3.4698910153342917
 50
308.68441707201117
 51
37.065550230185266
  0
ARC
  8
_0-1_レイヤ___3
  6
CONTINUOUS
 62
    7
 10
826.42501858629146
 20
1003.7460968292451
 40
3.7442761983822024
 50
38.364015237065018
 51
123.45543092129392
  0
ARC
  8
_0-1_レイヤ___3
  6
CONTINUOUS
 62
    7
 10
826.68521823962806
 20
1004.0550773109894
 40
3.6505507430265101
 50
129.54759155480289
 51
216.76686161993467
  0
ARC
  8
_0-1_レイヤ___3
  6
CONTINUOUS
 62
    7
 10
826.57043189671583
 20
1004.1499059309806
 40
3.6182520400108626
 50
219.05837836380897
 51
307.25607481092862
  0
ARC
  8
_0-1_レイヤ___3
  6
CONTINUOUS
 62
    7
 10
819.34760020086514
 20
1104.9195914756413
 40
3.8664193880687665
 50
312.52267986259631
 51
33.791773312141281
  0
ARC
  8
_0-1_レイヤ___3
  6
CONTINUOUS
 62
    7
 10
819.75125502159585
 20
1104.7900986383113
 40
3.6182520400108142
 50
39.058378363815415
 51
127.25607481093506
  0
ARC
  8
_0-1_レイヤ___3
  6
CONTINUOUS
 62
    7
 10
819.8407471054901
 20
1104.8604138470855
 40
3.6182520400108626
 50
129.05837836380894
 51
217.2560748109286
  0
ARC
  8
_0-1_レイヤ___3
  6
CONTINUOUS
 62
    7
 10
819.81043265014989
 20
1105.2832455429361
 40
3.8664193880687145
 50
222.52267986260273
 51
303.79177331214771
  0
ARC
  8
_0-1_レイヤ___3
  6
CONTINUOUS
 62
    7
 10
1554.4328160565681
 20
1382.0154983779039
 40
14.193218563276695
 50
271.88965481730935
 51
306.93090994550704
  0
ARC
  8
_0-1_レイヤ___3
  6
CONTINUOUS
 62
    7
 10
1555.1954664897362
 20
1374.114689498185
 40
6.2915937783871136
 50
187.71566450762575
 51
267.31587798266781
  0
ARC
  8
_0-1_レイヤ___3
  6
CONTINUOUS
 62
    7
 10
1565.4042115259626
 20
1375.0213337455984
 40
16.536379837943471
 50
124.74028093250277
 51
186.07948473510243
  0
ARC
  8
_0-1_レイヤ___3
  6
CONTINUOUS
 62
    7
 10
1559.9529132221023
 20
1381.7152232809337
 40
7.9570936902252534
 50
91.383222226887568
 51
119.94624382456809
  0
ARC
  8
_0-1_レイヤ___3
  6
CONTINUOUS
 62
    7
 10
1559.1058379392814
 20
1380.0821213757172
 40
9.6102238658539303
 50
326.72930599248372
 51
86.091912611480311
  0
ARC
  8
_0-1_レイヤ___3
  6
CONTINUOUS
 62
    7
 10
1553.1444447879967
 20
1384.7614177659689
 40
17.173514187313302
 50
304.8619065199693
 51
324.58720418073995
  0
ARC
  8
_0-1_レイヤ___3
  6
CONTINUOUS
 62
    7
 10
1656.8504352296645
 20
1416.4576784436217
 40
50.955375829721852
 50
263.49853843691005
 51
276.88729027015512
  0
ARC
  8
_0-1_レイヤ___3
  6
CONTINUOUS
 62
    7
 10
1656.4343020131314
 20
1404.8907039907899
 40
39.425859245351418
 50
255.79697775138141
 51
262.19594054510952
  0
ARC
  8
_0-1_レイヤ___3
  6
CONTINUOUS
 62
    7
 10
1647.1670352746132
 20
1369.0817166027339
 40
2.4456873850700385
 50
223.76600901089779
 51
260.43944892723221
  0
ARC
  8
_0-1_レイヤ___3
  6
CONTINUOUS
 62
    7
 10
1646.0747991059047
 20
1367.9283530973955
 40
0.8625881365258859
 50
171.89292462690335
 51
218.61731277917883
  0
ARC
  8
_0-1_レイヤ___3
  6
CONTINUOUS
 62
    7
 10
1647.2663124624619
 20
1367.6434404831036
 40
2.0854931744988523
 50
141.20776109256093
 51
168.75845195126877
  0
ARC
  8
_0-1_レイヤ___3
  6
CONTINUOUS
 62
    7
 10
1635.706200814288
 20
1377.3794960864655
 40
13.02894160094475
 50
319.68551682319708
 51
330.63259516850013
  0
ARC
  8
_0-1_レイヤ___3
  6
CONTINUOUS
 62
    7
 10
1646.2416255621474
 20
1371.1966713519864
 40
0.8448739896915009
 50
345.84062253143594
 51
80.51640078734448
  0
ARC
  8
_0-1_レイヤ___3
  6
CONTINUOUS
 62
    7
 10
1644.5772168521967
 20
1367.3884817108678
 40
4.9796286764269517
 50
68.764717999720972
 51
78.607577147775771
  0
ARC
  8
_0-1_レイヤ___3
  6
CONTINUOUS
 62
    7
 10
1835.1400117354285
 20
1158.6019062109015
 40
285.64719351790939
 50
129.50135740912012
 51
131.58136627708939
  0
ARC
  8
_0-1_レイヤ___3
  6
CONTINUOUS
 62
    7
 10
1658.5230557283144
 20
1371.2115297990749
 40
9.3083357396728417
 50
95.933397095814115
 51
123.09209324266017
  0
ARC
  8
_0-1_レイヤ___3
  6
CONTINUOUS
 62
    7
 10
1658.559460953838
 20
1365.3896670115846
 40
15.113360055689704
 50
60.241826197578106
 51
93.7886328733223
  0
ARC
  8
_0-1_レイヤ___3
  6
CONTINUOUS
 62
    7
 10
1661.342810078706
 20
1371.2599464331665
 40
8.6500276066333814
 50
346.69992124441342
 51
56.945655770723633
  0
ARC
  8
_0-1_レイヤ___3
  6
CONTINUOUS
 62
    7
 10
1666.5697108369636
 20
1370.0423685300666
 40
3.2832615828459071
 50
294.30021708784432
 51
346.39394611274139
  0
ARC
  8
_0-1_レイヤ___3
  6
CONTINUOUS
 62
    7
 10
1664.2594014898282
 20
1374.2860526107108
 40
8.1096579231218318
 50
282.54471735127299
 51
296.83932512619174
  0
ARC
  8
_0-1_レイヤ___3
  6
CONTINUOUS
 62
    7
 10
1659.2865835942564
 20
1397.9699952178257
 40
32.309594557698404
 50
276.52980349867903
 51
282.03028787674214
  0
ARC
  8
_0-1_レイヤ___3
  6
CONTINUOUS
 62
    7
 10
1595.2809278128207
 20
1349.279586722206
 40
3.6182520400108142
 50
309.05837836381539
 51
37.25607481093504
  0
ARC
  8
_0-1_レイヤ___3
  6
CONTINUOUS
 62
    7
 10
1595.3512430215949
 20
1349.1900946383112
 40
3.6182520400108626
 50
39.058378363808991
 51
127.25607481092864
  0
ARC
  8
_0-1_レイヤ___3
  6
CONTINUOUS
 62
    7
 10
1595.7740643492411
 20
1349.2204103378363
 40
3.8664114634157642
 50
132.52257908630463
 51
213.79187408844578
  0
ARC
  8
_0-1_レイヤ___3
  6
CONTINUOUS
 62
    7
 10
1595.3704198967159
 20
1349.3499019309809
 40
3.6182520400108626
 50
219.05837836380897
 51
307.25607481092862
  0
ARC
  8
_0-1_レイヤ___3
  6
CONTINUOUS
 62
    7
 10
1617.4369260037543
 20
1384.0058231575097
 40
3.7442761983821358
 50
308.36401523707138
 51
33.455430921300277
  0
ARC
  8
_0-1_レイヤ___3
  6
CONTINUOUS
 62
    7
 10
1617.7459064854979
 20
1383.7456235041739
 40
3.6505507430265585
 50
39.54759155479649
 51
126.76686161992828
  0
ARC
  8
_0-1_レイヤ___3
  6
CONTINUOUS
 62
    7
 10
1617.8847369145569
 20
1383.7341734117826
 40
3.7442761983821358
 50
128.36401523707136
 51
213.45543092130026
  0
ARC
  8
_0-1_レイヤ___3
  6
CONTINUOUS
 62
    7
 10
1617.6170748152144
 20
1384.3386929184649
 40
3.9089713682247189
 50
223.05579255526354
 51
303.25866061946124
  0
ARC
  8
_0-1_レイヤ___3
  6
CONTINUOUS
 62
    7
 10
1728.0369240037544
 20
1396.8058211575103
 40
3.7442761983822024
 50
308.36401523706502
 51
33.455430921293932
  0
ARC
  8
_0-1_レイヤ___3
  6
CONTINUOUS
 62
    7
 10
1728.3459044854987
 20
1396.5456215041738
 40
3.6505507430264612
 50
39.547591554809337
 51
126.76686161994112
  0
ARC
  8
_0-1_レイヤ___3
  6
CONTINUOUS
 62
    7
 10
1728.4407331054904
 20
1396.6604078470857
 40
3.6182520400108142
 50
129.05837836381542
 51
217.25607481093505
  0
ARC
  8
_0-1_レイヤ___3
  6
CONTINUOUS
 62
    7
 10
1728.2423444387689
 20
1396.4221161215546
 40
3.3168199293213325
 50
216.05429600622685
 51
309.69567129598119
  0
ARC
  8
_0-1_レイヤ___3
  6
CONTINUOUS
 62
    7
 10
1691.5808343249682
 20
1300.6766977951679
 40
13.675126060103624
 50
272.01149591371785
 51
307.79159028155829
  0
ARC
  8
_0-1_レイヤ___3
  6
CONTINUOUS
 62
    7
 10
1692.305999356317
 20
1293.223931857508
 40
6.2187681855604948
 50
188.82377583341739
 51
267.74059320626583
  0
ARC
  8
_0-1_レイヤ___3
  6
CONTINUOUS
 62
    7
 10
1702.3330523773488
 20
1294.3865759352611
 40
16.310138882852996
 50
125.59012610012408
 51
187.45634041870454
  0
ARC
  8
_0-1_レイヤ___3
  6
CONTINUOUS
 62
    7
 10
1697.2282802672003
 20
1300.4603267047009
 40
8.4226530541559619
 50
93.181493040901657
 51
121.39334901580355
  0
ARC
  8
_0-1_レイヤ___3
  6
CONTINUOUS
 62
    7
 10
1696.7223270862796
 20
1299.0411668773886
 40
9.8289068272633546
 50
21.917399385560344
 51
89.775545364284369
  0
ARC
  8
_0-1_レイヤ___3
  6
CONTINUOUS
 62
    7
 10
1697.1798584564328
 20
1300.0362854997913
 40
9.0642792744870597
 50
333.62829674766698
 51
17.155886153343996
  0
ARC
  8
_0-1_レイヤ___3
  6
CONTINUOUS
 62
    7
 10
1692.7534951819587
 20
1301.852149810361
 40
13.840748965035335
 50
312.14536268436984
 51
335.03289022577229
  0
ARC
  8
_0-1_レイヤ___3
  6
CONTINUOUS
 62
    7
 10
1687.7279674383481
 20
1306.7809011935251
 40
20.871548826420351
 50
305.88089813538085
 51
313.29536356000153
  0
ARC
  8
_0-1_レイヤ___3
  6
CONTINUOUS
 62
    7
 10
1587.3920441700318
 20
1297.5785966957867
 40
3.4698910153342917
 50
308.68441707201117
 51
37.065550230185266
  0
ARC
  8
_0-1_レイヤ___3
  6
CONTINUOUS
 62
    7
 10
1587.2250065862913
 20
1297.3460928292448
 40
3.7442761983822024
 50
38.364015237065018
 51
123.45543092129392
  0
ARC
  8
_0-1_レイヤ___3
  6
CONTINUOUS
 62
    7
 10
1587.8295154589887
 20
1297.6137562046663
 40
3.9089631758833585
 50
133.05569143367879
 51
213.25876174105878
  0
ARC
  8
_0-1_レイヤ___3
  6
CONTINUOUS
 62
    7
 10
1587.3628518747291
 20
1297.6868350810937
 40
3.5729097093792124
 50
218.34951383815559
 51
307.96493933658206
  0
ARC
  8
_0-1_レイヤ___3
  6
CONTINUOUS
 62
    7
 10
1554.3615807612327
 20
1501.5169811606086
 40
14.317143909077538
 50
272.15854599242607
 51
306.91476388383518
  0
ARC
  8
_0-1_レイヤ___3
  6
CONTINUOUS
 62
    7
 10
1555.0297936810534
 20
1493.7112392338097
 40
6.5025218663902917
 50
220.71114468273402
 51
268.86361614078663
  0
ARC
  8
_0-1_レイヤ___3
  6
CONTINUOUS
 62
    7
 10
1555.0517715427065
 20
1493.0679527563957
 40
6.1202188424728767
 50
185.60684589155753
 51
216.00673613387445
  0
ARC
  8
_0-1_レイヤ___3
  6
CONTINUOUS
 62
    7
 10
1565.9613918669133
 20
1494.3430888152275
 40
17.103434210815848
 50
134.65332948533703
 51
186.2873916851135
  0
ARC
  8
_0-1_レイヤ___3
  6
CONTINUOUS
 62
    7
 10
1560.4253593490569
 20
1499.6635350818242
 40
9.4299049315751287
 50
94.040985882072547
 51
133.44480587246503
  0
ARC
  8
_0-1_レイヤ___3
  6
CONTINUOUS
 62
    7
 10
1559.7223290862792
 20
1499.2411648773882
 40
9.8289068272637756
 50
21.91739938556201
 51
89.775545364286032
  0
ARC
  8
_0-1_レイヤ___3
  6
CONTINUOUS
 62
    7
 10
1560.1798604564333
 20
1500.2362834997905
 40
9.0642792744869993
 50
333.62829674767181
 51
17.155886153348824
  0
ARC
  8
_0-1_レイヤ___3
  6
CONTINUOUS
 62
    7
 10
1555.7534971819582
 20
1502.0521478103624
 40
13.840748965036758
 50
312.14536268436683
 51
335.03289022576928
  0
ARC
  8
_0-1_レイヤ___3
  6
CONTINUOUS
 62
    7
 10
1550.7279704383523
 20
1506.9808837599699
 40
20.871536907683158
 50
305.88092519136848
 51
313.29539061598911
  0
ARC
  8
_0-1_レイヤ___3
  6
CONTINUOUS
 62
    7
 10
1656.8504352296627
 20
1535.8576764436216
 40
50.955375829721859
 50
263.49853843691142
 51
276.88729027015648
  0
ARC
  8
_0-1_レイヤ___3
  6
CONTINUOUS
 62
    7
 10
1656.4343020131314
 20
1524.2907019907898
 40
39.425859245351418
 50
255.79697775138141
 51
262.19594054510952
  0
ARC
  8
_0-1_レイヤ___3
  6
CONTINUOUS
 62
    7
 10
1647.1670352746132
 20
1488.4817146027335
 40
2.4456873850700385
 50
223.76600901089779
 51
260.43944892723221
  0
ARC
  8
_0-1_レイヤ___3
  6
CONTINUOUS
 62
    7
 10
1646.0747991059054
 20
1487.3283510973956
 40
0.8625881365265775
 50
171.89292462689085
 51
218.6173127791663
  0
ARC
  8
_0-1_レイヤ___3
  6
CONTINUOUS
 62
    7
 10
1647.2663124624614
 20
1487.0434384831037
 40
2.0854931744983118
 50
141.20776109255399
 51
168.7584519512618
  0
ARC
  8
_0-1_レイヤ___3
  6
CONTINUOUS
 62
    7
 10
1635.7062008142889
 20
1496.7794940864653
 40
13.028941600943526
 50
319.68551682319332
 51
330.63259516849638
  0
ARC
  8
_0-1_レイヤ___3
  6
CONTINUOUS
 62
    7
 10
1646.241625562147
 20
1490.5966693519867
 40
0.8448739896916626
 50
345.84062253142878
 51
80.516400787337304
  0
ARC
  8
_0-1_レイヤ___3
  6
CONTINUOUS
 62
    7
 10
1644.5772168521967
 20
1486.7884797108677
 40
4.9796286764269517
 50
68.764717999720972
 51
78.607577147775771
  0
ARC
  8
_0-1_レイヤ___3
  6
CONTINUOUS
 62
    7
 10
1609.0377052175045
 20
1537.5532351309703
 40
58.644781161603952
 50
308.51984159192989
 51
314.11561028345756
  0
ARC
  8
_0-1_レイヤ___3
  6
CONTINUOUS
 62
    7
 10
1667.1313794500406
 20
1477.8454991117715
 40
24.661511482778415
 50
123.16338895683029
 51
134.4513757950802
  0
ARC
  8
_0-1_レイヤ___3
  6
CONTINUOUS
 62
    7
 10
1658.3619787514299
 20
1491.3367373094898
 40
8.5707844285694996
 50
95.363507617470205
 51
123.42479092207262
  0
ARC
  8
_0-1_レイヤ___3
  6
CONTINUOUS
 62
    7
 10
1658.4959323195271
 20
1485.0379165361965
 40
14.861527622806751
 50
59.401047741947188
 51
93.607485696459165
  0
ARC
  8
_0-1_レイヤ___3
  6
CONTINUOUS
 62
    7
 10
1661.2790318899556
 20
1490.5712126158642
 40
8.6922694085134999
 50
347.36584484338874
 51
56.62468845105024
  0
ARC
  8
_0-1_レイヤ___3
  6
CONTINUOUS
 62
    7
 10
1666.5697108369636
 20
1489.4423665300669
 40
3.2832615828459071
 50
294.30021708784432
 51
346.39394611274139
  0
ARC
  8
_0-1_レイヤ___3
  6
CONTINUOUS
 62
    7
 10
1664.2594014898259
 20
1493.6860506107109
 40
8.1096579231226009
 50
282.54471735128817
 51
296.83932512620697
  0
ARC
  8
_0-1_レイヤ___3
  6
CONTINUOUS
 62
    7
 10
1659.2865835942594
 20
1517.3699932178256
 40
32.309594557697928
 50
276.5298034986738
 51
282.03028787673691
  0
ARC
  8
_0-1_レイヤ___3
  6
CONTINUOUS
 62
    7
 10
1595.2809278128207
 20
1468.6795847222063
 40
3.6182520400108142
 50
309.05837836381539
 51
37.25607481093504
  0
ARC
  8
_0-1_レイヤ___3
  6
CONTINUOUS
 62
    7
 10
1595.3112422681606
 20
1468.2567530263557
 40
3.8664193880687145
 50
42.522679862602743
 51
123.7917733121477
  0
ARC
  8
_0-1_レイヤ___3
  6
CONTINUOUS
 62
    7
 10
1595.7740643492411
 20
1468.6204083378359
 40
3.8664114634157642
 50
132.52257908630463
 51
213.79187408844578
  0
ARC
  8
_0-1_レイヤ___3
  6
CONTINUOUS
 62
    7
 10
1595.3704198967152
 20
1468.749899930981
 40
3.6182520400108142
 50
219.05837836381539
 51
307.25607481093505
  0
ARC
  8
_0-1_レイヤ___3
  6
CONTINUOUS
 62
    7
 10
1617.4369260037543
 20
1503.4058211575098
 40
3.7442761983821358
 50
308.36401523707138
 51
33.455430921300277
  0
ARC
  8
_0-1_レイヤ___3
  6
CONTINUOUS
 62
    7
 10
1617.7459064854986
 20
1503.1456215041737
 40
3.6505507430265336
 50
39.547591554799702
 51
126.76686161993149
  0
ARC
  8
_0-1_レイヤ___3
  6
CONTINUOUS
 62
    7
 10
1617.8847369145569
 20
1503.1341714117823
 40
3.7442761983821358
 50
128.36401523707136
 51
213.45543092130026
  0
ARC
  8
_0-1_レイヤ___3
  6
CONTINUOUS
 62
    7
 10
1617.5757564328126
 20
1503.3943710651183
 40
3.6505507430265336
 50
219.54759155479971
 51
306.76686161993149
  0
ARC
  8
_0-1_レイヤ___3
  6
CONTINUOUS
 62
    7
 10
1728.0369240037544
 20
1516.2058211575099
 40
3.7442761983822024
 50
308.36401523706502
 51
33.455430921293932
  0
ARC
  8
_0-1_レイヤ___3
  6
CONTINUOUS
 62
    7
 10
1728.3045861030969
 20
1515.6013016508273
 40
3.9089713682246927
 50
43.055792555266763
 51
123.25866061946444
  0
ARC
  8
_0-1_レイヤ___3
  6
CONTINUOUS
 62
    7
 10
1728.4407331054904
 20
1516.0604078470863
 40
3.6182520400108142
 50
129.05837836381542
 51
217.25607481093505
  0
ARC
  8
_0-1_レイヤ___3
  6
CONTINUOUS
 62
    7
 10
1728.2423444387696
 20
1515.8221161215547
 40
3.3168199293214053
 50
216.05429600621682
 51
309.69567129597118
  0
ARC
  8
_0-1_レイヤ___3
  6
CONTINUOUS
 62
    7
 10
1691.8184936585146
 20
1420.0961652684018
 40
13.706714951028321
 50
270.51139406816822
 51
306.44422012406739
  0
ARC
  8
_0-1_レイヤ___3
  6
CONTINUOUS
 62
    7
 10
1692.3353654379935
 20
1412.6255656781468
 40
6.2480383098715455
 50
188.79729066978578
 51
266.37963468098303
  0
ARC
  8
_0-1_レイヤ___3
  6
CONTINUOUS
 62
    7
 10
1702.1713103180246
 20
1413.7708078829933
 40
16.147719426038122
 50
125.29737441498415
 51
187.47534699669535
  0
ARC
  8
_0-1_レイヤ___3
  6
CONTINUOUS
 62
    7
 10
1696.9629967198887
 20
1419.9424178720801
 40
8.1300923515698145
 50
91.424880523952865
 51
120.46591127789176
  0
ARC
  8
_0-1_レイヤ___3
  6
CONTINUOUS
 62
    7
 10
1696.1058359392814
 20
1418.4821193757173
 40
9.6102238658536336
 50
326.72930599248241
 51
86.091912611478989
  0
ARC
  8
_0-1_レイヤ___3
  6
CONTINUOUS
 62
    7
 10
1690.1444417879957
 20
1423.1614215178447
 40
17.173518335313041
 50
304.86189281348197
 51
324.58719047425268
  0
ARC
  8
_0-1_レイヤ___3
  6
CONTINUOUS
 62
    7
 10
1587.2364566786832
 20
1416.8849212583027
 40
3.6505507430265101
 50
309.54759155480292
 51
36.766861619934701
  0
ARC
  8
_0-1_レイヤ___3
  6
CONTINUOUS
 62
    7
 10
1587.3512430215953
 20
1416.7900926383113
 40
3.6182520400108626
 50
39.058378363808991
 51
127.25607481092864
  0
ARC
  8
_0-1_レイヤ___3
  6
CONTINUOUS
 62
    7
 10
1587.6488041721182
 20
1416.9214996955259
 40
3.7073227160381506
 50
132.15177917699603
 51
213.59818812519873
  0
ARC
  8
_0-1_レイヤ___3
  6
CONTINUOUS
 62
    7
 10
1587.4966563320197
 20
1417.1939017400475
 40
3.744276198382269
 50
218.36401523705865
 51
303.45543092128759
  0
ARC
  8
_0-1_レイヤ___3
  6
CONTINUOUS
 62
    7
 10
789.2249930285351
 20
909.9598395097471
 40
15.799101721962135
 50
282.41197572282448
 51
305.32763914144914
  0
ARC
  8
_0-1_レイヤ___3
  6
CONTINUOUS
 62
    7
 10
790.7066404227902
 20
903.58219457030009
 40
9.2523684660807071
 50
254.41509762251547
 51
281.94003700221663
  0
ARC
  8
_0-1_レイヤ___3
  6
CONTINUOUS
 62
    7
 10
790.04668006320856
 20
900.06951014297465
 40
5.6998546313767964
 50
184.0191872415003
 51
251.31709391913682
  0
ARC
  8
_0-1_レイヤ___3
  6
CONTINUOUS
 62
    7
 10
801.04199378084502
 20
901.51836677729625
 40
16.783242236201904
 50
134.20218824527424
 51
186.3228920719574
  0
ARC
  8
_0-1_レイヤ___3
  6
CONTINUOUS
 62
    7
 10
795.80015040797946
 20
906.61279537902851
 40
9.4787928376617714
 50
93.867308711602064
 51
132.95691962700124
  0
ARC
  8
_0-1_レイヤ___3
  6
CONTINUOUS
 62
    7
 10
794.5058489392818
 20
906.48212679092671
 40
9.610224381128214
 50
326.72931217820582
 51
86.091918797202382
  0
ARC
  8
_0-1_レイヤ___3
  6
CONTINUOUS
 62
    7
 10
788.54445578799584
 20
911.16142951784673
 40
17.173518335314224
 50
304.86189281347811
 51
324.58719047424881
  0
ARC
  8
_0-1_レイヤ___3
  6
CONTINUOUS
 62
    7
 10
815.61844810328068
 20
656.2042588458437
 40
14.179211572147972
 50
126.71890803800187
 51
161.64217587725747
  0
ARC
  8
_0-1_レイヤ___3
  6
CONTINUOUS
 62
    7
 10
810.5931487357509
 20
662.15032863830947
 40
6.4258337351450283
 50
44.697268368564032
 51
122.49690587004235
  0
ARC
  8
_0-1_レイヤ___3
  6
CONTINUOUS
 62
    7
 10
802.4891852382143
 20
655.70400624425952
 40
16.757807816600526
 50
339.84532447578317
 51
40.872780500379633
  0
ARC
  8
_0-1_レイヤ___3
  6
CONTINUOUS
 62
    7
 10
810.82965592876349
 20
653.35311982868484
 40
8.1453880050216014
 50
307.25736268556938
 51
335.14953311782597
  0
ARC
  8
_0-1_レイヤ___3
  6
CONTINUOUS
 62
    7
 10
810.19096624757481
 20
655.07809417988051
 40
9.9194861870784621
 50
236.67167135428235
 51
304.16019467888805
  0
ARC
  8
_0-1_レイヤ___3
  6
CONTINUOUS
 62
    7
 10
810.34683500389235
 20
654.00392054033523
 40
9.1360643185370769
 50
188.90297215824324
 51
232.14892199031294
  0
ARC
  8
_0-1_レイヤ___3
  6
CONTINUOUS
 62
    7
 10
814.89036134729702
 20
655.0341794257829
 40
13.787885562469134
 50
167.28034248375684
 51
190.21075427089193
  0
ARC
  8
_0-1_レイヤ___3
  6
CONTINUOUS
 62
    7
 10
821.75326393508385
 20
653.84472261438441
 40
20.747227877146234
 50
160.79352434258575
 51
168.24919932655214
  0
ARC
  8
_0-1_レイヤ___3
  6
CONTINUOUS
 62
    7
 10
763.88635759791669
 20
543.2565882953204
 40
1.8963396346486847
 50
164.29147450472939
 51
204.50593620530384
  0
ARC
  8
_0-1_レイヤ___3
  6
CONTINUOUS
 62
    7
 10
762.9825974219483
 20
543.41801587465307
 40
0.9866764579083666
 50
115.30578213996961
 51
159.09941418358127
  0
ARC
  8
_0-1_レイヤ___3
  6
CONTINUOUS
 62
    7
 10
756.72891828766012
 20
560.66273195531403
 40
17.361533839043496
 50
289.62792730455647
 51
297.4079960428349
  0
ARC
  8
_0-1_レイヤ___3
  6
CONTINUOUS
 62
    7
 10
763.89719473542641
 20
545.54035778214575
 40
0.8733263361448434
 50
340.58174528873457
 51
8.5375906490421976
  0
ARC
  8
_0-1_レイヤ___3
  6
CONTINUOUS
 62
    7
 10
764.86017216377547
 20
541.00320052466623
 40
4.6678666998321052
 50
64.8923423506685
 51
91.21930327244462
  0
ARC
  8
_0-1_レイヤ___3
  6
CONTINUOUS
 62
    7
 10
765.84167275277935
 20
543.40665623910445
 40
2.0791734116889509
 50
0.0924274695441917
 51
61.277918709643458
  0
ARC
  8
_0-1_レイヤ___3
  6
CONTINUOUS
 62
    7
 10
479.58117777763391
 20
518.3922824739077
 40
289.42295954216172
 50
4.3748797109110873
 51
4.9588370319677928
  0
ARC
  8
_0-1_レイヤ___3
  6
CONTINUOUS
 62
    7
 10
766.26377826847488
 20
540.24575969878606
 40
1.9102734524016249
 50
298.68998125370996
 51
6.7416041590510005
  0
ARC
  8
_0-1_レイヤ___3
  6
CONTINUOUS
 62
    7
 10
764.38823539842474
 20
543.69131243746233
 40
5.8332148530036836
 50
273.66237396234231
 51
298.60330709860546
  0
ARC
  8
_0-1_レイヤ___3
  6
CONTINUOUS
 62
    7
 10
764.75930841105992
 20
543.93511528720842
 40
6.0651051968187843
 50
250.1599958282838
 51
270.01450127826945
  0
ARC
  8
_0-1_レイヤ___3
  6
CONTINUOUS
 62
    7
 10
763.29225160012527
 20
540.22620704739188
 40
2.0819618403805187
 50
213.73413878800977
 51
253.49715758036919
  0
ARC
  8
_0-1_レイヤ___3
  6
CONTINUOUS
 62
    7
 10
762.76333989517866
 20
539.52820787618157
 40
1.286834376109719
 50
161.80566648717323
 51
200.85877322057837
  0
ARC
  8
_0-1_レイヤ___3
  6
CONTINUOUS
 62
    7
 10
753.16091209564149
 20
543.32117463322243
 40
9.0400910004409898
 50
337.96795974114059
 51
354.5973476221115
  0
ARC
  8
_0-1_レイヤ___3
  6
CONTINUOUS
 62
    7
 10
723.4227094938359
 20
620.49289205922059
 40
2.7873075301266588
 50
85.098912060876359
 51
112.39341246421901
  0
ARC
  8
_0-1_レイヤ___3
  6
CONTINUOUS
 62
    7
 10
723.51937593991806
 20
619.27339285193989
 40
3.9991184705903935
 50
40.488616000675144
 51
87.972728750636762
  0
ARC
  8
_0-1_レイヤ___3
  6
CONTINUOUS
 62
    7
 10
722.50151130262054
 20
620.79967536291315
 40
4.1980717428075316
 50
292.09878782006825
 51
14.77110982577576
  0
ARC
  8
_0-1_レイヤ___3
  6
CONTINUOUS
 62
    7
 10
723.18921185777015
 20
620.57401841289925
 40
3.7709389678253782
 50
225.81272876094624
 51
283.67703383293974
  0
ARC
  8
_0-1_レイヤ___3
  6
CONTINUOUS
 62
    7
 10
722.00914295125756
 20
619.84635343126661
 40
2.4502052494024209
 50
145.04923227378541
 51
233.76543947062166
  0
ARC
  8
_0-1_レイヤ___3
  6
CONTINUOUS
 62
    7
 10
723.8047713748773
 20
618.75755489942526
 40
4.547766072457792
 50
108.51193802328294
 51
146.76590663356848
  0
ARC
  8
_0-1_レイヤ___3
  6
CONTINUOUS
 62
    7
 10
763.44642491355842
 20
659.86279901184753
 40
3.6281880594160305
 50
163.88258379737618
 51
249.24751855678568
  0
ARC
  8
_0-1_レイヤ___3
  6
CONTINUOUS
 62
    7
 10
763.20544125742856
 20
660.19494016098497
 40
3.8686305126646814
 50
254.3346939659703
 51
336.78523637768484
  0
ARC
  8
_0-1_レイヤ___3
  6
CONTINUOUS
 62
    7
 10
763.02407602718574
 20
659.64647745057482
 40
3.8622432435880034
 50
345.3552937353129
 51
69.750329418126611
  0
ARC
  8
_0-1_レイヤ___3
  6
CONTINUOUS
 62
    7
 10
763.41712237989441
 20
659.76683026329147
 40
3.6280663892414138
 50
74.923006266066835
 51
162.29791306586563
  0
ARC
  8
_0-1_レイヤ___3
  6
CONTINUOUS
 62
    7
 10
814.04642491355844
 20
566.26280101184784
 40
3.6281880594160305
 50
163.88258379737618
 51
249.24751855678568
  0
ARC
  8
_0-1_レイヤ___3
  6
CONTINUOUS
 62
    7
 10
813.77660417952541
 20
566.53146890393737
 40
3.7997432889375897
 50
254.49493791026202
 51
340.6106852431775
  0
ARC
  8
_0-1_レイヤ___3
  6
CONTINUOUS
 62
    7
 10
813.85766543780164
 20
566.21373136390707
 40
3.6280663892410523
 50
344.92300626606999
 51
72.297913065868755
  0
ARC
  8
_0-1_レイヤ___3
  6
CONTINUOUS
 62
    7
 10
813.98146526318271
 20
566.23220364393001
 40
3.5745903471165521
 50
74.098563074630889
 51
163.12235625729019
  0
ARC
  8
_0-1_レイヤ___3
  6
CONTINUOUS
 62
    7
 10
714.44642691355853
 20
725.2627970118474
 40
3.6281880594158418
 50
163.88258379737027
 51
249.2475185567798
  0
ARC
  8
_0-1_レイヤ___3
  6
CONTINUOUS
 62
    7
 10
714.17660617952492
 20
725.53146490393738
 40
3.7997432889375897
 50
254.49493791026202
 51
340.6106852431775
  0
ARC
  8
_0-1_レイヤ___3
  6
CONTINUOUS
 62
    7
 10
714.25766743780059
 20
725.21372736390754
 40
3.6280663892414138
 50
344.92300626606686
 51
72.297913065865643
  0
ARC
  8
_0-1_レイヤ___3
  6
CONTINUOUS
 62
    7
 10
714.3814672631828
 20
725.2321996439307
 40
3.5745903471163887
 50
74.098563074639742
 51
163.12235625729903
  0
ARC
  8
_0-1_レイヤ___3
  6
CONTINUOUS
 62
    7
 10
670.63061652535453
 20
891.43041908666623
 40
15.269856783946228
 50
53.278570041452241
 51
77.018258239121266
  0
ARC
  8
_0-1_レイヤ___3
  6
CONTINUOUS
 62
    7
 10
672.16045357984285
 20
897.5322085260982
 40
8.9811573682761097
 50
77.784004376530859
 51
105.89427727028816
  0
ARC
  8
_0-1_レイヤ___3
  6
CONTINUOUS
 62
    7
 10
671.58570336811692
 20
900.62038384356219
 40
5.860970600256258
 50
108.75940156605817
 51
173.63635370080371
  0
ARC
  8
_0-1_レイヤ___3
  6
CONTINUOUS
 62
    7
 10
682.40430694437464
 20
899.50358123330284
 40
16.736937013871227
 50
173.94169771685247
 51
234.90152806421145
  0
ARC
  8
_0-1_レイヤ___3
  6
CONTINUOUS
 62
    7
 10
677.00969957306654
 20
892.99515213603763
 40
8.3372391571254632
 50
239.52085156333814
 51
266.91386014613073
  0
ARC
  8
_0-1_レイヤ___3
  6
CONTINUOUS
 62
    7
 10
676.52234208627931
 20
894.49883717843113
 40
9.8289083098618022
 50
270.22444877250405
 51
338.08259475122804
  0
ARC
  8
_0-1_レイヤ___3
  6
CONTINUOUS
 62
    7
 10
676.97987445643378
 20
893.50371706950204
 40
9.0642792744862355
 50
342.84411384665157
 51
26.371703252328576
  0
ARC
  8
_0-1_レイヤ___3
  6
CONTINUOUS
 62
    7
 10
672.5535111819579
 20
891.68785275892992
 40
13.840748965036758
 50
24.967109774230718
 51
47.854637315633184
  0
ARC
  8
_0-1_レイヤ___3
  6
CONTINUOUS
 62
    7
 10
667.52798343835252
 20
886.75910137576716
 40
20.871548826417552
 50
46.704636440007789
 51
54.119101864628426
  0
ARC
  8
_0-1_レイヤ___3
  6
CONTINUOUS
 62
    7
 10
691.67287274619241
 20
1120.2184988737665
 40
3.7073227160385831
 50
312.15177917699685
 51
33.598188125199556
  0
ARC
  8
_0-1_レイヤ___3
  6
CONTINUOUS
 62
    7
 10
691.82502058629154
 20
1119.9460968292451
 40
3.744276198382269
 50
38.364015237058673
 51
123.45543092128759
  0
ARC
  8
_0-1_レイヤ___3
  6
CONTINUOUS
 62
    7
 10
692.08522023962814
 20
1120.2550773109899
 40
3.6505507430265101
 50
129.54759155480289
 51
216.76686161993467
  0
ARC
  8
_0-1_レイヤ___3
  6
CONTINUOUS
 62
    7
 10
691.97043389671592
 20
1120.3499059309811
 40
3.6182520400109111
 50
219.05837836380257
 51
307.2560748109222
  0
ARC
  8
_0-1_レイヤ___3
  6
CONTINUOUS
 62
    7
 10
654.62499502853518
 20
1026.1598375097471
 40
15.799101721962135
 50
282.41197572282448
 51
305.32763914144914
  0
ARC
  8
_0-1_レイヤ___3
  6
CONTINUOUS
 62
    7
 10
656.10664242279029
 20
1019.7821925703001
 40
9.2523684660807071
 50
254.41509762251547
 51
281.94003700221663
  0
ARC
  8
_0-1_レイヤ___3
  6
CONTINUOUS
 62
    7
 10
655.44668206320864
 20
1016.2695081429749
 40
5.6998546313767964
 50
184.0191872415003
 51
251.31709391913682
  0
ARC
  8
_0-1_レイヤ___3
  6
CONTINUOUS
 62
    7
 10
666.66013617862347
 20
1017.7614535726061
 40
17.004811518973799
 50
134.59673680803195
 51
186.38624521835263
  0
ARC
  8
_0-1_レイヤ___3
  6
CONTINUOUS
 62
    7
 10
660.91706036990161
 20
1023.1358972443925
 40
9.1510245280691116
 50
93.484683297766935
 51
132.61791853518324
  0
ARC
  8
_0-1_レイヤ___3
  6
CONTINUOUS
 62
    7
 10
660.53253628538471
 20
1022.4454127566432
 40
9.8260896155873301
 50
23.540988729736949
 51
91.001177552010816
  0
ARC
  8
_0-1_レイヤ___3
  6
CONTINUOUS
 62
    7
 10
660.97279915667912
 20
1023.4349034368554
 40
9.0568329281094719
 50
335.29757061668488
 51
18.909581795526723
  0
ARC
  8
_0-1_レイヤ___3
  6
CONTINUOUS
 62
    7
 10
656.77680902607563
 20
1025.0616333160074
 40
13.55147341472785
 50
313.24301934958913
 51
336.46314105876286
  0
ARC
  8
_0-1_レイヤ___3
  6
CONTINUOUS
 62
    7
 10
651.87934997402238
 20
1029.8406479178798
 40
20.390101315722418
 50
305.64130549726423
 51
314.06777816685576
  0
ARC
  8
_0-1_レイヤ___3
  6
CONTINUOUS
 62
    7
 10
681.9726199679144
 20
772.05726773522679
 40
15.19413363230661
 50
137.66482933916586
 51
161.53352096585834
  0
ARC
  8
_0-1_レイヤ___3
  6
CONTINUOUS
 62
    7
 10
677.38327691767665
 20
776.0543979790325
 40
9.1106918849333347
 50
108.9752614056807
 51
136.80939808079117
  0
ARC
  8
_0-1_レイヤ___3
  6
CONTINUOUS
 62
    7
 10
676.01359188112326
 20
779.22506947713964
 40
5.6731100819943219
 50
39.978011802587226
 51
106.30519066193162
  0
ARC
  8
_0-1_レイヤ___3
  6
CONTINUOUS
 62
    7
 10
667.48058742160197
 20
771.58483272133844
 40
17.124724507796824
 50
349.17965436981973
 51
41.223563166382831
  0
ARC
  8
_0-1_レイヤ___3
  6
CONTINUOUS
 62
    7
 10
675.18731741566455
 20
770.4108333912975
 40
9.339238120892503
 50
308.18489390269593
 51
347.37777408824201
  0
ARC
  8
_0-1_レイヤ___3
  6
CONTINUOUS
 62
    7
 10
676.14758019611713
 20
771.41182385309799
 40
9.6308588836984494
 50
181.67682474459116
 51
299.9851342234727
  0
ARC
  8
_0-1_レイヤ___3
  6
CONTINUOUS
 62
    7
 10
683.76369623252003
 20
770.97008210271292
 40
17.243592390696534
 50
159.99197935429319
 51
179.46860771103511
  0
ARC
  8
_0-1_レイヤ___3
  6
CONTINUOUS
 62
    7
 10
650.06745473320109
 20
663.87420598444942
 40
2.6530168895444479
 50
231.08299603296578
 51
258.9914243054576
  0
ARC
  8
_0-1_レイヤ___3
  6
CONTINUOUS
 62
    7
 10
651.0907724186643
 20
665.25269367401415
 40
4.3689575115422805
 50
187.66434270170282
 51
231.99786755586641
  0
ARC
  8
_0-1_レイヤ___3
  6
CONTINUOUS
 62
    7
 10
650.31711472060067
 20
662.99570169665321
 40
3.9306937823357222
 50
22.028973805358824
 51
154.78874565225502
  0
ARC
  8
_0-1_レイヤ___3
  6
CONTINUOUS
 62
    7
 10
651.7009231021035
 20
663.63017087004118
 40
2.4109284400156321
 50
292.94573158103668
 51
20.386185865547617
  0
ARC
  8
_0-1_レイヤ___3
  6
CONTINUOUS
 62
    7
 10
650.89596468246953
 20
665.84738537175576
 40
4.7681153864036929
 50
253.73920804830658
 51
291.46591635667573
  0
ARC
  8
_0-1_レイヤ___3
  6
CONTINUOUS
 62
    7
 10
708.48094284478179
 20
585.47959772220588
 40
3.6182506132554151
 50
309.05837565265131
 51
37.256072099770961
  0
ARC
  8
_0-1_レイヤ___3
  6
CONTINUOUS
 62
    7
 10
708.61234887003491
 20
585.1820355716834
 40
3.7073227160381506
 50
42.151779176996023
 51
123.59818812519873
  0
ARC
  8
_0-1_レイヤ___3
  6
CONTINUOUS
 62
    7
 10
708.88474982499474
 20
585.33418441178151
 40
3.744274738056232
 50
128.36401166165783
 51
213.45542734588673
  0
ARC
  8
_0-1_レイヤ___3
  6
CONTINUOUS
 62
    7
 10
708.57577043281196
 20
585.59438506511833
 40
3.6505507430265101
 50
219.54759155480289
 51
306.76686161993467
  0
ARC
  8
_0-1_レイヤ___3
  6
CONTINUOUS
 62
    7
 10
680.43282805656759
 20
516.61551037790468
 40
14.193218563277901
 50
271.88965481731168
 51
306.93090994550937
  0
ARC
  8
_0-1_レイヤ___3
  6
CONTINUOUS
 62
    7
 10
681.19547848973696
 20
508.71470149818521
 40
6.2915937783875631
 50
187.71566450762126
 51
267.31587798266332
  0
ARC
  8
_0-1_レイヤ___3
  6
CONTINUOUS
 62
    7
 10
691.40422352596147
 20
509.62134574559883
 40
16.53637983794248
 50
124.74028093250328
 51
186.07948473510297
  0
ARC
  8
_0-1_レイヤ___3
  6
CONTINUOUS
 62
    7
 10
685.95292522210286
 20
516.31523528093248
 40
7.9570936902265181
 50
91.38322222688933
 51
119.94624382456985
  0
ARC
  8
_0-1_レイヤ___3
  6
CONTINUOUS
 62
    7
 10
685.10585093928171
 20
514.68213279092674
 40
9.6102243811283614
 50
326.72931217820758
 51
86.091918797204144
  0
ARC
  8
_0-1_レイヤ___3
  6
CONTINUOUS
 62
    7
 10
679.14445778799575
 20
519.36143551784517
 40
17.173518335313041
 50
304.86189281348197
 51
324.58719047425268
  0
ARC
  8
_0-1_レイヤ___3
  6
CONTINUOUS
 62
    7
 10
1319.3585110095989
 20
1348.6964028542911
 40
44.897628595242978
 50
226.05468635905873
 51
240.36938378070428
  0
ARC
  8
_0-1_レイヤ___3
  6
CONTINUOUS
 62
    7
 10
1310.6267418691982
 20
1338.2965957945266
 40
31.363942146494558
 50
215.08250985647632
 51
224.35500888663174
  0
ARC
  8
_0-1_レイヤ___3
  6
CONTINUOUS
 62
    7
 10
1286.5641253917242
 20
1321.8625015246801
 40
2.2597784768066935
 50
186.92606634079971
 51
224.80664724742323
  0
ARC
  8
_0-1_レイヤ___3
  6
CONTINUOUS
 62
    7
 10
1285.1026800559334
 20
1321.6252612459339
 40
0.782637414500419
 50
133.81475518124506
 51
182.58242584592028
  0
ARC
  8
_0-1_レイヤ___3
  6
CONTINUOUS
 62
    7
 10
1285.9235902023347
 20
1320.5644927982919
 40
2.121170225419911
 50
103.15510464392639
 51
129.97499771031838
  0
ARC
  8
_0-1_レイヤ___3
  6
CONTINUOUS
 62
    7
 10
1282.7819617458199
 20
1335.3293130560646
 40
12.97467593901775
 50
281.82529023753779
 51
293.04445915204315
  0
ARC
  8
_0-1_レイヤ___3
  6
CONTINUOUS
 62
    7
 10
1287.3689128750702
 20
1324.0662548958576
 40
0.8362492455213376
 50
306.03300278705359
 51
38.777710475749302
  0
ARC
  8
_0-1_レイヤ___3
  6
CONTINUOUS
 62
    7
 10
1284.1866587500836
 20
1322.4918773932122
 40
4.3707021916596114
 50
28.688149169768003
 51
39.466241390541811
  0
ARC
  8
_0-1_レイヤ___3
  6
CONTINUOUS
 62
    7
 10
1306.9241291686621
 20
946.33284151752923
 40
379.43155620556081
 50
91.278099357729516
 51
92.925210068176071
  0
ARC
  8
_0-1_レイヤ___3
  6
CONTINUOUS
 62
    7
 10
1297.4176752965359
 20
1316.9232811436736
 40
8.808702734742285
 50
58.951856223020862
 51
83.198854944871925
  0
ARC
  8
_0-1_レイヤ___3
  6
CONTINUOUS
 62
    7
 10
1293.313108478596
 20
1311.9677776247258
 40
15.201601999777255
 50
21.868354208776093
 51
55.328573310926217
  0
ARC
  8
_0-1_レイヤ___3
  6
CONTINUOUS
 62
    7
 10
1299.170759582692
 20
1314.7754587272602
 40
8.7299569330030096
 50
309.81662388295746
 51
19.085702596120182
  0
ARC
  8
_0-1_レイヤ___3
  6
CONTINUOUS
 62
    7
 10
1302.7793363219594
 20
1310.6151148387949
 40
3.2255165640424939
 50
255.66697459836467
 51
307.90252241415641
  0
ARC
  8
_0-1_レイヤ___3
  6
CONTINUOUS
 62
    7
 10
1303.7628649329179
 20
1316.022388843096
 40
8.7164968701469991
 50
244.57658345140453
 51
258.20308709295904
  0
ARC
  8
_0-1_レイヤ___3
  6
CONTINUOUS
 62
    7
 10
1315.0543914031027
 20
1339.8874785475914
 40
35.118021837237215
 50
239.36771762024915
 51
244.65380538908994
  0
ARC
  8
_0-1_レイヤ___3
  6
CONTINUOUS
 62
    7
 10
1378.4439863932573
 20
1298.5242977374805
 40
2.1144261968689806
 50
269.3726537620455
 51
308.5203556169846
  0
ARC
  8
_0-1_レイヤ___3
  6
CONTINUOUS
 62
    7
 10
1378.4995291742889
 20
1297.4597224293047
 40
1.0526696921069498
 50
223.88497402412145
 51
265.71277868494229
  0
ARC
  8
_0-1_レイヤ___3
  6
CONTINUOUS
 62
    7
 10
1365.4449051473198
 20
1287.3857667913273
 40
15.443592989788657
 50
37.232838584783693
 51
45.336583204355492
  0
ARC
  8
_0-1_レイヤ___3
  6
CONTINUOUS
 62
    7
 10
1376.1974841499778
 20
1297.4200953542081
 40
0.9555088018240097
 50
83.790531791638301
 51
117.19242223307452
  0
ARC
  8
_0-1_レイヤ___3
  6
CONTINUOUS
 62
    7
 10
1380.5576872853953
 20
1299.8444409957556
 40
5.0486292489606841
 50
173.56811476244332
 51
198.17108612361019
  0
ARC
  8
_0-1_レイヤ___3
  6
CONTINUOUS
 62
    7
 10
1377.6302633070213
 20
1300.0766185075042
 40
2.1158569912084668
 50
109.59023566118621
 51
170.93455513798924
  0
ARC
  8
_0-1_レイヤ___3
  6
CONTINUOUS
 62
    7
 10
1419.0331436638139
 20
1206.3648688669387
 40
104.56059630273862
 50
112.06101598815349
 51
113.75052332867391
  0
ARC
  8
_0-1_レイヤ___3
  6
CONTINUOUS
 62
    7
 10
1380.5153060497769
 20
1301.6545246132432
 40
1.7829697291617561
 50
43.862513994517094
 51
115.03386699310862
  0
ARC
  8
_0-1_レイヤ___3
  6
CONTINUOUS
 62
    7
 10
1377.5467232806761
 20
1298.7572989320645
 40
5.9309926964979987
 50
18.813714513379857
 51
44.170607736066451
  0
ARC
  8
_0-1_レイヤ___3
  6
CONTINUOUS
 62
    7
 10
1380.0006382927763
 20
1298.969998284646
 40
3.5884322663792596
 50
331.72236491861628
 51
28.277635081383735
  0
ARC
  8
_0-1_レイヤ___3
  6
CONTINUOUS
 62
    7
 10
1382.4318194254993
 20
1298.2467183968322
 40
1.2187889706083981
 50
266.66112461065512
 51
306.73736385733957
  0
ARC
  8
_0-1_レイヤ___3
  6
CONTINUOUS
 62
    7
 10
1381.5135955639937
 20
1289.5926465810098
 40
7.4854536137452072
 50
83.50105935225146
 51
103.54184740157683
  0
ARC
  8
_0-1_レイヤ___3
  6
CONTINUOUS
 62
    7
 10
1428.4603624992099
 20
1381.3825754730847
 40
2.2769145196709237
 50
273.53707710400931
 51
311.22319299993148
  0
ARC
  8
_0-1_レイヤ___3
  6
CONTINUOUS
 62
    7
 10
1428.5968646777849
 20
1380.1655019896916
 40
1.0555111740147063
 50
227.28344455931386
 51
270.2155444263629
  0
ARC
  8
_0-1_レイヤ___3
  6
CONTINUOUS
 62
    7
 10
1431.9410351628921
 20
1383.1238855809652
 40
5.5160797651805566
 50
206.41442894969981
 51
222.60261702564461
  0
ARC
  8
_0-1_レイヤ___3
  6
CONTINUOUS
 62
    7
 10
1426.2460790093151
 20
1380.2596315150593
 40
0.8591031277778207
 50
28.533258755394584
 51
109.39171919379119
  0
ARC
  8
_0-1_レイヤ___3
  6
CONTINUOUS
 62
    7
 10
1430.8186681904908
 20
1382.6507100607641
 40
5.1085407471008288
 50
173.71460079340096
 51
198.02460009262083
  0
ARC
  8
_0-1_レイヤ___3
  6
CONTINUOUS
 62
    7
 10
1427.7456051779359
 20
1382.9242599952699
 40
2.025030368995381
 50
109.76437344723648
 51
171.88831061188941
  0
ARC
  8
_0-1_レイヤ___3
  6
CONTINUOUS
 62
    7
 10
1448.5204163436936
 20
1333.142432526696
 40
55.9653291397671
 50
109.58470307473583
 51
112.54718823149058
  0
ARC
  8
_0-1_レイヤ___3
  6
CONTINUOUS
 62
    7
 10
1430.6177515930681
 20
1384.0388050995621
 40
2.0217748988592787
 50
48.370717323606613
 51
115.07748218356205
  0
ARC
  8
_0-1_レイヤ___3
  6
CONTINUOUS
 62
    7
 10
1428.500567826522
 20
1381.7098194934506
 40
5.1691789867184372
 50
19.908204338824515
 51
47.978969700674355
  0
ARC
  8
_0-1_レイヤ___3
  6
CONTINUOUS
 62
    7
 10
1429.2015870501018
 20
1381.7699982846457
 40
4.493253909053359
 50
337.76879630468426
 51
22.231203695315713
  0
ARC
  8
_0-1_レイヤ___3
  6
CONTINUOUS
 62
    7
 10
1432.485158155816
 20
1381.5248391066166
 40
1.6980486018223924
 50
266.47764404391825
 51
301.04392617963032
  0
ARC
  8
_0-1_レイヤ___3
  6
CONTINUOUS
 62
    7
 10
1431.5122767251155
 20
1374.5856882800283
 40
5.3157481340617263
 50
80.596099080756773
 51
106.96919804659248
  0
ARC
  8
_0-1_レイヤ___3
  6
CONTINUOUS
 62
    7
 10
1276.0338635691744
 20
1370.5969721746274
 40
3.7291361929191047
 50
271.9512493187687
 51
358.04875068122675
  0
ARC
  8
_0-1_レイヤ___3
  6
CONTINUOUS
 62
    7
 10
1276.1671714366553
 20
1370.2708224961161
 40
3.5991813619225539
 50
3.1723227193514099
 51
90.100831363883614
  0
ARC
  8
_0-1_レイヤ___3
  6
CONTINUOUS
 62
    7
 10
1276.2701798158309
 20
1370.1483416716962
 40
3.7232625069523118
 50
91.682867219051573
 51
175.04397869772245
  0
ARC
  8
_0-1_レイヤ___3
  6
CONTINUOUS
 62
    7
 10
1276.287811349137
 20
1370.5969721746271
 40
3.7291361929188103
 50
181.9512493187687
 51
268.04875068122675
  0
ARC
  8
_0-1_レイヤ___3
  6
CONTINUOUS
 62
    7
 10
1346.2338615691742
 20
1310.3969721746273
 40
3.7291361929188103
 50
271.95124931876421
 51
358.04875068122226
  0
ARC
  8
_0-1_レイヤ___3
  6
CONTINUOUS
 62
    7
 10
1346.2338615691738
 20
1310.1430243946647
 40
3.7291361929193991
 50
1.9512493187687165
 51
88.048750681226764
  0
ARC
  8
_0-1_レイヤ___3
  6
CONTINUOUS
 62
    7
 10
1346.487809349137
 20
1310.143024394665
 40
3.7291361929191047
 50
91.951249318777741
 51
178.04875068123579
  0
ARC
  8
_0-1_レイヤ___3
  6
CONTINUOUS
 62
    7
 10
1346.4878093491366
 20
1310.3969721746271
 40
3.7291361929185158
 50
181.95124931877325
 51
268.0487506812313
  0
ARC
  8
_0-1_レイヤ___3
  6
CONTINUOUS
 62
    7
 10
1343.7616596706262
 20
1257.6636663071465
 40
3.5991813619223962
 50
273.17232271934449
 51
0.1008313638767116
  0
ARC
  8
_0-1_レイヤ___3
  6
CONTINUOUS
 62
    7
 10
1343.7782253480907
 20
1257.4873880661628
 40
3.5872611321513115
 50
2.9179458147369033
 51
87.08208788868032
  0
ARC
  8
_0-1_レイヤ___3
  6
CONTINUOUS
 62
    7
 10
1344.0701766926877
 20
1257.3483426716959
 40
3.7232614743999788
 50
91.682850394836166
 51
175.04396187350704
  0
ARC
  8
_0-1_レイヤ___3
  6
CONTINUOUS
 62
    7
 10
1344.0878093491365
 20
1257.7969741746269
 40
3.7291361929186633
 50
181.95124931877098
 51
268.04875068122902
  0
ARC
  8
_0-1_レイヤ___3
  6
CONTINUOUS
 62
    7
 10
1426.433861569174
 20
1300.3969721746273
 40
3.7291361929188103
 50
271.95124931876421
 51
358.04875068122226
  0
ARC
  8
_0-1_レイヤ___3
  6
CONTINUOUS
 62
    7
 10
1426.5671694366547
 20
1300.0708224961161
 40
3.5991813619228381
 50
3.1723227193466261
 51
90.100831363878839
  0
ARC
  8
_0-1_レイヤ___3
  6
CONTINUOUS
 62
    7
 10
1426.6701778158308
 20
1299.9483416716962
 40
3.7232625069526049
 50
91.682867219056305
 51
175.0439786977272
  0
ARC
  8
_0-1_レイヤ___3
  6
CONTINUOUS
 62
    7
 10
1426.6878093491364
 20
1300.3969721746271
 40
3.7291361929185158
 50
181.95124931877325
 51
268.0487506812313
  0
ARC
  8
_0-1_レイヤ___3
  6
CONTINUOUS
 62
    7
 10
1491.6338595691741
 20
1377.996972174627
 40
3.7291361929191047
 50
271.95124931877774
 51
358.04875068123579
  0
ARC
  8
_0-1_レイヤ___3
  6
CONTINUOUS
 62
    7
 10
1491.6338595691741
 20
1377.7430243946651
 40
3.7291361929188103
 50
1.9512493187687165
 51
88.048750681226764
  0
ARC
  8
_0-1_レイヤ___3
  6
CONTINUOUS
 62
    7
 10
1491.8878073491369
 20
1377.7430243946649
 40
3.7291361929191047
 50
91.951249318768689
 51
178.04875068122672
  0
ARC
  8
_0-1_レイヤ___3
  6
CONTINUOUS
 62
    7
 10
1491.8878073491373
 20
1377.9969721746272
 40
3.7291361929193991
 50
181.9512493187687
 51
268.04875068122675
  0
ARC
  8
_0-1_レイヤ___3
  6
CONTINUOUS
 62
    7
 10
1089.6710026043893
 20
1466.6144999367054
 40
15.147679427684986
 50
244.9646152923585
 51
268.82673241824875
  0
ARC
  8
_0-1_レイヤ___3
  6
CONTINUOUS
 62
    7
 10
1087.0721659539304
 20
1460.9031957384668
 40
8.8734195852831714
 50
216.30014516218415
 51
244.56278850246349
  0
ARC
  8
_0-1_レイヤ___3
  6
CONTINUOUS
 62
    7
 10
1084.6683695279341
 20
1458.7295941620177
 40
5.6588837097318283
 50
146.29267294164768
 51
212.97041400768393
  0
ARC
  8
_0-1_レイヤ___3
  6
CONTINUOUS
 62
    7
 10
1094.0923919601487
 20
1453.4275508702933
 40
16.461338361830371
 50
87.254657939000552
 51
149.14514038332143
  0
ARC
  8
_0-1_レイヤ___3
  6
CONTINUOUS
 62
    7
 10
1093.8476021336733
 20
1461.617486743382
 40
8.3169401284026474
 50
55.479345467314147
 51
82.863542952252203
  0
ARC
  8
_0-1_レイヤ___3
  6
CONTINUOUS
 62
    7
 10
1091.9509151678699
 20
1461.3402014444339
 40
9.7224006089050814
 50
289.40325332277462
 51
47.166870062500031
  0
ARC
  8
_0-1_レイヤ___3
  6
CONTINUOUS
 62
    7
 10
1090.2459400171028
 20
1468.6555887885679
 40
17.208369844600128
 50
267.05173044111046
 51
286.66487100643781
  0
ARC
  8
_0-1_レイヤ___3
  6
CONTINUOUS
 62
    7
 10
1212.8987539680952
 20
1450.5606448183505
 40
2.2351690314935131
 50
273.64459098654584
 51
310.85345632787499
  0
ARC
  8
_0-1_レイヤ___3
  6
CONTINUOUS
 62
    7
 10
1213.0299007923777
 20
1449.3728591048621
 40
1.0429201659130283
 50
228.6462817278819
 51
270.60084784453881
  0
ARC
  8
_0-1_レイヤ___3
  6
CONTINUOUS
 62
    7
 10
1215.1650306738566
 20
1451.3538025057107
 40
3.9515430076818103
 50
204.90104061197584
 51
224.38085441182542
  0
ARC
  8
_0-1_レイヤ___3
  6
CONTINUOUS
 62
    7
 10
1210.7097021553727
 20
1449.4307116801365
 40
0.9089033081869961
 50
16.575104067296213
 51
112.57114759353489
  0
ARC
  8
_0-1_レイヤ___3
  6
CONTINUOUS
 62
    7
 10
1215.2186701904902
 20
1451.8507080607646
 40
5.1085407471001574
 50
173.71460079340173
 51
198.02460009262163
  0
ARC
  8
_0-1_レイヤ___3
  6
CONTINUOUS
 62
    7
 10
1212.1456071779362
 20
1452.1242579952695
 40
2.0250303689957292
 50
109.76437344722439
 51
171.88831061187733
  0
ARC
  8
_0-1_レイヤ___3
  6
CONTINUOUS
 62
    7
 10
1232.9204183436991
 20
1402.3424305267072
 40
55.965329139758815
 50
109.58470307474512
 51
112.54718823149986
  0
ARC
  8
_0-1_レイヤ___3
  6
CONTINUOUS
 62
    7
 10
1215.1203838115941
 20
1453.3638720425631
 40
1.9574445412070745
 50
52.173246196664287
 51
119.35396420522304
  0
ARC
  8
_0-1_レイヤ___3
  6
CONTINUOUS
 62
    7
 10
1213.8719677387639
 20
1452.0443095303665
 40
3.7694991021496427
 50
28.621784942934511
 51
49.4844889490996
  0
ARC
  8
_0-1_レイヤ___3
  6
CONTINUOUS
 62
    7
 10
1206.599249439663
 20
1447.9163343767591
 40
12.131708397887635
 50
23.068901006007369
 51
29.281678957519635
  0
ARC
  8
_0-1_レイヤ___3
  6
CONTINUOUS
 62
    7
 10
1213.6015910501021
 20
1450.969996284646
 40
4.4932539090537347
 50
337.76879630468426
 51
22.231203695315713
  0
ARC
  8
_0-1_レイヤ___3
  6
CONTINUOUS
 62
    7
 10
1216.885162155816
 20
1450.7248371066166
 40
1.6980486018223924
 50
266.47764404391825
 51
301.04392617963032
  0
ARC
  8
_0-1_レイヤ___3
  6
CONTINUOUS
 62
    7
 10
1215.9122797251155
 20
1443.7856820119989
 40
5.3157525081263088
 50
80.596095963676035
 51
106.96919492951174
  0
ARC
  8
_0-1_レイヤ___3
  6
CONTINUOUS
 62
    7
 10
1101.8514971024808
 20
1414.7916528975957
 40
3.7232625069520173
 50
271.68286721904678
 51
355.04397869771771
  0
ARC
  8
_0-1_レイヤ___3
  6
CONTINUOUS
 62
    7
 10
1101.8338655691741
 20
1414.3430223946648
 40
3.7291361929191047
 50
1.9512493187641919
 51
88.048750681222231
  0
ARC
  8
_0-1_レイヤ___3
  6
CONTINUOUS
 62
    7
 10
1102.0878133491374
 20
1414.3430223946646
 40
3.7291361929193991
 50
91.951249318773208
 51
178.04875068123127
  0
ARC
  8
_0-1_レイヤ___3
  6
CONTINUOUS
 62
    7
 10
1101.9545054816558
 20
1414.6691720731758
 40
3.5991813619222701
 50
183.17232271935617
 51
270.1008313638884
  0
ARC
  8
_0-1_レイヤ___3
  6
CONTINUOUS
 62
    7
 10
1175.8338635691739
 20
1491.1969701746273
 40
3.7291361929193991
 50
271.95124931877325
 51
358.0487506812313
  0
ARC
  8
_0-1_レイヤ___3
  6
CONTINUOUS
 62
    7
 10
1175.8338635691746
 20
1490.9430223946649
 40
3.7291361929191047
 50
1.9512493187732418
 51
88.048750681231283
  0
ARC
  8
_0-1_レイヤ___3
  6
CONTINUOUS
 62
    7
 10
1176.0878113491367
 20
1490.9430223946649
 40
3.7291361929191047
 50
91.951249318768689
 51
178.04875068122672
  0
ARC
  8
_0-1_レイヤ___3
  6
CONTINUOUS
 62
    7
 10
1176.0878113491372
 20
1491.1969701746273
 40
3.7291361929193991
 50
181.9512493187687
 51
268.04875068122675
  0
ARC
  8
_0-1_レイヤ___3
  6
CONTINUOUS
 62
    7
 10
1360.4055637702963
 20
1477.7540165844903
 40
13.886176998466937
 50
233.37201448459956
 51
268.99017380173058
  0
ARC
  8
_0-1_レイヤ___3
  6
CONTINUOUS
 62
    7
 10
1356.3270744716356
 20
1471.529631508497
 40
6.4726545841610292
 50
152.98170767435667
 51
229.46988785127445
  0
ARC
  8
_0-1_レイヤ___3
  6
CONTINUOUS
 62
    7
 10
1365.0803773918569
 20
1465.5014167110357
 40
17.066121923378976
 50
96.72848011909538
 51
148.29677880637323
  0
ARC
  8
_0-1_レイヤ___3
  6
CONTINUOUS
 62
    7
 10
1363.9225113173052
 20
1473.2006223717035
 40
9.2875904319482459
 50
55.666201766647838
 51
95.199489403977694
  0
ARC
  8
_0-1_レイヤ___3
  6
CONTINUOUS
 62
    7
 10
1363.1956150420588
 20
1473.0573219990151
 40
9.8296355028001408
 50
345.70351619411542
 51
52.637137500209086
  0
ARC
  8
_0-1_レイヤ___3
  6
CONTINUOUS
 62
    7
 10
1364.2206115395447
 20
1473.5622059225691
 40
8.9917551147837163
 50
297.27246380719873
 51
340.96778001784446
  0
ARC
  8
_0-1_レイヤ___3
  6
CONTINUOUS
 62
    7
 10
1361.8933668581276
 20
1477.4266338500445
 40
13.496284885792162
 50
275.38872547016285
 51
298.5367102093436
  0
ARC
  8
_0-1_レイヤ___3
  6
CONTINUOUS
 62
    7
 10
1360.8388610809288
 20
1484.4793557403043
 40
20.620509594001341
 50
268.11571047904113
 51
276.46550960623597
  0
ARC
  8
_0-1_レイヤ___3
  6
CONTINUOUS
 62
    7
 10
1443.2640229947997
 20
1459.2563677913895
 40
15.38935840241705
 50
245.16681141275072
 51
268.87112871859296
  0
ARC
  8
_0-1_レイヤ___3
  6
CONTINUOUS
 62
    7
 10
1440.7177919135329
 20
1453.5105886935319
 40
9.1060805556701592
 50
216.53200618869221
 51
244.52307411461004
  0
ARC
  8
_0-1_レイヤ___3
  6
CONTINUOUS
 62
    7
 10
1438.2656848657512
 20
1451.3106223122736
 40
5.8343132601949499
 50
147.2131008010235
 51
213.50533216208092
  0
ARC
  8
_0-1_レイヤ___3
  6
CONTINUOUS
 62
    7
 10
1447.6831696488614
 20
1445.7181143523167
 40
16.784658211842792
 50
96.026984900653886
 51
148.57234762322324
  0
ARC
  8
_0-1_レイヤ___3
  6
CONTINUOUS
 62
    7
 10
1446.7381597180311
 20
1453.0009382350408
 40
9.4444902241621556
 50
56.427871900714294
 51
94.964587188670293
  0
ARC
  8
_0-1_レイヤ___3
  6
CONTINUOUS
 62
    7
 10
1446.0616317326071
 20
1453.1355230382678
 40
9.7274178181804771
 50
345.07385884063586
 51
52.666676796266444
  0
ARC
  8
_0-1_レイヤ___3
  6
CONTINUOUS
 62
    7
 10
1446.8585050122801
 20
1453.6672384123631
 40
9.1227679160600097
 50
297.42853094789922
 51
340.55329524896797
  0
ARC
  8
_0-1_レイヤ___3
  6
CONTINUOUS
 62
    7
 10
1444.6058236751901
 20
1457.4185724172953
 40
13.492809480692816
 50
275.59292707768907
 51
298.58119600775086
  0
ARC
  8
_0-1_レイヤ___3
  6
CONTINUOUS
 62
    7
 10
1443.622326598741
 20
1464.1198321748552
 40
20.260637372849768
 50
268.12900743866606
 51
276.51405374099966
  0
ARC
  8
_0-1_レイヤ___3
  6
CONTINUOUS
 62
    7
 10
1319.3585110095989
 20
1468.096400854291
 40
44.897628595242978
 50
226.05468635905873
 51
240.36938378070428
  0
ARC
  8
_0-1_レイヤ___3
  6
CONTINUOUS
 62
    7
 10
1310.6267418692016
 20
1457.6965937945265
 40
31.363942146497259
 50
215.08250985647223
 51
224.35500888662764
  0
ARC
  8
_0-1_レイヤ___3
  6
CONTINUOUS
 62
    7
 10
1286.5641253917233
 20
1441.2624995246802
 40
2.2597784768059048
 50
186.9260663408094
 51
224.80664724743292
  0
ARC
  8
_0-1_レイヤ___3
  6
CONTINUOUS
 62
    7
 10
1285.1026800559343
 20
1441.0252592459342
 40
0.7826374145010582
 50
133.81475518126376
 51
182.58242584593901
  0
ARC
  8
_0-1_レイヤ___3
  6
CONTINUOUS
 62
    7
 10
1285.9235902023333
 20
1439.964490798292
 40
2.1211702254193625
 50
103.15510464389681
 51
129.97499771028879
  0
ARC
  8
_0-1_レイヤ___3
  6
CONTINUOUS
 62
    7
 10
1282.7819617458199
 20
1454.7293110560645
 40
12.97467593901775
 50
281.82529023753779
 51
293.04445915204315
  0
ARC
  8
_0-1_レイヤ___3
  6
CONTINUOUS
 62
    7
 10
1287.3689128750702
 20
1443.4662528958575
 40
0.8362492455213376
 50
306.03300278705359
 51
38.777710475749302
  0
ARC
  8
_0-1_レイヤ___3
  6
CONTINUOUS
 62
    7
 10
1284.1866587500799
 20
1441.8918753932123
 40
4.3707021916621187
 50
28.68814916974577
 51
39.466241390519578
  0
ARC
  8
_0-1_レイヤ___3
  6
CONTINUOUS
 62
    7
 10
1306.9241291686524
 20
1065.7328395175293
 40
379.43155620556064
 50
91.278099357728024
 51
92.925210068174579
  0
ARC
  8
_0-1_レイヤ___3
  6
CONTINUOUS
 62
    7
 10
1297.4176752965359
 20
1436.3232791436737
 40
8.808702734742285
 50
58.951856223020862
 51
83.198854944871925
  0
ARC
  8
_0-1_レイヤ___3
  6
CONTINUOUS
 62
    7
 10
1293.313108478596
 20
1431.3677756247259
 40
15.20160199977764
 50
21.868354208774928
 51
55.328573310925051
  0
ARC
  8
_0-1_レイヤ___3
  6
CONTINUOUS
 62
    7
 10
1299.170759582692
 20
1434.1754567272599
 40
8.7299569330030096
 50
309.81662388295746
 51
19.085702596120182
  0
ARC
  8
_0-1_レイヤ___3
  6
CONTINUOUS
 62
    7
 10
1302.770452601834
 20
1429.6842754689833
 40
2.9773572551696903
 50
258.18507152667621
 51
311.95190479230018
  0
ARC
  8
_0-1_レイヤ___3
  6
CONTINUOUS
 62
    7
 10
1303.4706642722551
 20
1434.0256660085101
 40
7.372950200660866
 50
244.88088255368012
 51
259.76690004900979
  0
ARC
  8
_0-1_レイヤ___3
  6
CONTINUOUS
 62
    7
 10
1315.4667429771462
 20
1459.1149880911635
 40
35.18249255966586
 50
238.64675213825751
 51
244.53706524510119
  0
ARC
  8
_0-1_レイヤ___3
  6
CONTINUOUS
 62
    7
 10
1378.3079555448439
 20
1417.9328553376195
 40
2.2081576654458859
 50
273.97000040039251
 51
311.14449286902175
  0
ARC
  8
_0-1_レイヤ___3
  6
CONTINUOUS
 62
    7
 10
1378.4443500539317
 20
1416.7061113786747
 40
0.9762542933970328
 50
227.18343196828505
 51
270.96756454184799
  0
ARC
  8
_0-1_レイヤ___3
  6
CONTINUOUS
 62
    7
 10
1381.0334919130389
 20
1418.9500125820186
 40
4.3978938695352365
 50
204.16027457579915
 51
222.30314756018123
  0
ARC
  8
_0-1_レイヤ___3
  6
CONTINUOUS
 62
    7
 10
1376.1354664360681
 20
1416.7912174979335
 40
0.9553012743832771
 50
22.059306415955938
 51
113.08896974131667
  0
ARC
  8
_0-1_レイヤ___3
  6
CONTINUOUS
 62
    7
 10
1380.5521010875987
 20
1419.2438647137394
 40
5.0431426863010334
 50
173.55452181017526
 51
198.18467907588135
  0
ARC
  8
_0-1_レイヤ___3
  6
CONTINUOUS
 62
    7
 10
1377.550363684175
 20
1419.495953722592
 40
2.0339189801788624
 50
108.02999841227935
 51
171.11784410751071
  0
ARC
  8
_0-1_レイヤ___3
  6
CONTINUOUS
 62
    7
 10
1395.9760803997233
 20
1373.7922120238602
 40
51.307512598275238
 50
108.42363102050568
 51
111.80154555764102
  0
ARC
  8
_0-1_レイヤ___3
  6
CONTINUOUS
 62
    7
 10
1380.6513827280139
 20
1421.021837145372
 40
1.7000703899346894
 50
49.262668581571347
 51
121.58948889863146
  0
ARC
  8
_0-1_レイヤ___3
  6
CONTINUOUS
 62
    7
 10
1379.0595052675458
 20
1419.376435047416
 40
3.9878523463991162
 50
27.373340727877263
 51
47.359998097669639
  0
ARC
  8
_0-1_レイヤ___3
  6
CONTINUOUS
 62
    7
 10
1370.8118022424424
 20
1414.7113483887174
 40
13.4615648666875
 50
23.457593027112331
 51
28.865539856922108
  0
ARC
  8
_0-1_レイヤ___3
  6
CONTINUOUS
 62
    7
 10
1380.0006382927763
 20
1418.369996284646
 40
3.5884322663792596
 50
331.72236491861628
 51
28.277635081383735
  0
ARC
  8
_0-1_レイヤ___3
  6
CONTINUOUS
 62
    7
 10
1382.4318194254993
 20
1417.6467163968323
 40
1.2187889706083981
 50
266.66112461065512
 51
306.73736385733957
  0
ARC
  8
_0-1_レイヤ___3
  6
CONTINUOUS
 62
    7
 10
1381.5135955639948
 20
1408.9926445810099
 40
7.4854536137452587
 50
83.501059352257712
 51
103.5418474015831
  0
ARC
  8
_0-1_レイヤ___3
  6
CONTINUOUS
 62
    7
 10
1428.4603624992099
 20
1500.7825734730843
 40
2.2769145196709237
 50
273.53707710400931
 51
311.22319299993148
  0
ARC
  8
_0-1_レイヤ___3
  6
CONTINUOUS
 62
    7
 10
1428.5968646777849
 20
1499.5654999896915
 40
1.0555111740147063
 50
227.28344455931386
 51
270.2155444263629
  0
ARC
  8
_0-1_レイヤ___3
  6
CONTINUOUS
 62
    7
 10
1431.9410351628931
 20
1502.523883580965
 40
5.516079765181388
 50
206.41442894969384
 51
222.60261702563864
  0
ARC
  8
_0-1_レイヤ___3
  6
CONTINUOUS
 62
    7
 10
1426.2460790093151
 20
1499.6596295150594
 40
0.8591031277778207
 50
28.533258755394584
 51
109.39171919379119
  0
ARC
  8
_0-1_レイヤ___3
  6
CONTINUOUS
 62
    7
 10
1430.8186681904904
 20
1502.0507080607645
 40
5.1085407471001574
 50
173.71460079340173
 51
198.02460009262163
  0
ARC
  8
_0-1_レイヤ___3
  6
CONTINUOUS
 62
    7
 10
1427.7456051779359
 20
1502.3242579952696
 40
2.025030368995381
 50
109.76437344723648
 51
171.88831061188941
  0
ARC
  8
_0-1_レイヤ___3
  6
CONTINUOUS
 62
    7
 10
1448.5204163436993
 20
1452.5424305266959
 40
55.965329139769082
 50
109.58470307474109
 51
112.54718823149582
  0
ARC
  8
_0-1_レイヤ___3
  6
CONTINUOUS
 62
    7
 10
1430.6177515930681
 20
1503.4388030995619
 40
2.0217748988592414
 50
48.37071732361386
 51
115.07748218356932
  0
ARC
  8
_0-1_レイヤ___3
  6
CONTINUOUS
 62
    7
 10
1428.500567826522
 20
1501.1098174934509
 40
5.1691789867184372
 50
19.908204338824515
 51
47.978969700674355
  0
ARC
  8
_0-1_レイヤ___3
  6
CONTINUOUS
 62
    7
 10
1429.2015870501014
 20
1501.1699962846458
 40
4.4932539090541104
 50
337.76879630468426
 51
22.231203695315713
  0
ARC
  8
_0-1_レイヤ___3
  6
CONTINUOUS
 62
    7
 10
1432.5099974620946
 20
1500.4409407769319
 40
1.2909899693627591
 50
270.48092100130208
 51
311.22799507782395
  0
ARC
  8
_0-1_レイヤ___3
  6
CONTINUOUS
 62
    7
 10
1431.6368018892745
 20
1486.4390484200508
 40
12.741652460847154
 50
86.02155187541311
 51
97.558272136001079
  0
ARC
  8
_0-1_レイヤ___3
  6
CONTINUOUS
 62
    7
 10
1276.0514951024807
 20
1489.9916528975962
 40
3.7232625069526226
 50
271.68286721904707
 51
355.04397869771793
  0
ARC
  8
_0-1_レイヤ___3
  6
CONTINUOUS
 62
    7
 10
1276.0338635691744
 20
1489.5430223946646
 40
3.7291361929191047
 50
1.9512493187732418
 51
88.048750681231283
  0
ARC
  8
_0-1_レイヤ___3
  6
CONTINUOUS
 62
    7
 10
1276.287811349137
 20
1489.5430223946651
 40
3.7291361929188103
 50
91.951249318773208
 51
178.04875068123127
  0
ARC
  8
_0-1_レイヤ___3
  6
CONTINUOUS
 62
    7
 10
1276.1545034816561
 20
1489.8691720731756
 40
3.5991813619222537
 50
183.17232271934691
 51
270.10083136387914
  0
ARC
  8
_0-1_レイヤ___3
  6
CONTINUOUS
 62
    7
 10
1346.2338615691742
 20
1429.7969701746274
 40
3.7291361929191047
 50
271.9512493187687
 51
358.04875068122675
  0
ARC
  8
_0-1_レイヤ___3
  6
CONTINUOUS
 62
    7
 10
1346.3671694366553
 20
1429.4708204961162
 40
3.5991813619225539
 50
3.1723227193514099
 51
90.100831363883614
  0
ARC
  8
_0-1_レイヤ___3
  6
CONTINUOUS
 62
    7
 10
1346.470177815831
 20
1429.3483396716963
 40
3.7232625069523118
 50
91.682867219051573
 51
175.04397869772245
  0
ARC
  8
_0-1_レイヤ___3
  6
CONTINUOUS
 62
    7
 10
1346.487809349137
 20
1429.7969701746272
 40
3.7291361929188103
 50
181.9512493187687
 51
268.04875068122675
  0
ARC
  8
_0-1_レイヤ___3
  6
CONTINUOUS
 62
    7
 10
1426.4514931024803
 20
1419.7916528975961
 40
3.7232625069523291
 50
271.68286721904224
 51
355.04397869771316
  0
ARC
  8
_0-1_レイヤ___3
  6
CONTINUOUS
 62
    7
 10
1426.4338615691736
 20
1419.3430223946646
 40
3.7291361929193991
 50
1.9512493187687165
 51
88.048750681226764
  0
ARC
  8
_0-1_レイヤ___3
  6
CONTINUOUS
 62
    7
 10
1426.6878093491368
 20
1419.3430223946648
 40
3.7291361929191047
 50
91.951249318777741
 51
178.04875068123579
  0
ARC
  8
_0-1_レイヤ___3
  6
CONTINUOUS
 62
    7
 10
1426.5545014816553
 20
1419.6691720731756
 40
3.5991813619219695
 50
183.17232271935168
 51
270.10083136388391
  0
ARC
  8
_0-1_レイヤ___3
  6
CONTINUOUS
 62
    7
 10
1491.6338595691741
 20
1497.3969701746271
 40
3.7291361929188103
 50
271.95124931877325
 51
358.0487506812313
  0
ARC
  8
_0-1_レイヤ___3
  6
CONTINUOUS
 62
    7
 10
1491.6338595691741
 20
1497.1430223946652
 40
3.7291361929191047
 50
1.9512493187641919
 51
88.048750681222231
  0
ARC
  8
_0-1_レイヤ___3
  6
CONTINUOUS
 62
    7
 10
1491.8878073491373
 20
1497.143022394665
 40
3.7291361929193991
 50
91.951249318773208
 51
178.04875068123127
  0
ARC
  8
_0-1_レイヤ___3
  6
CONTINUOUS
 62
    7
 10
1491.8878073491369
 20
1497.3969701746273
 40
3.7291361929191047
 50
181.95124931877325
 51
268.0487506812313
  0
LINE
  8
_0-1_レイヤ___3
  6
CONTINUOUS
 62
    7
 10
1269.960837459156
 20
1098.4700022846462
 11
1273.7608374591555
 21
1095.670002284646
  0
LINE
  8
_0-1_レイヤ___3
  6
CONTINUOUS
 62
    7
 10
1273.7608374591555
 20
1095.670002284646
 11
1217.9608374591555
 21
1064.0700022846463
  0
LINE
  8
_0-1_レイヤ___3
  6
CONTINUOUS
 62
    7
 10
1217.9608374591555
 20
1064.0700022846463
 11
1217.7608374591557
 21
957.47000428464594
  0
LINE
  8
_0-1_レイヤ___3
  6
CONTINUOUS
 62
    7
 10
1217.7608374591557
 20
957.47000428464594
 11
1095.1608394591551
 21
886.87000428464648
  0
LINE
  8
_0-1_レイヤ___3
  6
CONTINUOUS
 62
    7
 10
1095.1608394591551
 20
886.87000428464648
 11
1091.1608394591553
 21
888.67000428464598
  0
LINE
  8
_0-1_レイヤ___3
  6
CONTINUOUS
 62
    7
 10
1091.1608394591553
 20
888.67000428464598
 11
1091.1608394591553
 21
995.27000228464635
  0
LINE
  8
_0-1_レイヤ___3
  6
CONTINUOUS
 62
    7
 10
1091.1608394591553
 20
995.27000228464635
 11
1269.960837459156
 21
1098.4700022846462
  0
LINE
  8
_0-1_レイヤ___3
  6
CONTINUOUS
 62
    7
 10
1094.7608394591555
 20
886.47000428464571
 11
1094.7608394591555
 21
993.07000228464653
  0
LINE
  8
_0-1_レイヤ___3
  6
CONTINUOUS
 62
    7
 10
1094.7608394591555
 20
993.07000228464653
 11
1091.1608394591553
 21
995.27000228464635
  0
LINE
  8
_0-1_レイヤ___3
  6
CONTINUOUS
 62
    7
 10
1091.1608394591553
 20
995.27000228464635
 11
1091.1608394591553
 21
888.67000428464598
  0
LINE
  8
_0-1_レイヤ___3
  6
CONTINUOUS
 62
    7
 10
1091.1608394591553
 20
888.67000428464598
 11
1094.7608394591555
 21
886.47000428464571
  0
LINE
  8
_0-1_レイヤ___3
  6
CONTINUOUS
 62
    7
 10
1344.1608354591551
 20
1171.4700002846464
 11
1344.1608354591551
 21
1153.6700002846462
  0
LINE
  8
_0-1_レイヤ___3
  6
CONTINUOUS
 62
    7
 10
1344.1608354591551
 20
1153.6700002846462
 11
1365.3608354591556
 21
1127.670000284646
  0
LINE
  8
_0-1_レイヤ___3
  6
CONTINUOUS
 62
    7
 10
1365.3608354591556
 20
1127.670000284646
 11
1365.3608354591556
 21
1063.4700022846462
  0
LINE
  8
_0-1_レイヤ___3
  6
CONTINUOUS
 62
    7
 10
1337.5608354591554
 20
1175.4700002846462
 11
1344.1608354591551
 21
1171.4700002846464
  0
LINE
  8
_0-1_レイヤ___3
  6
CONTINUOUS
 62
    7
 10
1346.7608354591557
 20
1045.670002284646
 11
1352.7608354591557
 21
1042.2700022846461
  0
LINE
  8
_0-1_レイヤ___3
  6
CONTINUOUS
 62
    7
 10
1337.5608354591554
 20
1155.0700002846461
 11
1359.5608354591554
 21
1127.8700002846458
  0
LINE
  8
_0-1_レイヤ___3
  6
CONTINUOUS
 62
    7
 10
1359.7608354591557
 20
1127.8700002846458
 11
1359.7608354591557
 21
1068.8700022846458
  0
LINE
  8
_0-1_レイヤ___3
  6
CONTINUOUS
 62
    7
 10
1352.3608354591556
 20
1060.2700022846464
 11
1352.3608354591556
 21
1042.4700022846459
  0
LINE
  8
_0-1_レイヤ___3
  6
CONTINUOUS
 62
    7
 10
1352.3608354591556
 20
1060.2700022846464
 11
1365.1608354591554
 21
1063.4700022846462
  0
LINE
  8
_0-1_レイヤ___3
  6
CONTINUOUS
 62
    7
 10
1346.7608354591557
 20
1061.0700022846461
 11
1346.7608354591557
 21
1045.670002284646
  0
LINE
  8
_0-1_レイヤ___3
  6
CONTINUOUS
 62
    7
 10
1030.5608394591554
 20
1031.6700022846455
 11
1030.5608394591554
 21
490.67001028464603
  0
LINE
  8
_0-1_レイヤ___3
  6
CONTINUOUS
 62
    7
 10
1741.7608294591555
 20
1189.6700002846458
 11
2238.1608214591556
 21
1473.2699962846459
  0
LINE
  8
_0-1_レイヤ___3
  6
CONTINUOUS
 62
    7
 10
1604.1608314591554
 20
1269.0699982846459
 11
1664.760831459156
 21
1304.869998284646
  0
LINE
  8
_0-1_レイヤ___3
  6
CONTINUOUS
 62
    7
 10
1344.5608354591554
 20
1171.4700002846464
 11
1410.3608354591556
 21
1208.870000284646
  0
LINE
  8
_0-1_レイヤ___3
  6
CONTINUOUS
 62
    7
 10
1351.3608354591554
 20
1157.670000284646
 11
1411.5608354591552
 21
1191.870000284646
  0
LINE
  8
_0-1_レイヤ___3
  6
CONTINUOUS
 62
    7
 10
1373.1608354591554
 20
1132.4700002846462
 11
1667.5608314591557
 21
1302.6699982846462
  0
LINE
  8
_0-1_レイヤ___3
  6
CONTINUOUS
 62
    7
 10
1365.7608354591559
 20
1063.670002284646
 11
1679.760831459156
 21
1245.670000284646
  0
LINE
  8
_0-1_レイヤ___3
  6
CONTINUOUS
 62
    7
 10
1353.3608354591559
 20
1042.2700022846461
 11
1678.3608314591556
 21
1228.6700002846462
  0
LINE
  8
_0-1_レイヤ___3
  6
CONTINUOUS
 62
    7
 10
1432.1608334591554
 20
1166.0700002846463
 11
1411.5608354591552
 21
1191.0700002846463
  0
LINE
  8
_0-1_レイヤ___3
  6
CONTINUOUS
 62
    7
 10
1411.5608354591552
 20
1191.0700002846463
 11
1411.5608354591552
 21
1209.2700002846461
  0
LINE
  8
_0-1_レイヤ___3
  6
CONTINUOUS
 62
    7
 10
1411.5608354591552
 20
1209.2700002846461
 11
1402.9608354591555
 21
1214.2700002846461
  0
LINE
  8
_0-1_レイヤ___3
  6
CONTINUOUS
 62
    7
 10
1402.9608354591555
 20
1214.2700002846461
 11
1403.3608354591559
 21
1244.8700002846456
  0
LINE
  8
_0-1_レイヤ___3
  6
CONTINUOUS
 62
    7
 10
1403.3608354591559
 20
1244.8700002846456
 11
1526.1608334591556
 21
1315.2699982846457
  0
ARC
  8
_0-1_レイヤ___3
  6
CONTINUOUS
 62
    7
 10
1456.4005161344194
 20
1206.4268426282276
 40
18.58772739426594
 50
122.69209879042586
 51
153.81179241030077
  0
ARC
  8
_0-1_レイヤ___3
  6
CONTINUOUS
 62
    7
 10
1466.1807850317837
 20
1201.3906283535996
 40
29.58732847613005
 50
153.41867417596524
 51
161.02727817659337
  0
ARC
  8
_0-1_レイヤ___3
  6
CONTINUOUS
 62
    7
 10
1483.42950809681
 20
1195.4531598282185
 40
47.829366444325039
 50
161.01884868212085
 51
167.02756962695153
  0
ARC
  8
_0-1_レイヤ___3
  6
CONTINUOUS
 62
    7
 10
1520.8402606782129
 20
1186.7134229237174
 40
86.247325847905159
 50
166.94875757202109
 51
171.3196663461685
  0
ARC
  8
_0-1_レイヤ___3
  6
CONTINUOUS
 62
    7
 10
1603.7391264646185
 20
1174.1151147237938
 40
170.0980125363219
 50
171.33893987667264
 51
174.44188968145315
  0
ARC
  8
_0-1_レイヤ___3
  6
CONTINUOUS
 62
    7
 10
1863.556512373686
 20
1148.9103976606973
 40
431.13507763248401
 50
174.45231682201657
 51
177.13363695905684
  0
LINE
  8
_0-1_レイヤ___3
  6
CONTINUOUS
 62
    7
 10
1402.7608354591557
 20
1213.0700002846461
 11
1337.5608354591554
 21
1175.670000284646
  0
LINE
  8
_0-1_レイヤ___3
  6
CONTINUOUS
 62
    7
 10
1337.5608354591554
 20
1175.670000284646
 11
1337.5608354591554
 21
1153.4700002846464
  0
LINE
  8
_0-1_レイヤ___3
  6
CONTINUOUS
 62
    7
 10
1217.9608374591555
 20
1064.2700022846461
 11
1273.7608374591555
 21
1095.670002284646
  0
LINE
  8
_0-1_レイヤ___3
  6
CONTINUOUS
 62
    7
 10
1223.5608374591557
 20
1061.0700022846461
 11
1275.5608374591554
 21
1090.8700022846463
  0
LINE
  8
_0-1_レイヤ___3
  6
CONTINUOUS
 62
    7
 10
1298.3608354591559
 20
1093.2700022846464
 11
1359.5608354591554
 21
1127.8700002846458
  0
LINE
  8
_0-1_レイヤ___3
  6
CONTINUOUS
 62
    7
 10
1337.5608354591554
 20
1153.4700002846464
 11
1270.5608374591554
 21
1115.670002284646
  0
LINE
  8
_0-1_レイヤ___3
  6
CONTINUOUS
 62
    7
 10
1270.5608374591554
 20
1115.670002284646
 11
1292.5608374591559
 21
1089.870002284646
  0
LINE
  8
_0-1_レイヤ___3
  6
CONTINUOUS
 62
    7
 10
1359.7608354591557
 20
1068.8700022846458
 11
1292.5608374591559
 21
1031.0700022846461
  0
LINE
  8
_0-1_レイヤ___3
  6
CONTINUOUS
 62
    7
 10
1292.5608374591559
 20
1031.0700022846461
 11
1292.5608374591559
 21
1089.870002284646
  0
LINE
  8
_0-1_レイヤ___3
  6
CONTINUOUS
 62
    7
 10
1292.5608374591559
 20
1031.0700022846461
 11
1275.1608374591558
 21
1031.6700022846455
  0
LINE
  8
_0-1_レイヤ___3
  6
CONTINUOUS
 62
    7
 10
1275.1608374591558
 20
1031.6700022846455
 11
1275.1608374591558
 21
1094.870002284646
  0
LINE
  8
_0-1_レイヤ___3
  6
CONTINUOUS
 62
    7
 10
1270.5608374591554
 20
1115.670002284646
 11
1270.5608374591554
 21
1098.4700022846462
  0
LINE
  8
_0-1_レイヤ___3
  6
CONTINUOUS
 62
    7
 10
1091.1608394591553
 20
995.27000228464635
 11
1269.960837459156
 21
1098.4700022846462
  0
LINE
  8
_0-1_レイヤ___3
  6
CONTINUOUS
 62
    7
 10
1269.960837459156
 20
1098.4700022846462
 11
1275.1608374591558
 21
1094.870002284646
  0
LINE
  8
_0-1_レイヤ___3
  6
CONTINUOUS
 62
    7
 10
1095.1608394591551
 20
886.87000428464648
 11
1217.9608374591555
 21
957.47000428464594
  0
LINE
  8
_0-1_レイヤ___3
  6
CONTINUOUS
 62
    7
 10
1214.3608374591554
 20
562.07001028464583
 11
1214.3608374591554
 21
953.87000428464626
  0
LINE
  8
_0-1_レイヤ___3
  6
CONTINUOUS
 62
    7
 10
1214.3608374591554
 20
953.87000428464626
 11
1217.9608374591555
 21
956.07000428464607
  0
LINE
  8
_0-1_レイヤ___3
  6
CONTINUOUS
 62
    7
 10
1217.9608374591555
 20
956.07000428464607
 11
1217.9608374591555
 21
1064.0700022846463
  0
LINE
  8
_0-1_レイヤ___3
  6
CONTINUOUS
 62
    7
 10
1217.9608374591555
 20
1064.0700022846463
 11
1094.7608394591555
 21
993.07000228464653
  0
LINE
  8
_0-1_レイヤ___3
  6
CONTINUOUS
 62
    7
 10
1219.960837459156
 20
490.87001028464584
 11
1219.960837459156
 21
949.87000428464648
  0
LINE
  8
_0-1_レイヤ___3
  6
CONTINUOUS
 62
    7
 10
1219.960837459156
 20
949.87000428464648
 11
1223.3608374591552
 21
951.47000428464571
  0
LINE
  8
_0-1_レイヤ___3
  6
CONTINUOUS
 62
    7
 10
1223.3608374591552
 20
951.47000428464571
 11
1223.3608374591552
 21
1060.8700022846463
  0
LINE
  8
_0-1_レイヤ___3
  6
CONTINUOUS
 62
    7
 10
1223.3608374591552
 20
1060.8700022846463
 11
1218.3608374591552
 21
1063.8700022846458
  0
ARC
  8
_0-1_レイヤ___3
  6
CONTINUOUS
 62
    7
 10
1054.2514971024802
 20
1228.9916568975959
 40
3.7232625069524596
 50
271.68286721905395
 51
355.04397869772487
  0
ARC
  8
_0-1_レイヤ___3
  6
CONTINUOUS
 62
    7
 10
1054.2338655691747
 20
1228.543026394665
 40
3.7291361929186633
 50
1.9512493187709792
 51
88.048750681229009
  0
ARC
  8
_0-1_レイヤ___3
  6
CONTINUOUS
 62
    7
 10
1054.487813349137
 20
1228.5430263946646
 40
3.7291361929189577
 50
91.951249318766443
 51
178.0487506812245
  0
ARC
  8
_0-1_レイヤ___3
  6
CONTINUOUS
 62
    7
 10
1054.3545054816564
 20
1228.869176073176
 40
3.5991813619226964
 50
183.17232271934901
 51
270.10083136388118
  0
LINE
  8
_0-1_レイヤ___3
  6
CONTINUOUS
 62
    7
 10
1526.1608334591556
 20
1315.2699982846457
 11
1030.5608394591554
 21
1031.0700022846461
  0
LINE
  8
_0-1_レイヤ___3
  6
CONTINUOUS
 62
    7
 10
1030.5608394591554
 20
1031.0700022846461
 11
1030.5608394591554
 21
1534.8699942846461
  0
LINE
  8
_0-1_レイヤ___3
  6
CONTINUOUS
 62
    7
 10
1741.7608294591555
 20
1190.0700002846461
 11
1679.5608314591555
 21
1225.8700002846458
  0
LINE
  8
_0-1_レイヤ___3
  6
CONTINUOUS
 62
    7
 10
1679.5608314591555
 20
1225.8700002846458
 11
1679.5608314591555
 21
1296.6699982846465
  0
LINE
  8
_0-1_レイヤ___3
  6
CONTINUOUS
 62
    7
 10
1679.5608314591555
 20
1296.6699982846465
 11
1617.9608314591553
 21
1332.2699982846459
  0
LINE
  8
_0-1_レイヤ___3
  6
CONTINUOUS
 62
    7
 10
1617.9608314591553
 20
1332.2699982846459
 11
1602.5608314591557
 21
1270.2699982846459
  0
LINE
  8
_0-1_レイヤ___3
  6
CONTINUOUS
 62
    7
 10
1602.5608314591557
 20
1270.2699982846459
 11
1526.1608334591556
 21
1314.6699982846462
  0
LINE
  8
_0-1_レイヤ___3
  6
CONTINUOUS
 62
    7
 10
1526.1608334591556
 20
1314.6699982846462
 11
1526.1608334591556
 21
1536.2699942846461
  0
LINE
  8
_0-1_レイヤ___3
  6
CONTINUOUS
 62
    7
 10
1741.9608294591558
 20
1537.8699942846461
 11
1741.9608294591558
 21
1190.2700002846459
  0
LINE
  8
_0-1_レイヤ___3
  6
CONTINUOUS
 62
    7
 10
1446.1608334591556
 20
1221.4700002846464
 11
1566.3608314591556
 21
1291.2699982846457
  0
LINE
  8
_0-1_レイヤ___3
  6
CONTINUOUS
 62
    7
 10
1443.9608334591553
 20
1220.4700002846462
 11
1402.9608354591555
 21
1244.8700002846456
  0
LINE
  8
_0-1_レイヤ___3
  6
CONTINUOUS
 62
    7
 10
1058.1608394591553
 20
490.67001028464603
 11
1053.9608394591555
 21
782.27000628464589
  0
ARC
  8
_0-1_レイヤ___3
  6
CONTINUOUS
 62
    7
 10
1212.7885056167054
 20
832.1199748914521
 40
166.46695439982548
 50
193.99218465804626
 51
197.4250909999821
  0
ARC
  8
_0-1_レイヤ___3
  6
CONTINUOUS
 62
    7
 10
1353.2889366785071
 20
866.74024571761743
 40
311.16960690705662
 50
189.1291393705061
 51
193.92249278455736
  0
ARC
  8
_0-1_レイヤ___3
  6
CONTINUOUS
 62
    7
 10
1581.9472589374759
 20
905.70864824065006
 40
543.11874414710223
 50
174.04349030073456
 51
189.36078574245784
  0
LINE
  8
_0-1_レイヤ___3
  6
CONTINUOUS
 62
    7
 10
1041.7608394591559
 20
962.0700042846463
 11
1042.5608394591552
 21
966.07000428464607
  0
LINE
  8
_0-1_レイヤ___3
  6
CONTINUOUS
 62
    7
 10
1042.5608394591552
 20
966.07000428464607
 11
1091.1608394591553
 21
991.47000228464572
  0
LINE
  8
_0-1_レイヤ___3
  6
CONTINUOUS
 62
    7
 10
1091.1608394591553
 20
991.47000228464572
 11
1091.1608394591553
 21
888.67000428464598
  0
LINE
  8
_0-1_レイヤ___3
  6
CONTINUOUS
 62
    7
 10
1091.1608394591553
 20
888.67000428464598
 11
1095.1608394591551
 21
886.87000428464648
  0
LINE
  8
_0-1_レイヤ___3
  6
CONTINUOUS
 62
    7
 10
1095.1608394591551
 20
886.87000428464648
 11
1213.3608374591552
 21
953.27000428464567
  0
LINE
  8
_0-1_レイヤ___3
  6
CONTINUOUS
 62
    7
 10
1213.3608374591552
 20
953.27000428464567
 11
1213.7608374591555
 21
953.27000428464567
  0
LINE
  8
_0-1_レイヤ___3
  6
CONTINUOUS
 62
    7
 10
1213.7608374591555
 20
953.27000428464567
 11
1213.9608374591558
 21
490.67001028464603
  0
ARC
  8
_0-1_レイヤ___3
  6
CONTINUOUS
 62
    7
 10
1761.0119856982037
 20
665.64562277825439
 40
773.32047504136938
 50
156.8498847143151
 51
158.69087310320967
  0
ARC
  8
_0-1_レイヤ___3
  6
CONTINUOUS
 62
    7
 10
1513.3251032356752
 20
765.3168986556816
 40
492.4462758757096
 50
154.04156347205378
 51
164.16738438737144
  0
ARC
  8
_0-1_レイヤ___3
  6
CONTINUOUS
 62
    7
 10
1510.8941351131039
 20
766.13615052861087
 40
476.54541233728298
 50
151.88973623910132
 51
169.61121098619279
  0
LINE
  8
_0-1_レイヤ___3
  6
CONTINUOUS
 62
    7
 10
1064.7608394591555
 20
593.27000828464611
 11
1060.7608394591557
 21
603.87000828464602
  0
ARC
  8
_0-1_レイヤ___3
  6
CONTINUOUS
 62
    7
 10
1517.8941651941004
 20
763.50133915344054
 40
470.81591328301784
 50
154.89343828644067
 51
175.15459232646759
  0
ARC
  8
_0-1_レイヤ___3
  6
CONTINUOUS
 62
    7
 10
1543.9680487501096
 20
771.85961099450674
 40
498.32821717807713
 50
193.67236518631157
 51
198.84804423031218
  0
ARC
  8
_0-1_レイヤ___3
  6
CONTINUOUS
 62
    7
 10
1520.6573449826931
 20
762.95290576973434
 40
460.69661465473712
 50
179.96056293438562
 51
196.68661077940661
  0
ARC
  8
_0-1_レイヤ___3
  6
CONTINUOUS
 62
    7
 10
1522.1699445472086
 20
763.16807161325846
 40
462.20911632828734
 50
158.96534049662321
 51
179.98736410361121
  0
ARC
  8
_0-1_レイヤ___3
  6
CONTINUOUS
 62
    7
 10
1513.0313551855659
 20
761.8195077350797
 40
440.67290292985183
 50
179.81140752109553
 51
195.09356582075824
  0
ARC
  8
_0-1_レイヤ___3
  6
CONTINUOUS
 62
    7
 10
1521.0042076913544
 20
763.18132309791076
 40
448.64337699718715
 50
163.62421977419811
 51
179.98867436229466
  0
ARC
  8
_0-1_レイヤ___3
  6
CONTINUOUS
 62
    7
 10
1505.9645996890804
 20
761.92762151201782
 40
421.60589729851938
 50
179.81757107193837
 51
193.58885829150188
  0
ARC
  8
_0-1_レイヤ___3
  6
CONTINUOUS
 62
    7
 10
1520.3505888883292
 20
763.17326284480805
 40
435.98976016256006
 50
162.6663652213683
 51
179.98728641965883
  0
ARC
  8
_0-1_レイヤ___3
  6
CONTINUOUS
 62
    7
 10
1520.8659038882456
 20
763.30510892182792
 40
424.70506587973841
 50
180.00473559918208
 51
191.5499141501524
  0
ARC
  8
_0-1_レイヤ___3
  6
CONTINUOUS
 62
    7
 10
1522.4052362367865
 20
763.14593815324224
 40
426.24441483405718
 50
161.09203255463134
 51
179.98332276000701
  0
ARC
  8
_0-1_レイヤ___3
  6
CONTINUOUS
 62
    7
 10
1524.814325225442
 20
764.13768644123616
 40
417.25438793734833
 50
180.11914661225225
 51
189.89017395075689
  0
ARC
  8
_0-1_レイヤ___3
  6
CONTINUOUS
 62
    7
 10
1520.9671685932153
 20
763.17392503116002
 40
413.40634029935524
 50
159.33446707105
 51
179.98668368182109
  0
ARC
  8
_0-1_レイヤ___3
  6
CONTINUOUS
 62
    7
 10
1532.582789252936
 20
763.66979424911301
 40
413.82214290869263
 50
180.05535268476996
 51
187.97299898682741
  0
ARC
  8
_0-1_レイヤ___3
  6
CONTINUOUS
 62
    7
 10
1520.2628062334702
 20
763.16072631518091
 40
401.5019816461114
 50
159.02692533042901
 51
179.98440535439636
  0
ARC
  8
_0-1_レイヤ___3
  6
CONTINUOUS
 62
    7
 10
1475.4205085600597
 20
761.43822403122408
 40
345.8645199161237
 50
179.69654625805521
 51
187.0363753727606
  0
ARC
  8
_0-1_レイヤ___3
  6
CONTINUOUS
 62
    7
 10
1522.816817077038
 20
763.15776656339926
 40
393.25599363512737
 50
162.30773619702546
 51
179.98364713440469
  0
ARC
  8
_0-1_レイヤ___3
  6
CONTINUOUS
 62
    7
 10
1536.8682268358612
 20
762.9049057991424
 40
396.70755538257168
 50
179.9472691669551
 51
184.45792715657885
  0
ARC
  8
_0-1_レイヤ___3
  6
CONTINUOUS
 62
    7
 10
1524.776765170202
 20
763.32283223621539
 40
384.61592933879757
 50
165.89248012218036
 51
180.00786941947112
  0
ARC
  8
_0-1_レイヤ___3
  6
CONTINUOUS
 62
    7
 10
1497.7135987971292
 20
763.27744038282185
 40
347.3527594175265
 50
180.00122625324968
 51
183.36814238254308
  0
ARC
  8
_0-1_レイヤ___3
  6
CONTINUOUS
 62
    7
 10
1516.6728147056328
 20
763.44142846774366
 40
366.31201535649996
 50
169.61554496240481
 51
180.02681257385285
  0
LINE
  8
_0-1_レイヤ___3
  6
CONTINUOUS
 62
    7
 10
1160.3608394591556
 20
756.07000628464584
 11
1160.3608394591556
 21
763.27000628464566
  0
ARC
  8
_0-1_レイヤ___3
  6
CONTINUOUS
 62
    7
 10
1528.943648451198
 20
763.91962462263427
 40
368.58338145994821
 50
174.02767663912502
 51
180.10098232910914
  0
ARC
  8
_0-1_レイヤ___3
  6
CONTINUOUS
 62
    7
 10
2246.9745879010943
 20
739.82631224163447
 40
1077.3142532277036
 50
177.93369276581194
 51
178.64667914590834
  0
ARC
  8
_0-1_レイヤ___3
  6
CONTINUOUS
 62
    7
 10
1669.2923361832027
 20
940.90308460445976
 40
524.7481943110854
 50
182.77805487688815
 51
209.80589984504522
  0
ARC
  8
_0-1_レイヤ___3
  6
CONTINUOUS
 62
    7
 10
1671.7061356630165
 20
941.1696395645688
 40
512.86477502161313
 50
182.02245923166734
 51
206.80756284484943
  0
ARC
  8
_0-1_レイヤ___3
  6
CONTINUOUS
 62
    7
 10
1669.7935309289278
 20
941.06876819406261
 40
497.13731821610077
 50
181.175504439196
 51
203.52082838003975
  0
ARC
  8
_0-1_レイヤ___3
  6
CONTINUOUS
 62
    7
 10
1676.6483188644895
 20
941.73419398954843
 40
490.5043190975033
 50
180.47474318308247
 51
199.31800274252475
  0
ARC
  8
_0-1_レイヤ___3
  6
CONTINUOUS
 62
    7
 10
1682.3786064466219
 20
942.76176811826895
 40
483.21949559079934
 50
180.15316580688861
 51
194.12105787786325
  0
ARC
  8
_0-1_レイヤ___3
  6
CONTINUOUS
 62
    7
 10
1222.8090868029676
 20
942.44865907779877
 40
23.668490915799303
 50
172.17761224974197
 51
182.36976576245064
  0
ARC
  8
_0-1_レイヤ___3
  6
CONTINUOUS
 62
    7
 10
1615.8512519758187
 20
939.65526211877182
 40
403.89449145484821
 50
179.7425629240785
 51
185.71005906373375
  0
ARC
  8
_0-1_レイヤ___3
  6
CONTINUOUS
 62
    7
 10
1381.711607156135
 20
944.04052625434565
 40
169.77023118295349
 50
177.08638064591392
 51
180.86755897675241
  0
ARC
  8
_0-1_レイヤ___3
  6
CONTINUOUS
 62
    7
 10
1402.4613743136611
 20
514.34565939916502
 40
340.19690477011301
 50
132.423940899814
 51
146.50462601612136
  0
ARC
  8
_0-1_レイヤ___3
  6
CONTINUOUS
 62
    7
 10
1482.5678439322735
 20
456.90033169109512
 40
438.71803474641104
 50
146.02178911101475
 51
159.64669413472117
  0
ARC
  8
_0-1_レイヤ___3
  6
CONTINUOUS
 62
    7
 10
1556.3432444975656
 20
425.24183554044129
 40
518.91399338775614
 50
159.20257474037302
 51
164.230045773445
  0
ARC
  8
_0-1_レイヤ___3
  6
CONTINUOUS
 62
    7
 10
1398.3820214584489
 20
509.11942594466751
 40
323.74910845128483
 50
132.37996481759589
 51
146.71589310376558
  0
ARC
  8
_0-1_レイヤ___3
  6
CONTINUOUS
 62
    7
 10
1473.2444793793309
 20
455.9134239474983
 40
415.54393557514283
 50
146.24788678430724
 51
158.6867189704241
  0
ARC
  8
_0-1_レイヤ___3
  6
CONTINUOUS
 62
    7
 10
1555.3902016584709
 20
420.42979291264743
 40
504.97873721709249
 50
158.32369281550024
 51
170.21289110669088
  0
ARC
  8
_0-1_レイヤ___3
  6
CONTINUOUS
 62
    7
 10
1394.0604554411316
 20
506.27825320269977
 40
306.36176951444071
 50
132.63321530621383
 51
144.92922475835493
  0
ARC
  8
_0-1_レイヤ___3
  6
CONTINUOUS
 62
    7
 10
1458.4192394083652
 20
458.27252567233558
 40
386.62616991845414
 50
144.58686867885169
 51
157.64075503354169
  0
ARC
  8
_0-1_レイヤ___3
  6
CONTINUOUS
 62
    7
 10
1542.9579133767329
 20
419.77037439422617
 40
479.46806283775129
 50
157.22873711672673
 51
171.49640615654457
  0
ARC
  8
_0-1_レイヤ___3
  6
CONTINUOUS
 62
    7
 10
1389.1255161008485
 20
502.30676832659441
 40
289.85950417581478
 50
132.48349659819144
 51
145.43161227451697
  0
ARC
  8
_0-1_レイヤ___3
  6
CONTINUOUS
 62
    7
 10
1453.9669329189651
 20
454.57860621397941
 40
370.34211281420357
 50
145.04307049053935
 51
158.18696034049211
  0
ARC
  8
_0-1_レイヤ___3
  6
CONTINUOUS
 62
    7
 10
1535.5749285805916
 20
418.53272899444931
 40
459.51171349276768
 50
157.79528481346753
 51
170.96795665192099
  0
ARC
  8
_0-1_レイヤ___3
  6
CONTINUOUS
 62
    7
 10
1391.7330182802066
 20
493.70089522227119
 40
282.97433864691436
 50
132.99561091959066
 51
146.46475854912575
  0
ARC
  8
_0-1_レイヤ___3
  6
CONTINUOUS
 62
    7
 10
1457.5759666665276
 20
446.94860855246787
 40
363.69502732776175
 50
146.05590194146021
 51
160.13567378110884
  0
ARC
  8
_0-1_レイヤ___3
  6
CONTINUOUS
 62
    7
 10
1531.1769656572528
 20
416.56870981392871
 40
443.25398733530056
 50
159.67509499890633
 51
170.37635066714597
  0
ARC
  8
_0-1_レイヤ___3
  6
CONTINUOUS
 62
    7
 10
1384.2978303741904
 20
492.9008334930208
 40
264.01341643480004
 50
132.13960659183985
 51
146.13215845167818
  0
ARC
  8
_0-1_レイヤ___3
  6
CONTINUOUS
 62
    7
 10
1448.4872846538765
 20
446.61964574172913
 40
343.1133670531018
 50
145.68846861674044
 51
159.80819589111465
  0
ARC
  8
_0-1_レイヤ___3
  6
CONTINUOUS
 62
    7
 10
1518.1663078958081
 20
417.18985480271414
 40
418.68341211745923
 50
159.31958690411716
 51
169.75303933473472
  0
ARC
  8
_0-1_レイヤ___3
  6
CONTINUOUS
 62
    7
 10
1379.1617571191864
 20
490.82794801625624
 40
248.27265369744384
 50
131.46626269124468
 51
145.57868389311682
  0
ARC
  8
_0-1_レイヤ___3
  6
CONTINUOUS
 62
    7
 10
1439.6376922258464
 20
446.2193233664712
 40
323.38609358877824
 50
145.11584057185704
 51
159.33374040224888
  0
ARC
  8
_0-1_レイヤ___3
  6
CONTINUOUS
 62
    7
 10
1509.4116095485019
 20
416.32824615178123
 40
399.23347120459709
 50
158.85399999035909
 51
169.26824083633392
  0
ARC
  8
_0-1_レイヤ___3
  6
CONTINUOUS
 62
    7
 10
1383.9676781141161
 20
480.15812686520945
 40
246.20008145211796
 50
133.92948012816495
 51
147.33741762231998
  0
ARC
  8
_0-1_レイヤ___3
  6
CONTINUOUS
 62
    7
 10
1443.1937982977524
 20
439.68058884003568
 40
317.91275438130083
 50
146.95664023382531
 51
161.53910235863196
  0
ARC
  8
_0-1_レイヤ___3
  6
CONTINUOUS
 62
    7
 10
1507.1465312392429
 20
414.5061470560708
 40
386.56317547838518
 50
161.00137890679815
 51
168.63676768521873
  0
ARC
  8
_0-1_レイヤ___3
  6
CONTINUOUS
 62
    7
 10
1391.9635898253182
 20
466.45676414621931
 40
246.64965591212535
 50
136.93689256223061
 51
151.02785201008876
  0
ARC
  8
_0-1_レイヤ___3
  6
CONTINUOUS
 62
    7
 10
1453.3323933150878
 20
429.58962743065484
 40
318.20637992393608
 50
150.57278204450429
 51
164.67492903333243
  0
ARC
  8
_0-1_レイヤ___3
  6
CONTINUOUS
 62
    7
 10
1504.1300553857104
 20
412.54267696024925
 40
371.71542640680161
 50
164.21016144094125
 51
167.83553594498534
  0
ARC
  8
_0-1_レイヤ___3
  6
CONTINUOUS
 62
    7
 10
1398.5310836216986
 20
454.75091513003719
 40
243.25697881182145
 50
139.20934270516915
 51
153.92076512470615
  0
ARC
  8
_0-1_レイヤ___3
  6
CONTINUOUS
 62
    7
 10
1463.2443670274206
 20
419.80386631355969
 40
316.75845215385641
 50
153.38894040827046
 51
167.03508410356741
  0
ARC
  8
_0-1_レイヤ___3
  6
CONTINUOUS
 62
    7
 10
1408.79124861675
 20
442.01142603609838
 40
245.70435862197832
 50
142.76897759951817
 51
156.80879314746605
  0
ARC
  8
_0-1_レイヤ___3
  6
CONTINUOUS
 62
    7
 10
1460.0759421010889
 20
417.24954652609114
 40
302.60715347953999
 50
156.32311774356509
 51
165.91936160143044
  0
ARC
  8
_0-1_レイヤ___3
  6
CONTINUOUS
 62
    7
 10
1415.4727274569582
 20
432.63586369927651
 40
242.35008515235324
 50
146.42280150118165
 51
160.516044126129
  0
ARC
  8
_0-1_レイヤ___3
  6
CONTINUOUS
 62
    7
 10
1458.3858262376634
 20
414.74386472515476
 40
288.78480561024122
 50
160.00930555784069
 51
164.75684220492244
  0
ARC
  8
_0-1_レイヤ___3
  6
CONTINUOUS
 62
    7
 10
1418.3083570107165
 20
425.66156335790737
 40
235.3057559243934
 50
150.57317439559898
 51
163.96215463067466
  0
ARC
  8
_0-1_レイヤ___3
  6
CONTINUOUS
 62
    7
 10
1412.8445818875252
 20
424.39651251329479
 40
219.96817629707166
 50
153.98672742008466
 51
162.41045360721023
  0
LINE
  8
_0-1_レイヤ___3
  6
CONTINUOUS
 62
    7
 10
1214.960837459156
 20
494.07001028464578
 11
1213.7608374591555
 21
490.67001028464603
  0
ARC
  8
_0-1_レイヤ___3
  6
CONTINUOUS
 62
    7
 10
1472.4871167729145
 20
1153.7787613892315
 40
19.885029308523116
 50
8.3603137759643111
 51
28.509583869885635
  0
ARC
  8
_0-1_レイヤ___3
  6
CONTINUOUS
 62
    7
 10
1472.043333893763
 20
1152.7674167012131
 40
20.768751830642671
 50
30.377273847508672
 51
40.479534844974928
  0
ARC
  8
_0-1_レイヤ___3
  6
CONTINUOUS
 62
    7
 10
1462.3438219702762
 20
1144.9445979909367
 40
33.226762733688197
 50
39.882262201047624
 51
47.571677758837126
  0
ARC
  8
_0-1_レイヤ___3
  6
CONTINUOUS
 62
    7
 10
1461.0877375059692
 20
1181.0133411886475
 40
33.956055695224101
 50
314.20027982959868
 51
328.89230173698786
  0
ARC
  8
_0-1_レイヤ___3
  6
CONTINUOUS
 62
    7
 10
1473.9842141746817
 20
1172.1955400461375
 40
18.37982740953175
 50
331.6579296229213
 51
351.47217273123465
  0
ARC
  8
_0-1_レイヤ___3
  6
CONTINUOUS
 62
    7
 10
1499.3208131594752
 20
1165.5689551318958
 40
26.064021637712671
 50
150.83660829170756
 51
168.71367284595189
  0
ARC
  8
_0-1_レイヤ___3
  6
CONTINUOUS
 62
    7
 10
1508.3703158513454
 20
1163.3483577714062
 40
35.375453644398306
 50
168.05517970361478
 51
205.94735541137717
  0
ARC
  8
_0-1_レイヤ___3
  6
CONTINUOUS
 62
    7
 10
1490.0633403647935
 20
1155.6168390273499
 40
15.566990821679472
 50
209.84433163439192
 51
233.21143513043097
  0
ARC
  8
_0-1_レイヤ___3
  6
CONTINUOUS
 62
    7
 10
1485.4675139147423
 20
1150.1089454667763
 40
8.4123971718604054
 50
235.81472394324095
 51
311.31018522420158
  0
ARC
  8
_0-1_レイヤ___3
  6
CONTINUOUS
 62
    7
 10
1481.0060792624404
 20
1155.3954608280364
 40
15.329123133591667
 50
310.7920475510777
 51
330.59855650979586
  0
ARC
  8
_0-1_レイヤ___3
  6
CONTINUOUS
 62
    7
 10
1471.6008537588341
 20
1160.5710454373943
 40
26.064021637713747
 50
330.83660829171271
 51
348.71367284595709
  0
ARC
  8
_0-1_レイヤ___3
  6
CONTINUOUS
 62
    7
 10
1462.5513510669668
 20
1162.7916427978867
 40
35.375453644397318
 50
348.05517970361353
 51
25.947355411375945
  0
ARC
  8
_0-1_レイヤ___3
  6
CONTINUOUS
 62
    7
 10
1480.8583265535181
 20
1170.5231615419407
 40
15.566990821680404
 50
29.844331634395786
 51
53.211435130434822
  0
ARC
  8
_0-1_レイヤ___3
  6
CONTINUOUS
 62
    7
 10
1485.4541530035681
 20
1176.0310551025159
 40
8.4123971718603769
 50
55.81472394323778
 51
131.31018522419845
  0
ARC
  8
_0-1_レイヤ___3
  6
CONTINUOUS
 62
    7
 10
1489.9155876558723
 20
1170.7445397412571
 40
15.329123133591896
 50
130.7920475510864
 51
150.59855650980455
  0
ARC
  8
_0-1_レイヤ___3
  6
CONTINUOUS
 62
    7
 10
1497.5988903433044
 20
1164.6762172490915
 40
19.925518926815897
 50
149.89693766732975
 51
170.60166575733837
  0
ARC
  8
_0-1_レイヤ___3
  6
CONTINUOUS
 62
    7
 10
1503.6484395472201
 20
1163.3017139379333
 40
26.12091203013901
 50
169.79404612673676
 51
206.93371760140531
  0
ARC
  8
_0-1_レイヤ___3
  6
CONTINUOUS
 62
    7
 10
1490.5581393763127
 20
1157.0933486692595
 40
11.645045943353903
 50
208.8747285875055
 51
235.72966014586214
  0
ARC
  8
_0-1_レイヤ___3
  6
CONTINUOUS
 62
    7
 10
1487.1759661400647
 20
1152.6849409374963
 40
6.1054953569822645
 50
238.66472611991298
 51
308.54926525659698
  0
ARC
  8
_0-1_レイヤ___3
  6
CONTINUOUS
 62
    7
 10
1483.9999582723221
 20
1156.7807890646341
 40
11.288202334885774
 50
308.20100819569336
 51
331.93502805753548
  0
ARC
  8
_0-1_レイヤ___3
  6
CONTINUOUS
 62
    7
 10
1476.7227765750063
 20
1161.4637833202019
 40
19.925518926816427
 50
329.89693766732546
 51
350.60166575733405
  0
ARC
  8
_0-1_レイヤ___3
  6
CONTINUOUS
 62
    7
 10
1470.6730692948649
 20
1162.838263390503
 40
26.12106348722844
 50
349.7941577352795
 51
26.933605992866465
  0
ARC
  8
_0-1_レイヤ___3
  6
CONTINUOUS
 62
    7
 10
1483.7635275419984
 20
1169.0466519000338
 40
11.645045943353079
 50
28.87472858750106
 51
55.729660145857714
  0
ARC
  8
_0-1_レイヤ___3
  6
CONTINUOUS
 62
    7
 10
1487.1457007782465
 20
1173.4550596317954
 40
6.1054953569822956
 50
58.664726119917624
 51
128.54926525660161
  0
ARC
  8
_0-1_レイヤ___3
  6
CONTINUOUS
 62
    7
 10
1490.3217086459881
 20
1169.3592115046565
 40
11.288202334885602
 50
128.20100819568347
 51
151.93502805752559
  0
LINE
  8
_0-0_文字
  6
CONTINUOUS
 62
    7
 10
1461.5608334591559
 20
1237.2700002846457
 11
1598.3608314591556
 21
1000.670002284646
  0
LINE
  8
_0-0_文字
  6
CONTINUOUS
 62
    7
 10
1598.3608314591556
 20
1000.670002284646
 11
1635.3608314591554
 21
1000.670002284646
  0
LINE
  8
_0-0_文字
  6
CONTINUOUS
 62
    7
 10
1443.3608334591554
 20
1126.2700002846461
 11
1581.9608314591555
 21
884.07000428464607
  0
LINE
  8
_0-0_文字
  6
CONTINUOUS
 62
    7
 10
1581.9608314591555
 20
884.07000428464607
 11
1618.9608314591555
 21
884.07000428464607
  0
LINE
  8
_0-0_文字
  6
CONTINUOUS
 62
    7
 10
1318.5608354591557
 20
1083.8700022846458
 11
1468.5608334591557
 21
817.27000628464589
  0
LINE
  8
_0-0_文字
  6
CONTINUOUS
 62
    7
 10
1468.5608334591557
 20
817.27000628464589
 11
1505.7608334591555
 21
817.27000628464589
  0
LINE
  8
_0-0_文字
  6
CONTINUOUS
 62
    7
 10
1789.5608294591557
 20
748.67000628464575
 11
1869.5608274591559
 21
611.47000828464593
  0
LINE
  8
_0-0_文字
  6
CONTINUOUS
 62
    7
 10
1869.5608274591559
 20
611.47000828464593
 11
1906.5608274591557
 21
611.47000828464593
  0
LINE
  8
_0-0_文字
  6
CONTINUOUS
 62
    7
 10
1147.7608394591557
 20
695.07000828464606
 11
1210.9608374591558
 21
589.07000828464584
  0
LINE
  8
_0-0_文字
  6
CONTINUOUS
 62
    7
 10
1210.9608374591558
 20
589.07000828464584
 11
1247.9608374591555
 21
589.07000828464584
  0
LINE
  8
_0-0_文字
  6
CONTINUOUS
 62
    7
 10
1130.1608394591558
 20
940.27000428464612
 11
1238.5608374591557
 21
750.0700062846463
  0
LINE
  8
_0-0_文字
  6
CONTINUOUS
 62
    7
 10
1238.5608374591557
 20
750.0700062846463
 11
1275.5608374591554
 21
750.0700062846463
  0
TEXT
  8
_0-0_文字
 62
    7
 10
1635.3608314591554
 20
977.67000228464576
 40
46.000000000000227
 41
0.999999999999995
 50
0
  1
AYシールMS-1
  0
TEXT
  8
_0-0_文字
 62
    7
 10
1618.9608314591555
 20
861.07000428464607
 40
46.000000000000227
 41
0.999999999999995
 50
0
  1
YK押え金物
  0
TEXT
  8
_0-0_文字
 62
    7
 10
1505.7608334591555
 20
794.27000628464589
 40
46.000000000000227
 41
0.999999999999995
 50
0
  1
AYシールMS-1
  0
TEXT
  8
_0-0_文字
 62
    7
 10
1275.5608374591554
 20
727.07000628464607
 40
46.000000000000227
 41
0.999999999999995
 50
0
  1
AYブチルテープ
  0
TEXT
  8
_0-0_文字
 62
    7
 10
1247.9608374591555
 20
566.07000828464584
 40
46.000000000000227
 41
0.999999999999995
 50
0
  1
AYボンド580NF
  0
TEXT
  8
_0-0_文字
 62
    7
 10
1906.5608274591557
 20
588.47000828464593
 40
46.000000000000227
 41
0.999999999999995
 50
0
  1
リベットルーフ
  0
ENDSEC
  0
EOF
