  0
SECTION
  2
HEADER
  9
$ACADVER
  1
AC1009
  9
$INSBASE
 10
0
 20
0
 30
0
  9
$EXTMIN
 10
0
 20
0
  9
$EXTMAX
 10
840
 20
594
  9
$LIMMIN
 10
0
 20
0
  9
$LIMMAX
 10
840
 20
594
  9
$LTSCALE
 40
2
  0
ENDSEC
  0
SECTION
  2
TABLES
  0
TABLE
  2
LTYPE
 70
     9
  0
LTYPE
  2
CONTINUOUS
 70
    64
  3
実線
 72
    65
 73
     0
 40
0.0
  0
LTYPE
  2
DASHED1
 70
    64
  3
--  --  --  --  --  --  --  --  
 72
    65
 73
     2
 40
2.5
 49
1.25
 49
-1.25
  0
LTYPE
  2
DASHED2
 70
    64
  3
----    ----    ----    ----    
 72
    65
 73
     2
 40
5.0
 49
2.5
 49
-2.5
  0
LTYPE
  2
DASHED3
 70
    64
  3
------  ------  ------  ------  
 72
    65
 73
     2
 40
5.0
 49
3.75
 49
-1.25
  0
LTYPE
  2
CENTER1
 70
    64
  3
----- - ----- - ----- - ----- - 
 72
    65
 73
     4
 40
10.0
 49
6.25
 49
-1.25
 49
1.25
 49
-1.25
  0
LTYPE
  2
CENTER2
 70
    64
  3
----------  --  ----------  --  
 72
    65
 73
     4
 40
20.0
 49
12.5
 49
-2.5
 49
2.5
 49
-2.5
  0
LTYPE
  2
PHANTOM1
 70
    64
  3
--- - - --- - - --- - - --- - - 
 72
    65
 73
     6
 40
10.0
 49
3.25
 49
-1.25
 49
1.25
 49
-1.25
 49
1.25
 49
-1.25
  0
LTYPE
  2
PHANTOM2
 70
    64
  3
--------  -  -  --------  -  -  
 72
    65
 73
     6
 40
20.0
 49
10.0
 49
-2.5
 49
1.25
 49
-2.5
 49
1.25
 49
-2.5
  0
LTYPE
  2
DOT
 70
    64
  3
-   -   -   -   -   -   -   -   
 72
    65
 73
     2
 40
2.5
 49
0.625
 49
-1.875
  0
LTYPE
  2
DUMMY
 70
    64
  3
ダミー
 72
    65
 73
     0
 40
0.0
  0
LTYPE
  2
RAND1
 70
    64
  3
ランダム線1
 72
    65
 73
     4
 40
10.0
 49
1.0
 49
-2.0
 49
3.0
 49
-4.0
  0
LTYPE
  2
RAND2
 70
    64
  3
ランダム線2
 72
    65
 73
     4
 40
14.0
 49
2.0
 49
-3.0
 49
4.0
 49
-5.0
  0
LTYPE
  2
RAND3
 70
    64
  3
ランダム線3
 72
    65
 73
     4
 40
18.0
 49
3.0
 49
-4.0
 49
5.0
 49
-6.0
  0
LTYPE
  2
RAND4
 70
    64
  3
ランダム線4
 72
    65
 73
     4
 40
22.0
 49
4.0
 49
-5.0
 49
6.0
 49
-7.0
  0
LTYPE
  2
RAND5
 70
    64
  3
ランダム線5
 72
    65
 73
     4
 40
26.0
 49
5.0
 49
-6.0
 49
7.0
 49
-8.0
  0
LTYPE
  2
LONG1
 70
    64
  3
----------  --  ----------  --  
 72
    65
 73
     4
 40
40.0
 49
32.5
 49
-2.5
 49
2.5
 49
-2.5
  0
LTYPE
  2
LONG2
 70
    64
  3
--------  -  -  --------  -  -  
 72
    65
 73
     6
 40
40.0
 49
30.0
 49
-2.5
 49
1.25
 49
-2.5
 49
1.25
 49
-2.5
  0
LTYPE
  2
LONG3
 70
    64
  3
+++++++++++++++..+++++++++++++++
 72
    65
 73
     2
 40
40.0
 49
37.5
 49
-2.5
  0
LTYPE
  2
LONG4
 70
    64
  3
+++++++++++++++..+++++++++++++++
 72
    65
 73
     2
 40
80.0
 49
75.0
 49
-5.0
  0
LTYPE
  2
LONG5
 70
    64
  3
----------  --  ----------  --  
 72
    65
 73
     4
 40
60.0
 49
37.5
 49
-7.5
 49
7.5
 49
-7.5
  0
LTYPE
  2
dashed
 70
   64
  3
-------   -------------   ------
 72
   65
 73
    2
 40
7.5
 49
6
 49
-1.5
  0
LTYPE
  2
dashed_spaced
 70
   64
  3
----        --------        ----
 72
   65
 73
    2
 40
12
 49
6
 49
-6
  0
LTYPE
  2
long_dashed_dotted
 70
   64
  3
------------- --- --------------
 72
   65
 73
    4
 40
15.25
 49
12
 49
-1.5
 49
0.25
 49
-1.5
  0
LTYPE
  2
long_dashed_double-dotted
 70
   64
  3
----------- --- --- ------------
 72
   65
 73
    6
 40
17
 49
12
 49
-1.5
 49
0.25
 49
-1.5
 49
0.25
 49
-1.5
  0
LTYPE
  2
long_dashed_triplicate-dotted
 70
   64
  3
--------- --- --- --- ----------
 72
   65
 73
    8
 40
18.75
 49
12
 49
-1.5
 49
0.25
 49
-1.5
 49
0.25
 49
-1.5
 49
0.25
 49
-1.5
  0
LTYPE
  2
dotted
 70
   64
  3
   -       -       -       -    
 72
   65
 73
    2
 40
1.75
 49
0.25
 49
-1.5
  0
LTYPE
  2
chain
 70
   64
  3
-------------- -- --------------
 72
   65
 73
    4
 40
18.5
 49
12
 49
-1.5
 49
3.5
 49
-1.5
  0
LTYPE
  2
chain_double_dash
 70
   64
  3
------------ -- -- -------------
 72
   65
 73
    6
 40
23.5
 49
12
 49
-1.5
 49
3.5
 49
-1.5
 49
3.5
 49
-1.5
  0
LTYPE
  2
dashed_dotted
 70
   64
  3
-----------     -     ----------
 72
   65
 73
    4
 40
9.25
 49
6
 49
-1.5
 49
0.25
 49
-1.5
  0
LTYPE
  2
double-dashed_dotted
 70
   64
  3
------   -----------   -   -----
 72
   65
 73
    6
 40
16.75
 49
6
 49
-1.5
 49
6
 49
-1.5
 49
0.25
 49
-1.5
  0
LTYPE
  2
dashed_double-dotted
 70
   64
  3
---------    -    -    ---------
 72
   65
 73
    6
 40
11
 49
6
 49
-1.5
 49
0.25
 49
-1.5
 49
0.25
 49
-1.5
  0
LTYPE
  2
double-dashed_double-dotted
 70
   64
  3
-----   ---------   -   -   ----
 72
   65
 73
    8
 40
18.5
 49
6
 49
-1.5
 49
6
 49
-1.5
 49
0.25
 49
-1.5
 49
0.25
 49
-1.5
  0
LTYPE
  2
dashed_triplicate-dotted
 70
   64
  3
-------    -    -    -    ------
 72
   65
 73
    8
 40
12.75
 49
6
 49
-1.5
 49
0.25
 49
-1.5
 49
0.25
 49
-1.5
 49
0.25
 49
-1.5
  0
LTYPE
  2
double-dashed_triplicate-dotted
 70
   64
  3
-----  ---------  -  -  -  -----
 72
   65
 73
   10
 40
20.25
 49
6
 49
-1.5
 49
6
 49
-1.5
 49
0.25
 49
-1.5
 49
0.25
 49
-1.5
 49
0.25
 49
-1.5
  0
LTYPE
  2
undefined
 70
   64
  3
--------------------------------
 72
   65
 73
    0
 40
0
  0
ENDTAB
  0
TABLE
  2
STYLE
  5
3
100
AcDbSymbolTable
 70
     1
  0
STYLE
  5
10
100
AcDbSymbolTableRecord
100
AcDbTextStyleTableRecord
  2
STANDARD
 70
     0
 40
0.0
 41
1.0
 50
0.0
 71
     0
 42
0.2
  3
txt
  4
bigfont.shx
  0
STYLE
  5
26
100
AcDbSymbolTableRecord
100
AcDbTextStyleTableRecord
  2
TATEGAKI
 70
    68
 40
0.0
 41
1.0
 50
0.0
 71
     0
 42
1.0
  3
txt
  4
bigfont.shx
  0
ENDTAB
  0
TABLE
  2
LAYER
 70
    2
  0
LAYER
  2
_0-0_レイヤ___1
 70
   64
 62
    7
  6
CONTINUOUS
  0
LAYER
  2
ADD_LINE
 70
   64
 62
    7
  6
CONTINUOUS
  0
ENDTAB
  0
ENDSEC
  0
SECTION
  2
BLOCKS
  0
ENDSEC
  0
SECTION
  2
ENTITIES
  0
ARC
  8
_0-0_レイヤ___1
  6
CONTINUOUS
 62
    7
 10
503.77499849999998
 20
169.51750250000009
 40
6.165
 50
1.5305960000000001
 51
16.283660000000001
  0
ARC
  8
_0-0_レイヤ___1
  6
CONTINUOUS
 62
    7
 10
500.83499850000004
 20
168.77750250000008
 40
9.1999999999999993
 50
15.583696
 51
26.170570999999999
  0
ARC
  8
_0-0_レイヤ___1
  6
CONTINUOUS
 62
    7
 10
460.82499950000005
 20
144.19750250000004
 40
56.124999000000003
 50
30.681429999999999
 51
32.721421999999997
  0
ARC
  8
_0-0_レイヤ___1
  6
CONTINUOUS
 62
    7
 10
514.6899985
 20
182.05250150000006
 40
9.8550000000000004
 50
216.206909
 51
227.54885999999999
  0
ARC
  8
_0-0_レイヤ___1
  6
CONTINUOUS
 62
    7
 10
498.3749985
 20
179.67750150000006
 40
12.75
 50
309.80256000000003
 51
328.84757000000002
  0
ARC
  8
_0-0_レイヤ___1
  6
CONTINUOUS
 62
    7
 10
505.83999850000004
 20
175.37750249999999
 40
4.2850000000000001
 50
323.58267599999999
 51
341.53927500000003
  0
ARC
  8
_0-0_レイヤ___1
  6
CONTINUOUS
 62
    7
 10
498.23999850000001
 20
177.76750149999998
 40
12.255000000000001
 50
342.18161099999998
 51
350.90795600000001
  0
ARC
  8
_0-0_レイヤ___1
  6
CONTINUOUS
 62
    7
 10
518.7999984999999
 20
170.39250250000009
 40
16.184999999999999
 50
149.60199299999999
 51
162.78608500000001
  0
ARC
  8
_0-0_レイヤ___1
  6
CONTINUOUS
 62
    7
 10
512.02499850000004
 20
173.02750250000008
 40
8.7050000000000001
 50
165.67787799999999
 51
183.93326500000001
  0
ARC
  8
_0-0_レイヤ___1
  6
CONTINUOUS
 62
    7
 10
513.4549985000001
 20
172.17750250000006
 40
10.115
 50
178.55084099999999
 51
207.00662299999999
  0
ARC
  8
_0-0_レイヤ___1
  6
CONTINUOUS
 62
    7
 10
508.31999849999994
 20
168.67250250000006
 40
3.98
 50
192.88580899999999
 51
228.63966299999998
  0
ARC
  8
_0-0_レイヤ___1
  6
CONTINUOUS
 62
    7
 10
507.68499849999995
 20
168.43750250000005
 40
3.6099999999999999
 50
236.44581599999998
 51
268.50307099999998
  0
ARC
  8
_0-0_レイヤ___1
  6
CONTINUOUS
 62
    7
 10
507.3749985
 20
168.14750250000009
 40
3.3199999999999998
 50
273.68765400000001
 51
305.192432
  0
ARC
  8
_0-0_レイヤ___1
  6
CONTINUOUS
 62
    7
 10
506.31499849999994
 20
169.90750250000008
 40
5.375
 50
303.61671699999999
 51
326.38329299999998
  0
ARC
  8
_0-0_レイヤ___1
  6
CONTINUOUS
 62
    7
 10
502.82999850000004
 20
172.53750250000007
 40
9.625
 50
325.82994899999994
 51
347.97641199999993
  0
ARC
  8
_0-0_レイヤ___1
  6
CONTINUOUS
 62
    7
 10
502.92999849999995
 20
173.26750250000009
 40
9.5099999999999998
 50
343.28717299999994
 51
358.88297499999993
  0
ARC
  8
_0-0_レイヤ___1
  6
CONTINUOUS
 62
    7
 10
500.81999849999994
 20
173.13750249999998
 40
11.619999999999999
 50
359.72151600000001
 51
26.81976800000001
  0
ARC
  8
_0-0_レイヤ___1
  6
CONTINUOUS
 62
    7
 10
507.51999849999999
 20
176.41250250000007
 40
4.3399999999999999
 50
26.976614999999999
 51
63.023374999999994
  0
ARC
  8
_0-0_レイヤ___1
  6
CONTINUOUS
 62
    7
 10
508.26499849999999
 20
177.87750149999999
 40
2.6150000000000002
 50
66.895514000000006
 51
94.923914000000011
  0
ARC
  8
_0-0_レイヤ___1
  6
CONTINUOUS
 62
    7
 10
507.70999850000004
 20
177.46250150000003
 40
3.04
 50
83.774905000000004
 51
122.21430599999998
  0
ARC
  8
_0-0_レイヤ___1
  6
CONTINUOUS
 62
    7
 10
507.59999850000003
 20
177.26750149999998
 40
2.98
 50
120.493673
 51
157.979086
  0
ARC
  8
_0-0_レイヤ___1
  6
CONTINUOUS
 62
    7
 10
503.94999849999994
 20
42.327504500000032
 40
5.9950000000000001
 50
1.500683
 51
16.511965
  0
ARC
  8
_0-0_レイヤ___1
  6
CONTINUOUS
 62
    7
 10
499.40999849999997
 20
41.067504500000041
 40
10.699999999999999
 50
16.075844
 51
25.261182000000002
  0
ARC
  8
_0-0_レイヤ___1
  6
CONTINUOUS
 62
    7
 10
611.52499749999993
 20
110.07250250000004
 40
121.019998
 50
211.22843599999996
 51
212.17445599999996
  0
ARC
  8
_0-0_レイヤ___1
  6
CONTINUOUS
 62
    7
 10
514.31999849999988
 20
54.287503500000014
 40
9.2249999999999996
 50
214.73746
 51
227.09133700000001
  0
ARC
  8
_0-0_レイヤ___1
  6
CONTINUOUS
 62
    7
 10
497.95999850000004
 20
52.947503500000039
 40
13.375
 50
309.88641900000005
 51
327.87063900000004
  0
ARC
  8
_0-0_レイヤ___1
  6
CONTINUOUS
 62
    7
 10
505.79999849999996
 20
48.222503500000016
 40
4.3499999999999996
 50
323.42502100000002
 51
341.53141499999998
  0
ARC
  8
_0-0_レイヤ___1
  6
CONTINUOUS
 62
    7
 10
498.48999850000001
 20
50.512503500000037
 40
12.01
 50
342.21222299999999
 51
350.741198
  0
ARC
  8
_0-0_レイヤ___1
  6
CONTINUOUS
 62
    7
 10
520.63499849999994
 20
42.382504500000039
 40
18.18
 50
150.32758999999999
 51
162.06048799999999
  0
ARC
  8
_0-0_レイヤ___1
  6
CONTINUOUS
 62
    7
 10
512.02499850000004
 20
45.827503500000034
 40
8.7050000000000001
 50
165.67787799999999
 51
183.93326500000001
  0
ARC
  8
_0-0_レイヤ___1
  6
CONTINUOUS
 62
    7
 10
513.71999849999997
 20
44.987503500000059
 40
10.385
 50
178.659997
 51
206.64511300000001
  0
ARC
  8
_0-0_レイヤ___1
  6
CONTINUOUS
 62
    7
 10
508.59499850000003
 20
41.562504500000045
 40
4.2699999999999996
 50
193.24133
 51
227.10574300000002
  0
ARC
  8
_0-0_レイヤ___1
  6
CONTINUOUS
 62
    7
 10
507.68499849999995
 20
41.437504500000045
 40
3.6099999999999999
 50
236.44581599999998
 51
268.50307099999998
  0
ARC
  8
_0-0_レイヤ___1
  6
CONTINUOUS
 62
    7
 10
507.3749985
 20
41.147504500000025
 40
3.3199999999999998
 50
273.68765400000001
 51
305.192432
  0
ARC
  8
_0-0_レイヤ___1
  6
CONTINUOUS
 62
    7
 10
506.31499849999994
 20
42.70750350000003
 40
5.375
 50
303.61671699999999
 51
326.38329299999998
  0
ARC
  8
_0-0_レイヤ___1
  6
CONTINUOUS
 62
    7
 10
503.33499850000004
 20
45.12250350000005
 40
9.0850000000000009
 50
325.16488900000002
 51
348.64147200000002
  0
ARC
  8
_0-0_レイヤ___1
  6
CONTINUOUS
 62
    7
 10
503.18999849999994
 20
46.032503500000018
 40
9.2550000000000008
 50
343.047211
 51
358.77223700000002
  0
ARC
  8
_0-0_レイヤ___1
  6
CONTINUOUS
 62
    7
 10
500.92999849999995
 20
45.917503500000009
 40
11.51
 50
359.585735
 51
26.955549999999995
  0
ARC
  8
_0-0_レイヤ___1
  6
CONTINUOUS
 62
    7
 10
507.81499849999994
 20
49.45750350000003
 40
3.9500000000000002
 50
25.110662999999999
 51
64.889326999999994
  0
ARC
  8
_0-0_レイヤ___1
  6
CONTINUOUS
 62
    7
 10
508.26999849999999
 20
51.172503500000062
 40
2.1200000000000001
 50
61.197318999999993
 51
96.182799000000003
  0
ARC
  8
_0-0_レイヤ___1
  6
CONTINUOUS
 62
    7
 10
507.70999850000004
 20
50.262503500000037
 40
3.04
 50
83.774905000000004
 51
122.21430599999998
  0
ARC
  8
_0-0_レイヤ___1
  6
CONTINUOUS
 62
    7
 10
507.59999850000003
 20
50.267503500000032
 40
2.98
 50
120.493673
 51
157.979086
  0
ARC
  8
_0-0_レイヤ___1
  6
CONTINUOUS
 62
    7
 10
518.68499849999989
 20
-84.077494499999943
 40
16.094999999999999
 50
149.33103299999999
 51
162.42696599999999
  0
ARC
  8
_0-0_レイヤ___1
  6
CONTINUOUS
 62
    7
 10
512.02499850000004
 20
-81.622494499999959
 40
8.7050000000000001
 50
165.67787799999999
 51
183.93326500000001
  0
ARC
  8
_0-0_レイヤ___1
  6
CONTINUOUS
 62
    7
 10
513.50499850000006
 20
-82.462494499999991
 40
10.17
 50
178.62278699999999
 51
206.93467699999999
  0
ARC
  8
_0-0_レイヤ___1
  6
CONTINUOUS
 62
    7
 10
508.41999849999996
 20
-85.922494499999971
 40
4.0899999999999999
 50
193.377781
 51
228.14769100000001
  0
ARC
  8
_0-0_レイヤ___1
  6
CONTINUOUS
 62
    7
 10
507.65999849999997
 20
-86.307494499999962
 40
3.3149999999999999
 50
233.47108499999996
 51
268.75676399999998
  0
ARC
  8
_0-0_レイヤ___1
  6
CONTINUOUS
 62
    7
 10
507.40499849999998
 20
-86.592494499999987
 40
3.0299999999999998
 50
273.45964800000002
 51
308.38936999999999
  0
ARC
  8
_0-0_レイヤ___1
  6
CONTINUOUS
 62
    7
 10
506.57999850000004
 20
-84.862494499999968
 40
5.0899999999999999
 50
302.19929100000002
 51
325.858676
  0
ARC
  8
_0-0_レイヤ___1
  6
CONTINUOUS
 62
    7
 10
503.13999849999999
 20
-82.247494499999959
 40
9.2899999999999991
 50
325.42628000000002
 51
348.38008200000002
  0
ARC
  8
_0-0_レイヤ___1
  6
CONTINUOUS
 62
    7
 10
502.92999849999995
 20
-81.38249449999995
 40
9.5099999999999998
 50
343.28717299999994
 51
358.88297499999993
  0
ARC
  8
_0-0_レイヤ___1
  6
CONTINUOUS
 62
    7
 10
500.81999849999994
 20
-81.512494499999946
 40
11.619999999999999
 50
359.72151600000001
 51
26.81976800000001
  0
ARC
  8
_0-0_レイヤ___1
  6
CONTINUOUS
 62
    7
 10
507.72999850000002
 20
-78.027494499999989
 40
4.0599999999999996
 50
25.667015999999997
 51
64.332973999999979
  0
ARC
  8
_0-0_レイヤ___1
  6
CONTINUOUS
 62
    7
 10
508.26499849999999
 20
-76.772494499999993
 40
2.6150000000000002
 50
66.895514000000006
 51
94.923914000000011
  0
ARC
  8
_0-0_レイヤ___1
  6
CONTINUOUS
 62
    7
 10
507.69499849999994
 20
-77.447494499999948
 40
3.2999999999999998
 50
84.038675999999995
 51
119.14565300000001
  0
ARC
  8
_0-0_レイヤ___1
  6
CONTINUOUS
 62
    7
 10
507.6249985
 20
-77.117494499999964
 40
2.9750000000000001
 50
121.03746099999999
 51
159.35136600000001
  0
ARC
  8
_0-0_レイヤ___1
  6
CONTINUOUS
 62
    7
 10
677.01499650000005
 20
140.83250250000003
 40
6.2750000000000004
 50
0.4514679999999999
 51
15.830190999999999
  0
ARC
  8
_0-0_レイヤ___1
  6
CONTINUOUS
 62
    7
 10
664.44499649999989
 20
136.96750250000002
 40
19.425000000000001
 50
16.693297000000001
 51
22.128589000000005
  0
ARC
  8
_0-0_レイヤ___1
  6
CONTINUOUS
 62
    7
 10
670.95499649999988
 20
138.16750250000007
 40
13.185
 50
27.630922999999999
 51
44.639822000000002
  0
ARC
  8
_0-0_レイヤ___1
  6
CONTINUOUS
 62
    7
 10
673.11999650000007
 20
149.50750249999999
 40
10.93
 50
309.600863
 51
320.88160699999997
  0
ARC
  8
_0-0_レイヤ___1
  6
CONTINUOUS
 62
    7
 10
663.44499649999989
 20
157.31750250000005
 40
23.370000000000001
 50
320.98923600000001
 51
326.09385400000002
  0
ARC
  8
_0-0_レイヤ___1
  6
CONTINUOUS
 62
    7
 10
679.14999650000004
 20
146.67250250000006
 40
4.3499999999999996
 50
323.42502100000002
 51
341.53141499999998
  0
ARC
  8
_0-0_レイヤ___1
  6
CONTINUOUS
 62
    7
 10
671.8399965000001
 20
148.96250250000003
 40
12.01
 50
342.21222299999999
 51
350.741198
  0
ARC
  8
_0-0_レイヤ___1
  6
CONTINUOUS
 62
    7
 10
692.41499649999992
 20
141.79250250000007
 40
16.140000000000001
 50
150.32793899999999
 51
163.47838200000001
  0
ARC
  8
_0-0_レイヤ___1
  6
CONTINUOUS
 62
    7
 10
689.35999650000008
 20
144.29750250000006
 40
12.640000000000001
 50
169.354681
 51
183.01716999999996
  0
ARC
  8
_0-0_レイヤ___1
  6
CONTINUOUS
 62
    7
 10
689.96999649999998
 20
143.51750250000009
 40
13.234999999999999
 50
179.49205699999999
 51
200.03149000000002
  0
ARC
  8
_0-0_レイヤ___1
  6
CONTINUOUS
 62
    7
 10
681.28999649999992
 20
140.28250250000008
 40
3.9700000000000002
 50
199.09696600000001
 51
238.88505299999997
  0
ARC
  8
_0-0_レイヤ___1
  6
CONTINUOUS
 62
    7
 10
681.25499650000006
 20
139.66750250000007
 40
3.4350000000000001
 50
234.12919099999999
 51
268.098658
  0
ARC
  8
_0-0_レイヤ___1
  6
CONTINUOUS
 62
    7
 10
681.03499650000003
 20
138.53250250000008
 40
2.3050000000000002
 50
272.66644400000001
 51
296.36410699999999
  0
ARC
  8
_0-0_レイヤ___1
  6
CONTINUOUS
 62
    7
 10
720.07499549999989
 20
65.232503500000007
 40
80.749999000000003
 50
117.45832
 51
118.086946
  0
ARC
  8
_0-0_レイヤ___1
  6
CONTINUOUS
 62
    7
 10
680.12999650000006
 20
141.18750250000005
 40
5.0899999999999999
 50
302.19929100000002
 51
325.858676
  0
ARC
  8
_0-0_レイヤ___1
  6
CONTINUOUS
 62
    7
 10
676.48999649999996
 20
143.60250250000001
 40
9.2899999999999991
 50
325.42628000000002
 51
348.38008200000002
  0
ARC
  8
_0-0_レイヤ___1
  6
CONTINUOUS
 62
    7
 10
677.35999650000008
 20
144.4975025
 40
8.6850000000000005
 50
341.41815000000003
 51
358.56589200000002
  0
ARC
  8
_0-0_レイヤ___1
  6
CONTINUOUS
 62
    7
 10
674.57999649999988
 20
144.28250250000008
 40
11.460000000000001
 50
0.00643
 51
27.556761999999996
  0
ARC
  8
_0-0_レイヤ___1
  6
CONTINUOUS
 62
    7
 10
680.38999650000005
 20
147.32750250000004
 40
5.125
 50
26.091892000000001
 51
58.18328799999999
  0
ARC
  8
_0-0_レイヤ___1
  6
CONTINUOUS
 62
    7
 10
681.81499650000001
 20
149.27750250000008
 40
2.6150000000000002
 50
66.895514000000006
 51
94.923914000000011
  0
ARC
  8
_0-0_レイヤ___1
  6
CONTINUOUS
 62
    7
 10
681.42499649999991
 20
149.09250250000002
 40
2.7949999999999999
 50
86.649539000000004
 51
128.40157400000001
  0
ARC
  8
_0-0_レイヤ___1
  6
CONTINUOUS
 62
    7
 10
682.66499649999992
 20
146.80750250000006
 40
5.375
 50
123.61669699999999
 51
146.383273
  0
ARC
  8
_0-0_レイヤ___1
  6
CONTINUOUS
 62
    7
 10
677.01499650000005
 20
268.03250050000008
 40
6.2750000000000004
 50
0.4514679999999999
 51
15.830190999999999
  0
ARC
  8
_0-0_レイヤ___1
  6
CONTINUOUS
 62
    7
 10
664.44499649999989
 20
264.16750050000007
 40
19.425000000000001
 50
16.693297000000001
 51
22.128589000000005
  0
ARC
  8
_0-0_レイヤ___1
  6
CONTINUOUS
 62
    7
 10
670.9499965
 20
265.70750050000004
 40
13.125
 50
27.074074
 51
44.339300999999999
  0
ARC
  8
_0-0_レイヤ___1
  6
CONTINUOUS
 62
    7
 10
671.50999649999994
 20
278.79750050000007
 40
13.375
 50
309.88641900000005
 51
327.87063900000004
  0
ARC
  8
_0-0_レイヤ___1
  6
CONTINUOUS
 62
    7
 10
679.14999650000004
 20
274.07250050000005
 40
4.3499999999999996
 50
323.42502100000002
 51
341.53141499999998
  0
ARC
  8
_0-0_レイヤ___1
  6
CONTINUOUS
 62
    7
 10
671.8399965000001
 20
276.36250050000001
 40
12.01
 50
342.21222299999999
 51
350.741198
  0
ARC
  8
_0-0_レイヤ___1
  6
CONTINUOUS
 62
    7
 10
694.88999650000005
 20
268.18750050000006
 40
18.82
 50
151.267157
 51
162.539165
  0
ARC
  8
_0-0_レイヤ___1
  6
CONTINUOUS
 62
    7
 10
689.0599964999999
 20
271.72750050000002
 40
12.335000000000001
 50
169.237596
 51
183.00535600000001
  0
ARC
  8
_0-0_レイヤ___1
  6
CONTINUOUS
 62
    7
 10
689.70999649999999
 20
270.92250050000007
 40
12.970000000000001
 50
179.28235100000001
 51
200.241196
  0
ARC
  8
_0-0_レイヤ___1
  6
CONTINUOUS
 62
    7
 10
681.52999649999992
 20
267.67250050000007
 40
4.2549999999999999
 50
200.49036799999999
 51
237.49165099999999
  0
ARC
  8
_0-0_レイヤ___1
  6
CONTINUOUS
 62
    7
 10
681.38999650000005
 20
267.26750049999998
 40
3.8450000000000002
 50
235.967027
 51
266.26082200000002
  0
ARC
  8
_0-0_レイヤ___1
  6
CONTINUOUS
 62
    7
 10
681.03499650000003
 20
265.73250050000001
 40
2.3050000000000002
 50
272.66644400000001
 51
296.36410699999999
  0
ARC
  8
_0-0_レイヤ___1
  6
CONTINUOUS
 62
    7
 10
720.07499549999989
 20
192.43250150000006
 40
80.749999000000003
 50
117.45832
 51
118.086946
  0
ARC
  8
_0-0_レイヤ___1
  6
CONTINUOUS
 62
    7
 10
679.86499649999996
 20
268.75750049999999
 40
5.375
 50
303.61671699999999
 51
326.38329299999998
  0
ARC
  8
_0-0_レイヤ___1
  6
CONTINUOUS
 62
    7
 10
676.6849964999999
 20
270.97250050000002
 40
9.0850000000000009
 50
325.16488900000002
 51
348.64147200000002
  0
ARC
  8
_0-0_レイヤ___1
  6
CONTINUOUS
 62
    7
 10
677.4649965000001
 20
271.93750050000006
 40
8.5800000000000001
 50
341.28202099999999
 51
358.31003399999997
  0
ARC
  8
_0-0_レイヤ___1
  6
CONTINUOUS
 62
    7
 10
674.69499649999989
 20
271.70750050000004
 40
11.345000000000001
 50
359.86617100000001
 51
27.697021000000003
  0
ARC
  8
_0-0_レイヤ___1
  6
CONTINUOUS
 62
    7
 10
680.38999650000005
 20
274.52750050000009
 40
5.125
 50
26.091892000000001
 51
58.18328799999999
  0
ARC
  8
_0-0_レイヤ___1
  6
CONTINUOUS
 62
    7
 10
681.81999649999989
 20
277.02250049999998
 40
2.1200000000000001
 50
61.197318999999993
 51
96.182799000000003
  0
ARC
  8
_0-0_レイヤ___1
  6
CONTINUOUS
 62
    7
 10
681.48499650000008
 20
276.34250050000003
 40
2.79
 50
87.796231000000006
 51
129.975919
  0
ARC
  8
_0-0_レイヤ___1
  6
CONTINUOUS
 62
    7
 10
682.39999650000004
 20
274.3775005
 40
5.0899999999999999
 50
122.199271
 51
145.858656
  0
ARC
  8
_0-0_レイヤ___1
  6
CONTINUOUS
 62
    7
 10
780.01499450000006
 20
-20.59749549999998
 40
50.304999000000002
 50
61.084215999999998
 51
76.348147999999995
  0
ARC
  8
_0-0_レイヤ___1
  6
CONTINUOUS
 62
    7
 10
708.24999550000007
 20
-6.0374954999999773
 40
90.854999000000007
 50
2.1587640000000001
 51
22.332535
  0
ARC
  8
_0-0_レイヤ___1
  6
CONTINUOUS
 62
    7
 10
774.11999450000008
 20
-23.387495499999943
 40
32.414999999999999
 50
23.969231000000001
 51
40.305259
  0
ARC
  8
_0-0_レイヤ___1
  6
CONTINUOUS
 62
    7
 10
765.07499549999989
 20
-27.667494499999975
 40
42.599998999999997
 50
9.5231060000000003
 51
24.178396999999997
  0
ARC
  8
_0-0_レイヤ___1
  6
CONTINUOUS
 62
    7
 10
808.2149945000001
 20
-34.172494499999971
 40
0.22
 50
110.25795999999998
 51
317.27506299999993
  0
ARC
  8
_0-0_レイヤ___1
  6
CONTINUOUS
 62
    7
 10
804.4499945
 20
-33.857494499999973
 40
3.9550000000000001
 50
353.275711
 51
4.9635019999999779
  0
ARC
  8
_0-0_レイヤ___1
  6
CONTINUOUS
 62
    7
 10
741.63499550000006
 20
-33.527494499999989
 40
66.754998999999998
 50
0.0085339999999999
 51
11.326036
  0
ARC
  8
_0-0_レイヤ___1
  6
CONTINUOUS
 62
    7
 10
701.73999550000008
 20
-32.352494499999978
 40
106.664998
 50
350.33024599999993
 51
359.02425299999993
  0
LINE
  8
_0-0_レイヤ___1
  6
CONTINUOUS
 62
    7
 10
808.38999450000006
 20
-34.167494499999975
 11
808.38999450000006
 21
-33.967494499999987
  0
ARC
  8
_0-0_レイヤ___1
  6
CONTINUOUS
 62
    7
 10
691.97999649999997
 20
-32.742494499999964
 40
116.19999799999999
 50
338.55960799999997
 51
351.45023699999996
  0
ARC
  8
_0-0_レイヤ___1
  6
CONTINUOUS
 62
    7
 10
644.90499649999992
 20
-16.522495499999991
 40
165.96499800000001
 50
315.82797599999998
 51
339.28825399999999
  0
ARC
  8
_0-0_レイヤ___1
  6
CONTINUOUS
 62
    7
 10
685.26499650000005
 20
-55.852494499999978
 40
109.744998
 50
303.68812200000002
 51
315.79627099999993
  0
LINE
  8
_0-0_レイヤ___1
  6
CONTINUOUS
 62
    7
 10
746.33999549999999
 20
-147.16749349999998
 11
741.28999550000003
 21
-150.36749349999997
  0
ARC
  8
_0-0_レイヤ___1
  6
CONTINUOUS
 62
    7
 10
694.7149965000001
 20
-67.357494499999973
 40
94.884998999999993
 50
290.78634099999999
 51
299.22266200000001
  0
ARC
  8
_0-0_レイヤ___1
  6
CONTINUOUS
 62
    7
 10
711.76999550000005
 20
-103.88749349999995
 40
54.884999000000001
 50
276.507565
 51
282.22589500000004
  0
ARC
  8
_0-0_レイヤ___1
  6
CONTINUOUS
 62
    7
 10
717.18499550000001
 20
-128.86249349999997
 40
29.324999999999999
 50
282.22375799999998
 51
291.93889899999999
  0
ARC
  8
_0-0_レイヤ___1
  6
CONTINUOUS
 62
    7
 10
714.88999549999994
 20
-131.77249349999994
 40
26.844999999999999
 50
252.44336100000001
 51
270.32536399999998
  0
ARC
  8
_0-0_レイヤ___1
  6
CONTINUOUS
 62
    7
 10
696.37499649999995
 20
160.28250250000008
 40
319.449995
 50
273.34989999999999
 51
273.91602
  0
ARC
  8
_0-0_レイヤ___1
  6
CONTINUOUS
 62
    7
 10
714.99999550000007
 20
-130.97249349999998
 40
27.835000000000001
 50
241.43521600000003
 51
252.847285
  0
ARC
  8
_0-0_レイヤ___1
  6
CONTINUOUS
 62
    7
 10
713.29499549999991
 20
-135.48249349999998
 40
22.995000000000001
 50
211.26040900000004
 51
239.10572600000003
  0
ARC
  8
_0-0_レイヤ___1
  6
CONTINUOUS
 62
    7
 10
719.3299955
 20
-128.92249349999997
 40
31.815000000000001
 50
198.687985
 51
215.54131699999999
  0
ARC
  8
_0-0_レイヤ___1
  6
CONTINUOUS
 62
    7
 10
733.68499550000001
 20
-123.22249349999998
 40
47.249999000000003
 50
185.94829799999999
 51
199.66027099999999
  0
LINE
  8
_0-0_レイヤ___1
  6
CONTINUOUS
 62
    7
 10
686.23999649999996
 20
-118.41749349999998
 11
686.23999649999996
 21
-118.81749349999996
  0
ARC
  8
_0-0_レイヤ___1
  6
CONTINUOUS
 62
    7
 10
793.75999449999995
 20
-118.27749349999999
 40
107.519998
 50
180.28863399999997
 51
185.25183699999997
  0
ARC
  8
_0-0_レイヤ___1
  6
CONTINUOUS
 62
    7
 10
787.06499450000001
 20
-118.30249349999997
 40
100.82499799999999
 50
167.08626999999998
 51
180.06678999999997
  0
ARC
  8
_0-0_レイヤ___1
  6
CONTINUOUS
 62
    7
 10
826.34499449999998
 20
-126.17249349999997
 40
140.67999800000001
 50
154.908885
 51
167.51745500000001
  0
ARC
  8
_0-0_レイヤ___1
  6
CONTINUOUS
 62
    7
 10
850.04499349999992
 20
-136.64249349999994
 40
166.76499799999999
 50
135.603272
 51
155.13449600000001
  0
ARC
  8
_0-0_レイヤ___1
  6
CONTINUOUS
 62
    7
 10
817.65499449999993
 20
-107.52249349999994
 40
123.259998
 50
125.57777899999999
 51
134.741141
  0
LINE
  8
_0-0_レイヤ___1
  6
CONTINUOUS
 62
    7
 10
745.9399954999999
 20
-7.2674954999999386
 11
745.9399954999999
 21
-7.06749549999995
  0
ARC
  8
_0-0_レイヤ___1
  6
CONTINUOUS
 62
    7
 10
704.86999549999996
 20
-15.512495499999943
 40
41.734999000000002
 50
11.677353999999999
 51
28.083345999999995
  0
LINE
  8
_0-0_レイヤ___1
  6
CONTINUOUS
 62
    7
 10
741.6899954999999
 20
4.1325045000000387
 11
739.58999549999999
 21
7.5325045000000159
  0
LINE
  8
_0-0_レイヤ___1
  6
CONTINUOUS
 62
    7
 10
739.58999549999999
 20
7.5325045000000159
 11
736.63999549999994
 21
11.582504500000027
  0
ARC
  8
_0-0_レイヤ___1
  6
CONTINUOUS
 62
    7
 10
731.54499549999991
 20
8.9775045000000091
 40
5.5999999999999996
 50
30.041201999999995
 51
46.357500000000002
  0
ARC
  8
_0-0_レイヤ___1
  6
CONTINUOUS
 62
    7
 10
727.92499550000002
 20
5.0075045000000387
 40
10.970000000000001
 50
47.006557000000008
 51
55.817340000000002
  0
ARC
  8
_0-0_レイヤ___1
  6
CONTINUOUS
 62
    7
 10
810.86499449999997
 20
-99.647493499999939
 40
136.82999799999999
 50
123.929537
 51
134.83527300000003
  0
ARC
  8
_0-0_レイヤ___1
  6
CONTINUOUS
 62
    7
 10
844.40999349999993
 20
-132.16249349999998
 40
183.824997
 50
135.10396700000001
 51
167.28919099999999
  0
ARC
  8
_0-0_レイヤ___1
  6
CONTINUOUS
 62
    7
 10
784.36499449999997
 20
-117.49249349999997
 40
122.024998
 50
167.80525400000002
 51
180.433716
  0
LINE
  8
_0-0_レイヤ___1
  6
CONTINUOUS
 62
    7
 10
662.3399965000001
 20
-118.41749349999998
 11
662.3399965000001
 21
-118.81749349999996
  0
ARC
  8
_0-0_レイヤ___1
  6
CONTINUOUS
 62
    7
 10
756.5949955000001
 20
-119.11749349999997
 40
94.254998999999998
 50
179.81670600000001
 51
194.37381199999999
  0
ARC
  8
_0-0_レイヤ___1
  6
CONTINUOUS
 62
    7
 10
731.02499549999993
 20
-123.57249349999995
 40
68.409998999999999
 50
196.07781399999996
 51
213.13726699999998
  0
ARC
  8
_0-0_レイヤ___1
  6
CONTINUOUS
 62
    7
 10
713.47499549999998
 20
-134.45749349999994
 40
47.764999000000003
 50
213.70852099999999
 51
240.34289699999999
  0
ARC
  8
_0-0_レイヤ___1
  6
CONTINUOUS
 62
    7
 10
714.0549954999999
 20
-134.99749349999996
 40
47.524999000000001
 50
239.088134
 51
270.16481099999999
  0
ARC
  8
_0-0_レイヤ___1
  6
CONTINUOUS
 62
    7
 10
713.80999550000001
 20
-176.1424925
 40
6.3899999999999997
 50
273.40341999999998
 51
284.777152
  0
ARC
  8
_0-0_レイヤ___1
  6
CONTINUOUS
 62
    7
 10
715.26499549999994
 20
-122.17249349999997
 40
60.144998999999999
 50
270.16642100000001
 51
285.89690899999999
  0
ARC
  8
_0-0_レイヤ___1
  6
CONTINUOUS
 62
    7
 10
706.41999549999991
 20
-90.727494499999978
 40
92.864998999999997
 50
285.95156900000001
 51
300.34865200000002
  0
ARC
  8
_0-0_レイヤ___1
  6
CONTINUOUS
 62
    7
 10
690.9649965000001
 20
-63.157494499999984
 40
124.364998
 50
299.99433099999999
 51
313.66807499999999
  0
ARC
  8
_0-0_レイヤ___1
  6
CONTINUOUS
 62
    7
 10
667.0599964999999
 20
-34.107494499999973
 40
162.04999799999999
 50
312.74224900000002
 51
328.91766000000001
  0
ARC
  8
_0-0_レイヤ___1
  6
CONTINUOUS
 62
    7
 10
650.59499649999998
 20
-21.182495499999959
 40
183.11499699999999
 50
328.09251
 51
345.45587599999999
  0
ARC
  8
_0-0_レイヤ___1
  6
CONTINUOUS
 62
    7
 10
695.53999649999992
 20
-33.38249449999995
 40
136.349998
 50
345.65321499999999
 51
359.66957400000001
  0
ARC
  8
_0-0_レイヤ___1
  6
CONTINUOUS
 62
    7
 10
739.88999549999994
 20
-34.097494499999982
 40
92.199999000000005
 50
359.95635299999998
 51
15.13967899999998
  0
ARC
  8
_0-0_レイヤ___1
  6
CONTINUOUS
 62
    7
 10
770.40499449999993
 20
-25.367494499999964
 40
60.469999000000001
 50
14.706933999999999
 51
34.157758999999992
  0
ARC
  8
_0-0_レイヤ___1
  6
CONTINUOUS
 62
    7
 10
782.27499450000005
 20
-16.34749549999998
 40
45.584999000000003
 50
33.150011999999997
 51
60.76133999999999
  0
LINE
  8
_0-0_レイヤ___1
  6
CONTINUOUS
 62
    7
 10
723.48999550000008
 20
89.232503500000007
 11
723.48999550000008
 21
147.88250249999999
  0
LINE
  8
_0-0_レイヤ___1
  6
CONTINUOUS
 62
    7
 10
723.48999550000008
 20
151.28250250000008
 11
723.48999550000008
 21
351.93249950000006
  0
LINE
  8
_0-0_レイヤ___1
  6
CONTINUOUS
 62
    7
 10
462.08999950000003
 20
-157.7674935
 11
462.08999950000003
 21
0.1325045000000386
  0
LINE
  8
_0-0_レイヤ___1
  6
CONTINUOUS
 62
    7
 10
462.08999950000003
 20
0.1325045000000386
 11
462.08999950000003
 21
202.48250150000001
  0
LINE
  8
_0-0_レイヤ___1
  6
CONTINUOUS
 62
    7
 10
590.78999750000003
 20
275.93250050000006
 11
462.08999950000003
 21
202.48250150000001
  0
LINE
  8
_0-0_レイヤ___1
  6
CONTINUOUS
 62
    7
 10
723.48999550000008
 20
351.93249950000006
 11
592.23999750000007
 21
276.78250050000008
  0
LINE
  8
_0-0_レイヤ___1
  6
CONTINUOUS
 62
    7
 10
452.78999949999996
 20
-152.46749349999993
 11
452.78999949999996
 21
-4.1174954999999613
  0
LINE
  8
_0-0_レイヤ___1
  6
CONTINUOUS
 62
    7
 10
452.78999949999996
 20
-4.1174954999999613
 11
452.78999949999996
 21
207.78250150000008
  0
LINE
  8
_0-0_レイヤ___1
  6
CONTINUOUS
 62
    7
 10
581.68999749999989
 20
281.43250050000006
 11
452.78999949999996
 21
207.78250150000008
  0
LINE
  8
_0-0_レイヤ___1
  6
CONTINUOUS
 62
    7
 10
714.1899954999999
 20
357.23249950000002
 11
582.93999749999989
 21
282.28250050000008
  0
LINE
  8
_0-0_レイヤ___1
  6
CONTINUOUS
 62
    7
 10
691.53999649999992
 20
-27.817494499999952
 11
462.08999950000003
 21
-157.7674935
  0
ARC
  8
_0-0_レイヤ___1
  6
CONTINUOUS
 62
    7
 10
752.40499550000004
 20
-39.957494499999939
 40
14.960000000000001
 50
270.32831800000008
 51
313.17715700000008
  0
ARC
  8
_0-0_レイヤ___1
  6
CONTINUOUS
 62
    7
 10
751.52999550000004
 20
-27.292494499999975
 40
28.035
 50
255.77369599999997
 51
268.48817499999996
  0
ARC
  8
_0-0_レイヤ___1
  6
CONTINUOUS
 62
    7
 10
740.6899954999999
 20
26.147504500000025
 40
82.084998999999996
 50
277.06652100000002
 51
278.12278400000002
  0
ARC
  8
_0-0_レイヤ___1
  6
CONTINUOUS
 62
    7
 10
752.97999550000009
 20
-11.927495499999964
 40
43.189999
 50
244.36196899999999
 51
258.59889399999997
  0
ARC
  8
_0-0_レイヤ___1
  6
CONTINUOUS
 62
    7
 10
756.49999550000007
 20
-1.6074954999999704
 40
54.039999000000002
 50
237.27797900000002
 51
245.73077000000004
  0
LINE
  8
_0-0_レイヤ___1
  6
CONTINUOUS
 62
    7
 10
727.53999550000003
 20
-47.467494499999987
 11
623.58999749999998
 21
13.882504500000039
  0
LINE
  8
_0-0_レイヤ___1
  6
CONTINUOUS
 62
    7
 10
574.68999749999989
 20
136.43250250000006
 11
574.68999749999989
 21
142.58250250000003
  0
LINE
  8
_0-0_レイヤ___1
  6
CONTINUOUS
 62
    7
 10
574.68999749999989
 20
43.732503500000007
 11
574.68999749999989
 21
136.43250250000006
  0
LINE
  8
_0-0_レイヤ___1
  6
CONTINUOUS
 62
    7
 10
714.1899954999999
 20
357.23249950000002
 11
723.48999550000008
 21
351.73249950000002
  0
LINE
  8
_0-0_レイヤ___1
  6
CONTINUOUS
 62
    7
 10
590.78999750000003
 20
201.43250150000006
 11
590.78999750000003
 21
275.93250050000006
  0
LINE
  8
_0-0_レイヤ___1
  6
CONTINUOUS
 62
    7
 10
601.98999750000007
 20
26.18250450000005
 11
564.53999750000003
 21
5.2325045000000614
  0
LINE
  8
_0-0_レイヤ___1
  6
CONTINUOUS
 62
    7
 10
564.53999750000003
 20
5.2325045000000614
 11
564.53999750000003
 21
53.282503500000018
  0
LINE
  8
_0-0_レイヤ___1
  6
CONTINUOUS
 62
    7
 10
590.78999750000003
 20
169.28250250000008
 11
590.78999750000003
 21
201.43250150000006
  0
LINE
  8
_0-0_レイヤ___1
  6
CONTINUOUS
 62
    7
 10
590.78999750000003
 20
169.28250250000008
 11
564.73999750000007
 21
155.08250250000003
  0
LINE
  8
_0-0_レイヤ___1
  6
CONTINUOUS
 62
    7
 10
564.73999750000007
 20
155.08250250000003
 11
564.53999750000003
 21
53.282503500000018
  0
LINE
  8
_0-0_レイヤ___1
  6
CONTINUOUS
 62
    7
 10
610.23999750000007
 20
156.13250249999999
 11
610.23999750000007
 21
180.03250150000008
  0
LINE
  8
_0-0_レイヤ___1
  6
CONTINUOUS
 62
    7
 10
452.78999949999996
 20
207.78250150000008
 11
462.08999950000003
 21
202.48250150000001
  0
LINE
  8
_0-0_レイヤ___1
  6
CONTINUOUS
 62
    7
 10
452.78999949999996
 20
-152.46749349999993
 11
462.08999950000003
 21
-157.96749349999993
  0
LINE
  8
_0-0_レイヤ___1
  6
CONTINUOUS
 62
    7
 10
594.38999749999994
 20
31.68250450000005
 11
564.93999749999989
 21
14.532504500000016
  0
LINE
  8
_0-0_レイヤ___1
  6
CONTINUOUS
 62
    7
 10
615.53999750000003
 20
118.68250250000006
 11
727.53999550000003
 21
52.432503500000053
  0
LINE
  8
_0-0_レイヤ___1
  6
CONTINUOUS
 62
    7
 10
727.53999550000003
 20
52.432503500000053
 11
730.28999550000003
 21
51.132503500000041
  0
ARC
  8
_0-0_レイヤ___1
  6
CONTINUOUS
 62
    7
 10
695.4349964999999
 20
-10.867495499999961
 40
70.904999000000004
 50
43.824506999999997
 51
60.972203000000007
  0
ARC
  8
_0-0_レイヤ___1
  6
CONTINUOUS
 62
    7
 10
687.13999650000005
 20
-17.797495499999968
 40
81.834998999999996
 50
14.167934000000001
 51
43.208976
  0
ARC
  8
_0-0_レイヤ___1
  6
CONTINUOUS
 62
    7
 10
770.27499450000005
 20
-26.562494499999957
 40
0.245
 50
86.545011000000002
 51
300.895714
  0
ARC
  8
_0-0_レイヤ___1
  6
CONTINUOUS
 62
    7
 10
761.52499549999993
 20
-25.497494499999959
 40
8.9700000000000006
 50
351.81876000000005
 51
1.4763830000000349
  0
ARC
  8
_0-0_レイヤ___1
  6
CONTINUOUS
 62
    7
 10
668.00999649999994
 20
-25.167494499999975
 40
102.47999799999999
 50
359.94291800000002
 51
15.651903000000024
  0
ARC
  8
_0-0_レイヤ___1
  6
CONTINUOUS
 62
    7
 10
705.87499550000007
 20
-25.377494499999955
 40
64.424999
 50
350.62713300000001
 51
358.98401100000001
  0
LINE
  8
_0-0_レイヤ___1
  6
CONTINUOUS
 62
    7
 10
770.28999449999992
 20
-26.517494499999941
 11
770.28999449999992
 21
-26.317494499999952
  0
ARC
  8
_0-0_レイヤ___1
  6
CONTINUOUS
 62
    7
 10
728.36499550000008
 20
-28.962494499999991
 40
41.844999000000001
 50
335.64539200000002
 51
350.49958600000002
  0
ARC
  8
_0-0_レイヤ___1
  6
CONTINUOUS
 62
    7
 10
750.21499549999999
 20
-37.922494499999971
 40
18.27
 50
301.98462899999998
 51
332.99448699999999
  0
LINE
  8
_0-0_レイヤ___1
  6
CONTINUOUS
 62
    7
 10
759.88999549999994
 20
-53.417494499999975
 11
778.0899945000001
 21
-42.617494499999964
  0
LINE
  8
_0-0_レイヤ___1
  6
CONTINUOUS
 62
    7
 10
778.0899945000001
 20
-42.617494499999964
 11
788.68999450000001
 21
-36.267494499999941
  0
LINE
  8
_0-0_レイヤ___1
  6
CONTINUOUS
 62
    7
 10
788.68999450000001
 20
-36.267494499999941
 11
789.53999449999992
 21
-35.867494499999964
  0
LINE
  8
_0-0_レイヤ___1
  6
CONTINUOUS
 62
    7
 10
789.53999449999992
 20
-35.867494499999964
 11
789.93999450000001
 21
-35.417494499999975
  0
ARC
  8
_0-0_レイヤ___1
  6
CONTINUOUS
 62
    7
 10
780.8249945
 20
-22.06749549999995
 40
16.164999999999999
 50
304.32856900000002
 51
336.87011799999999
  0
ARC
  8
_0-0_レイヤ___1
  6
CONTINUOUS
 62
    7
 10
668.67499649999991
 20
20.592504500000018
 40
136.32999799999999
 50
338.93124399999999
 51
341.27789799999999
  0
ARC
  8
_0-0_レイヤ___1
  6
CONTINUOUS
 62
    7
 10
767.56499450000001
 20
-14.062495499999955
 40
31.375
 50
343.13075700000002
 51
355.42034899999999
  0
ARC
  8
_0-0_レイヤ___1
  6
CONTINUOUS
 62
    7
 10
744.13499550000006
 20
-9.5174954999999386
 40
55.154998999999997
 50
352.657691
 51
359.48195900000002
  0
ARC
  8
_0-0_レイヤ___1
  6
CONTINUOUS
 62
    7
 10
799.22499450000009
 20
-9.7774954999999864
 40
0.245
 50
284.67825699999997
 51
139.33250299999997
  0
ARC
  8
_0-0_レイヤ___1
  6
CONTINUOUS
 62
    7
 10
682.4649965000001
 20
-11.59749549999998
 40
116.849998
 50
1.192191
 51
18.089090999999996
  0
ARC
  8
_0-0_レイヤ___1
  6
CONTINUOUS
 62
    7
 10
713.1799954999999
 20
-3.352495499999975
 40
85.109999000000002
 50
19.231107000000005
 51
54.262632000000011
  0
ARC
  8
_0-0_レイヤ___1
  6
CONTINUOUS
 62
    7
 10
731.70999549999988
 20
24.357504500000061
 40
51.649999000000001
 50
52.862595999999996
 51
61.579229999999995
  0
LINE
  8
_0-0_レイヤ___1
  6
CONTINUOUS
 62
    7
 10
756.53999550000003
 20
69.58250350000003
 11
644.73999649999996
 21
135.38250249999999
  0
LINE
  8
_0-0_レイヤ___1
  6
CONTINUOUS
 62
    7
 10
644.73999649999996
 20
135.38250249999999
 11
603.68999749999989
 21
159.73250250000001
  0
LINE
  8
_0-0_レイヤ___1
  6
CONTINUOUS
 62
    7
 10
603.68999749999989
 20
159.73250250000001
 11
574.68999749999989
 21
142.58250250000003
  0
LINE
  8
_0-0_レイヤ___1
  6
CONTINUOUS
 62
    7
 10
574.68999749999989
 20
142.58250250000003
 11
615.53999750000003
 21
118.68250250000006
  0
LINE
  8
_0-0_レイヤ___1
  6
CONTINUOUS
 62
    7
 10
708.6899954999999
 20
8.8325045000000273
 11
708.6899954999999
 21
8.5825045000000273
  0
ARC
  8
_0-0_レイヤ___1
  6
CONTINUOUS
 62
    7
 10
740.5649954999999
 20
8.5725045000000364
 40
31.875
 50
179.980367
 51
196.09852000000001
  0
ARC
  8
_0-0_レイヤ___1
  6
CONTINUOUS
 62
    7
 10
753.1899954999999
 20
12.337504500000023
 40
45.119999
 50
196.55558400000004
 51
230.58384500000003
  0
ARC
  8
_0-0_レイヤ___1
  6
CONTINUOUS
 62
    7
 10
740.37999549999995
 20
-1.5524954999999636
 40
26.125
 50
233.365183
 51
241.066282
  0
ARC
  8
_0-0_レイヤ___1
  6
CONTINUOUS
 62
    7
 10
738.16499550000003
 20
-6.2974954999999682
 40
20.829999999999998
 50
239.33143699999999
 51
259.27768600000002
  0
ARC
  8
_0-0_レイヤ___1
  6
CONTINUOUS
 62
    7
 10
740.29999550000002
 20
16.972504500000014
 40
44.149999000000001
 50
262.179396
 51
264.40095200000002
  0
ARC
  8
_0-0_レイヤ___1
  6
CONTINUOUS
 62
    7
 10
735.86999549999996
 20
-16.957495499999993
 40
10.01
 50
270.69173499999999
 51
282.623043
  0
ARC
  8
_0-0_レイヤ___1
  6
CONTINUOUS
 62
    7
 10
734.51999550000005
 20
-10.907495499999982
 40
16.210000000000001
 50
282.59410700000001
 51
292.17400099999998
  0
ARC
  8
_0-0_レイヤ___1
  6
CONTINUOUS
 62
    7
 10
737.0549954999999
 20
-18.237495499999966
 40
8.4749999999999996
 50
295.02528299999994
 51
337.60855099999992
  0
ARC
  8
_0-0_レイヤ___1
  6
CONTINUOUS
 62
    7
 10
730.25499549999995
 20
-14.772495499999991
 40
16.09
 50
335.41130799999996
 51
358.05573299999992
  0
LINE
  8
_0-0_レイヤ___1
  6
CONTINUOUS
 62
    7
 10
746.58999549999999
 20
-15.517495499999939
 11
746.58999549999999
 21
-13.417495499999973
  0
ARC
  8
_0-0_レイヤ___1
  6
CONTINUOUS
 62
    7
 10
699.83499549999988
 20
-16.452495499999941
 40
46.849998999999997
 50
3.711719
 51
15.008661
  0
ARC
  8
_0-0_レイヤ___1
  6
CONTINUOUS
 62
    7
 10
700.1799954999999
 20
-18.407495499999982
 40
47.319999000000003
 50
17.573634999999999
 51
50.165525000000002
  0
ARC
  8
_0-0_レイヤ___1
  6
CONTINUOUS
 62
    7
 10
723.98499549999997
 20
11.26750450000003
 40
8.9949999999999992
 50
45.504033
 51
68.448218999999995
  0
ARC
  8
_0-0_レイヤ___1
  6
CONTINUOUS
 62
    7
 10
718.60999549999997
 20
5.2125045000000227
 40
16.829999999999998
 50
58.951881999999998
 51
83.415965999999997
  0
LINE
  8
_0-0_レイヤ___1
  6
CONTINUOUS
 62
    7
 10
720.53999550000003
 20
22.132504500000039
 11
719.23999550000008
 21
22.132504500000039
  0
ARC
  8
_0-0_レイヤ___1
  6
CONTINUOUS
 62
    7
 10
718.9299954999999
 20
11.847504500000014
 40
10.289999999999999
 50
88.262489000000002
 51
116.168926
  0
ARC
  8
_0-0_レイヤ___1
  6
CONTINUOUS
 62
    7
 10
719.1899954999999
 20
12.242504500000052
 40
10.06
 50
118.504668
 51
154.12912600000001
  0
ARC
  8
_0-0_レイヤ___1
  6
CONTINUOUS
 62
    7
 10
718.5949955000001
 20
11.632504500000039
 40
9.6099999999999994
 50
148.656746
 51
171.63279
  0
ARC
  8
_0-0_レイヤ___1
  6
CONTINUOUS
 62
    7
 10
719.59999549999998
 20
10.197504500000036
 40
10.885
 50
164.91487900000001
 51
176.47995000000003
  0
ARC
  8
_0-0_レイヤ___1
  6
CONTINUOUS
 62
    7
 10
741.91999549999991
 20
9.1075045000000614
 40
33.229999999999997
 50
176.96517399999999
 51
180.476213
  0
ARC
  8
_0-0_レイヤ___1
  6
CONTINUOUS
 62
    7
 10
708.79499549999991
 20
-11.992495499999961
 40
36.634999000000001
 50
47.303249000000001
 51
59.682198000000007
  0
ARC
  8
_0-0_レイヤ___1
  6
CONTINUOUS
 62
    7
 10
718.60999549999997
 20
5.2125045000000227
 40
16.829999999999998
 50
58.951881999999998
 51
83.415965999999997
  0
LINE
  8
_0-0_レイヤ___1
  6
CONTINUOUS
 62
    7
 10
720.53999550000003
 20
22.132504500000039
 11
719.23999550000008
 21
22.132504500000039
  0
ARC
  8
_0-0_レイヤ___1
  6
CONTINUOUS
 62
    7
 10
718.9299954999999
 20
11.847504500000014
 40
10.289999999999999
 50
88.262489000000002
 51
116.168926
  0
ARC
  8
_0-0_レイヤ___1
  6
CONTINUOUS
 62
    7
 10
719.1899954999999
 20
12.242504500000052
 40
10.06
 50
118.504668
 51
154.12912600000001
  0
ARC
  8
_0-0_レイヤ___1
  6
CONTINUOUS
 62
    7
 10
718.5949955000001
 20
11.632504500000039
 40
9.6099999999999994
 50
148.656746
 51
171.63279
  0
ARC
  8
_0-0_レイヤ___1
  6
CONTINUOUS
 62
    7
 10
719.59999549999998
 20
10.197504500000036
 40
10.885
 50
164.91487900000001
 51
176.47995000000003
  0
ARC
  8
_0-0_レイヤ___1
  6
CONTINUOUS
 62
    7
 10
741.91999549999991
 20
9.1075045000000614
 40
33.229999999999997
 50
176.96517399999999
 51
180.476213
  0
LINE
  8
_0-0_レイヤ___1
  6
CONTINUOUS
 62
    7
 10
708.6899954999999
 20
8.8325045000000273
 11
708.6899954999999
 21
8.5825045000000273
  0
ARC
  8
_0-0_レイヤ___1
  6
CONTINUOUS
 62
    7
 10
740.5649954999999
 20
8.5725045000000364
 40
31.875
 50
179.980367
 51
196.09852000000001
  0
ARC
  8
_0-0_レイヤ___1
  6
CONTINUOUS
 62
    7
 10
753.1899954999999
 20
12.337504500000023
 40
45.119999
 50
196.55558400000004
 51
230.58384500000003
  0
ARC
  8
_0-0_レイヤ___1
  6
CONTINUOUS
 62
    7
 10
740.37999549999995
 20
-1.5524954999999636
 40
26.125
 50
233.365183
 51
241.066282
  0
ARC
  8
_0-0_レイヤ___1
  6
CONTINUOUS
 62
    7
 10
738.16499550000003
 20
-6.2974954999999682
 40
20.829999999999998
 50
239.33143699999999
 51
259.27768600000002
  0
ARC
  8
_0-0_レイヤ___1
  6
CONTINUOUS
 62
    7
 10
740.29999550000002
 20
16.972504500000014
 40
44.149999000000001
 50
262.179396
 51
264.40095200000002
  0
ARC
  8
_0-0_レイヤ___1
  6
CONTINUOUS
 62
    7
 10
735.86999549999996
 20
-16.957495499999993
 40
10.01
 50
270.69173499999999
 51
282.623043
  0
ARC
  8
_0-0_レイヤ___1
  6
CONTINUOUS
 62
    7
 10
734.51999550000005
 20
-10.907495499999982
 40
16.210000000000001
 50
282.59410700000001
 51
292.17400099999998
  0
ARC
  8
_0-0_レイヤ___1
  6
CONTINUOUS
 62
    7
 10
737.0549954999999
 20
-18.237495499999966
 40
8.4749999999999996
 50
295.02528299999994
 51
337.60855099999992
  0
ARC
  8
_0-0_レイヤ___1
  6
CONTINUOUS
 62
    7
 10
730.25499549999995
 20
-14.772495499999991
 40
16.09
 50
335.41130799999996
 51
358.05573299999992
  0
LINE
  8
_0-0_レイヤ___1
  6
CONTINUOUS
 62
    7
 10
746.58999549999999
 20
-15.517495499999939
 11
746.58999549999999
 21
-13.417495499999973
  0
ARC
  8
_0-0_レイヤ___1
  6
CONTINUOUS
 62
    7
 10
698.56999649999989
 20
-16.72249549999998
 40
48.149999000000001
 50
4.1725349999999999
 51
11.565613999999998
  0
ARC
  8
_0-0_レイヤ___1
  6
CONTINUOUS
 62
    7
 10
777.52499450000005
 20
25.032504500000016
 40
45.029998999999997
 50
192.96047300000001
 51
225.104129
  0
LINE
  8
_0-0_レイヤ___1
  6
CONTINUOUS
 62
    7
 10
581.23999750000007
 20
281.63250049999999
 11
590.78999750000003
 21
276.13250049999999
  0
LINE
  8
_0-0_レイヤ___1
  6
CONTINUOUS
 62
    7
 10
583.13999749999994
 20
282.08250050000004
 11
592.68999749999989
 21
276.78250050000008
  0
ARC
  8
_0-0_レイヤ___1
  6
CONTINUOUS
 62
    7
 10
821.51499450000006
 20
-127.69249349999996
 40
153.44999799999999
 50
156.17888199999999
 51
169.19166100000001
  0
ARC
  8
_0-0_レイヤ___1
  6
CONTINUOUS
 62
    7
 10
859.15999349999993
 20
-141.07249349999995
 40
193.23499699999999
 50
135.035124
 51
157.11225700000003
  0
LINE
  8
_0-0_レイヤ___1
  6
CONTINUOUS
 62
    7
 10
722.63999549999994
 20
-4.7174954999999841
 11
729.83999549999999
 21
2.0325045000000159
  0
ARC
  8
_0-0_レイヤ___1
  6
CONTINUOUS
 62
    7
 10
707.12499550000007
 20
-95.097493499999985
 40
70.624999000000003
 50
285.15626999999995
 51
293.95107099999996
  0
ARC
  8
_0-0_レイヤ___1
  6
CONTINUOUS
 62
    7
 10
696.01999649999993
 20
-69.022494499999993
 40
98.969999000000001
 50
293.69885699999998
 51
298.89527800000002
  0
ARC
  8
_0-0_レイヤ___1
  6
CONTINUOUS
 62
    7
 10
710.6799954999999
 20
-104.08749349999994
 40
60.979998999999999
 50
273.30137999999999
 51
283.96024199999999
  0
ARC
  8
_0-0_レイヤ___1
  6
CONTINUOUS
 62
    7
 10
785.6999945
 20
-22.027495499999986
 40
29.309999999999999
 50
18.826531999999997
 51
44.815618999999998
  0
ARC
  8
_0-0_レイヤ___1
  6
CONTINUOUS
 62
    7
 10
769.92999450000002
 20
-30.492494499999964
 40
47.054999000000002
 50
4.5399180000000001
 51
22.390495000000001
  0
ARC
  8
_0-0_レイヤ___1
  6
CONTINUOUS
 62
    7
 10
783.47999449999998
 20
-33.217494499999987
 40
34.059998999999998
 50
353.08799699999997
 51
356.97252200000003
  0
ARC
  8
_0-0_レイヤ___1
  6
CONTINUOUS
 62
    7
 10
769.70499449999988
 20
-34.822494499999948
 40
47.784998999999999
 50
359.76888700000001
 51
9.4638170000000148
  0
ARC
  8
_0-0_レイヤ___1
  6
CONTINUOUS
 62
    7
 10
718.50499549999995
 20
-35.25749449999995
 40
99.004998999999998
 50
346.41122100000001
 51
358.80685
  0
ARC
  8
_0-0_レイヤ___1
  6
CONTINUOUS
 62
    7
 10
684.31999649999989
 20
-28.742494499999964
 40
133.474998
 50
334.89790599999998
 51
347.22038099999997
  0
ARC
  8
_0-0_レイヤ___1
  6
CONTINUOUS
 62
    7
 10
653.6999965
 20
-16.332495499999993
 40
166.55999800000001
 50
310.19184800000005
 51
335.43874700000003
  0
LINE
  8
_0-0_レイヤ___1
  6
CONTINUOUS
 62
    7
 10
629.53999750000003
 20
144.93250250000006
 11
629.53999750000003
 21
193.38250149999999
  0
LINE
  8
_0-0_レイヤ___1
  6
CONTINUOUS
 62
    7
 10
566.23999750000007
 20
-2.6174954999999613
 11
580.18999749999989
 21
5.43250450000005
  0
LINE
  8
_0-0_レイヤ___1
  6
CONTINUOUS
 62
    7
 10
580.18999749999989
 20
5.43250450000005
 11
594.38999749999994
 21
13.482504500000061
  0
LINE
  8
_0-0_レイヤ___1
  6
CONTINUOUS
 62
    7
 10
594.38999749999994
 20
13.482504500000061
 11
608.33999749999998
 21
21.532504500000016
  0
LINE
  8
_0-0_レイヤ___1
  6
CONTINUOUS
 62
    7
 10
608.33999749999998
 20
21.532504500000016
 11
609.83999749999998
 21
22.382504500000039
  0
LINE
  8
_0-0_レイヤ___1
  6
CONTINUOUS
 62
    7
 10
541.4399985
 20
23.18250450000005
 11
541.4399985
 21
162.93250250000006
  0
ARC
  8
_0-0_レイヤ___1
  6
CONTINUOUS
 62
    7
 10
572.38499750000005
 20
162.96250250000003
 40
30.945
 50
168.21615600000001
 51
179.31484599999999
  0
ARC
  8
_0-0_レイヤ___1
  6
CONTINUOUS
 62
    7
 10
561.49999849999995
 20
164.6175025
 40
19.960000000000001
 50
148.71077399999996
 51
166.47837299999998
  0
ARC
  8
_0-0_レイヤ___1
  6
CONTINUOUS
 62
    7
 10
554.11499849999996
 20
168.66750250000007
 40
11.664999999999999
 50
109.91880399999998
 51
146.03960900000001
  0
LINE
  8
_0-0_レイヤ___1
  6
CONTINUOUS
 62
    7
 10
550.33999850000009
 20
179.43250150000006
 11
618.28999750000003
 21
216.88250149999999
  0
LINE
  8
_0-0_レイヤ___1
  6
CONTINUOUS
 62
    7
 10
618.28999750000003
 20
216.88250149999999
 11
625.48999750000007
 21
220.48250150000001
  0
ARC
  8
_0-0_レイヤ___1
  6
CONTINUOUS
 62
    7
 10
629.47999750000008
 20
210.79750150000007
 40
10.94
 50
88.629026999999994
 51
101.426192
  0
ARC
  8
_0-0_レイヤ___1
  6
CONTINUOUS
 62
    7
 10
628.46499749999998
 20
215.8725015
 40
5.7649999999999997
 50
101.536058
 51
123.417694
  0
ARC
  8
_0-0_レイヤ___1
  6
CONTINUOUS
 62
    7
 10
629.4449975
 20
215.52250150000009
 40
6.21
 50
69.304129000000003
 51
89.127257999999998
  0
LINE
  8
_0-0_レイヤ___1
  6
CONTINUOUS
 62
    7
 10
632.03999649999992
 20
220.88250149999999
 11
650.23999649999996
 21
211.38250149999999
  0
LINE
  8
_0-0_レイヤ___1
  6
CONTINUOUS
 62
    7
 10
565.18999749999989
 20
-29.517494499999941
 11
545.88999850000005
 21
-18.917495499999973
  0
ARC
  8
_0-0_レイヤ___1
  6
CONTINUOUS
 62
    7
 10
547.49499850000007
 20
-14.082495499999993
 40
5.0949999999999998
 50
206.66670500000001
 51
251.65260799999999
  0
ARC
  8
_0-0_レイヤ___1
  6
CONTINUOUS
 62
    7
 10
549.28999849999991
 20
-11.717495499999984
 40
8.0350000000000001
 50
192.20686900000001
 51
215.35722600000003
  0
ARC
  8
_0-0_レイヤ___1
  6
CONTINUOUS
 62
    7
 10
554.28499850000003
 20
-11.062495499999955
 40
13.06
 50
177.37782099999998
 51
190.37922699999996
  0
LINE
  8
_0-0_レイヤ___1
  6
CONTINUOUS
 62
    7
 10
541.4399985
 20
-10.867495499999961
 11
541.4399985
 21
23.18250450000005
  0
LINE
  8
_0-0_レイヤ___1
  6
CONTINUOUS
 62
    7
 10
654.28999649999992
 20
157.63250249999999
 11
654.28999649999992
 21
202.48250150000001
  0
ARC
  8
_0-0_レイヤ___1
  6
CONTINUOUS
 62
    7
 10
614.86499750000007
 20
199.01250149999998
 40
39.424999
 50
5.7074889999999998
 51
11.887331000000001
  0
ARC
  8
_0-0_レイヤ___1
  6
CONTINUOUS
 62
    7
 10
648.59999650000009
 20
206.27250150000009
 40
4.9199999999999999
 50
10.093260000000001
 51
43.932065000000001
  0
ARC
  8
_0-0_レイヤ___1
  6
CONTINUOUS
 62
    7
 10
648.54999649999991
 20
205.94750150000004
 40
5.6399999999999997
 50
44.242364000000002
 51
87.553152999999995
  0
LINE
  8
_0-0_レイヤ___1
  6
CONTINUOUS
 62
    7
 10
648.78999649999992
 20
211.58250150000003
 11
648.5899965000001
 21
211.58250150000003
  0
ARC
  8
_0-0_レイヤ___1
  6
CONTINUOUS
 62
    7
 10
648.10499649999997
 20
202.65750150000008
 40
8.7249999999999996
 50
88.446415000000002
 51
115.54736100000001
  0
LINE
  8
_0-0_レイヤ___1
  6
CONTINUOUS
 62
    7
 10
644.53999649999992
 20
210.33250150000003
 11
636.48999649999996
 21
205.88250149999999
  0
LINE
  8
_0-0_レイヤ___1
  6
CONTINUOUS
 62
    7
 10
636.48999649999996
 20
205.88250149999999
 11
569.18999749999989
 21
169.28250250000008
  0
ARC
  8
_0-0_レイヤ___1
  6
CONTINUOUS
 62
    7
 10
570.75499749999994
 20
162.41750250000007
 40
7.04
 50
102.826256
 51
127.776476
  0
ARC
  8
_0-0_レイヤ___1
  6
CONTINUOUS
 62
    7
 10
574.36999749999995
 20
157.60250250000001
 40
13.105
 50
126.16350000000001
 51
149.862044
  0
LINE
  8
_0-0_レイヤ___1
  6
CONTINUOUS
 62
    7
 10
563.03999849999991
 20
163.98250250000001
 11
561.33999850000009
 21
160.13250249999999
  0
ARC
  8
_0-0_レイヤ___1
  6
CONTINUOUS
 62
    7
 10
586.46999750000009
 20
153.53250250000008
 40
25.98
 50
165.28327899999999
 51
180.77118400000001
  0
LINE
  8
_0-0_レイヤ___1
  6
CONTINUOUS
 62
    7
 10
560.48999849999996
 20
153.18250250000006
 11
560.48999849999996
 21
152.98250250000001
  0
LINE
  8
_0-0_レイヤ___1
  6
CONTINUOUS
 62
    7
 10
560.48999849999996
 20
13.032504500000016
 11
560.48999849999996
 21
152.73250250000001
  0
LINE
  8
_0-0_レイヤ___1
  6
CONTINUOUS
 62
    7
 10
654.28999649999992
 20
130.73250250000001
 11
654.28999649999992
 21
157.63250249999999
  0
LINE
  8
_0-0_レイヤ___1
  6
CONTINUOUS
 62
    7
 10
560.48999849999996
 20
-21.267495499999939
 11
560.48999849999996
 21
13.032504500000016
  0
ARC
  8
_0-0_レイヤ___1
  6
CONTINUOUS
 62
    7
 10
574.98999750000007
 20
-20.657495499999982
 40
14.699999999999999
 50
180.61641500000002
 51
201.79551699999999
  0
ARC
  8
_0-0_レイヤ___1
  6
CONTINUOUS
 62
    7
 10
565.68999749999989
 20
-24.767494499999941
 40
4.125
 50
199.07369499999999
 51
250.92633499999999
  0
ARC
  8
_0-0_レイヤ___1
  6
CONTINUOUS
 62
    7
 10
566.6949975
 20
-23.277495499999986
 40
5.9900000000000002
 50
248.93472800000001
 51
269.49669799999998
  0
ARC
  8
_0-0_レイヤ___1
  6
CONTINUOUS
 62
    7
 10
566.63999749999994
 20
-29.067494499999952
 40
0.2
 50
269.28017399999999
 51
0.7198360000000192
  0
ARC
  8
_0-0_レイヤ___1
  6
CONTINUOUS
 62
    7
 10
567.11999749999995
 20
-26.022494499999993
 40
3.2850000000000001
 50
261.59631000000002
 51
291.82338199999998
  0
LINE
  8
_0-0_レイヤ___1
  6
CONTINUOUS
 62
    7
 10
568.53999750000003
 20
-29.267494499999941
 11
570.43999749999989
 21
-28.667494499999975
  0
LINE
  8
_0-0_レイヤ___1
  6
CONTINUOUS
 62
    7
 10
570.43999749999989
 20
-28.417494499999975
 11
572.98999750000007
 21
-27.167494499999975
  0
LINE
  8
_0-0_レイヤ___1
  6
CONTINUOUS
 62
    7
 10
572.98999750000007
 20
-27.367494499999964
 11
633.73999649999996
 21
7.5325045000000159
  0
LINE
  8
_0-0_レイヤ___1
  6
CONTINUOUS
 62
    7
 10
648.5899965000001
 20
154.43250250000006
 11
648.5899965000001
 21
198.68250150000006
  0
ARC
  8
_0-0_レイヤ___1
  6
CONTINUOUS
 62
    7
 10
622.99999750000006
 20
195.98750150000001
 40
25.75
 50
6.4540369999999996
 51
10.277733
  0
ARC
  8
_0-0_レイヤ___1
  6
CONTINUOUS
 62
    7
 10
641.60999650000008
 20
199.84250150000003
 40
6.7699999999999996
 50
6.2555009999999989
 51
15.313091999999999
  0
ARC
  8
_0-0_レイヤ___1
  6
CONTINUOUS
 62
    7
 10
646.33499649999999
 20
200.2425015
 40
2.4399999999999999
 50
48.864552000000003
 51
87.532614000000009
  0
ARC
  8
_0-0_レイヤ___1
  6
CONTINUOUS
 62
    7
 10
646.12499649999995
 20
201.46750150000003
 40
1.2549999999999999
 50
75.544382000000013
 51
126.024191
  0
ARC
  8
_0-0_レイヤ___1
  6
CONTINUOUS
 62
    7
 10
646.93999650000001
 20
198.36250150000001
 40
4.335
 50
108.132136
 51
138.549252
  0
LINE
  8
_0-0_レイヤ___1
  6
CONTINUOUS
 62
    7
 10
643.68999650000001
 20
201.23250150000001
 11
636.48999649999996
 21
197.43250150000006
  0
LINE
  8
_0-0_レイヤ___1
  6
CONTINUOUS
 62
    7
 10
636.48999649999996
 20
197.43250150000006
 11
571.08999749999998
 21
161.83250250000003
  0
ARC
  8
_0-0_レイヤ___1
  6
CONTINUOUS
 62
    7
 10
572.36999749999995
 20
156.35250250000001
 40
5.6749999999999998
 50
105.13462999999999
 51
153.53076999999999
  0
ARC
  8
_0-0_レイヤ___1
  6
CONTINUOUS
 62
    7
 10
577.06499749999989
 20
155.4975025
 40
10.225
 50
159.457978
 51
180.072418
  0
LINE
  8
_0-0_レイヤ___1
  6
CONTINUOUS
 62
    7
 10
566.83999749999998
 20
16.43250450000005
 11
566.83999749999998
 21
155.08250250000003
  0
LINE
  8
_0-0_レイヤ___1
  6
CONTINUOUS
 62
    7
 10
648.5899965000001
 20
133.93250250000006
 11
648.5899965000001
 21
154.43250250000006
  0
LINE
  8
_0-0_レイヤ___1
  6
CONTINUOUS
 62
    7
 10
566.83999749999998
 20
-16.56749549999995
 11
566.83999749999998
 21
16.43250450000005
  0
LINE
  8
_0-0_レイヤ___1
  6
CONTINUOUS
 62
    7
 10
566.63999749999994
 20
-16.56749549999995
 11
566.63999749999994
 21
-17.417495499999973
  0
ARC
  8
_0-0_レイヤ___1
  6
CONTINUOUS
 62
    7
 10
569.85499750000008
 20
-17.752495499999952
 40
3.23
 50
174.05179999999999
 51
201.137485
  0
ARC
  8
_0-0_レイヤ___1
  6
CONTINUOUS
 62
    7
 10
569.18999749999989
 20
-17.957495499999993
 40
2.4700000000000002
 50
197.97051699999997
 51
265.36283200000003
  0
ARC
  8
_0-0_レイヤ___1
  6
CONTINUOUS
 62
    7
 10
569.50499749999994
 20
-18.952495499999941
 40
1.2549999999999999
 50
255.54440199999999
 51
306.02421099999998
  0
ARC
  8
_0-0_レイヤ___1
  6
CONTINUOUS
 62
    7
 10
568.65999749999992
 20
-13.717495499999984
 40
6.6399999999999997
 50
283.76572300000004
 51
308.46211700000003
  0
LINE
  8
_0-0_レイヤ___1
  6
CONTINUOUS
 62
    7
 10
572.78999750000003
 20
-19.117495499999961
 11
588.03999750000003
 21
-10.217495499999984
  0
LINE
  8
_0-0_レイヤ___1
  6
CONTINUOUS
 62
    7
 10
588.03999750000003
 20
-10.217495499999984
 11
603.28999750000003
 21
-1.56749549999995
  0
LINE
  8
_0-0_レイヤ___1
  6
CONTINUOUS
 62
    7
 10
603.28999750000003
 20
-1.56749549999995
 11
618.48999750000007
 21
7.1325045000000387
  0
LINE
  8
_0-0_レイヤ___1
  6
CONTINUOUS
 62
    7
 10
618.48999750000007
 20
7.1325045000000387
 11
627.18999749999989
 21
11.982504500000061
  0
LINE
  8
_0-0_レイヤ___1
  6
CONTINUOUS
 62
    7
 10
615.73999750000007
 20
19.382504500000039
 11
615.73999750000007
 21
118.88250249999999
  0
LINE
  8
_0-0_レイヤ___1
  6
CONTINUOUS
 62
    7
 10
574.68999749999989
 20
42.882503500000041
 11
624.23999750000007
 21
13.68250450000005
  0
LINE
  8
_0-0_レイヤ___1
  6
CONTINUOUS
 62
    7
 10
592.48999750000007
 20
170.08250250000003
 11
592.48999750000007
 21
202.48250150000001
  0
LINE
  8
_0-0_レイヤ___1
  6
CONTINUOUS
 62
    7
 10
592.48999750000007
 20
170.08250250000003
 11
619.78999750000003
 21
185.13250149999999
  0
LINE
  8
_0-0_レイヤ___1
  6
CONTINUOUS
 62
    7
 10
619.78999750000003
 20
150.43250250000006
 11
619.78999750000003
 21
185.13250149999999
  0
LINE
  8
_0-0_レイヤ___1
  6
CONTINUOUS
 62
    7
 10
592.48999750000007
 20
202.48250150000001
 11
592.48999750000007
 21
276.78250050000008
  0
LINE
  8
_0-0_レイヤ___1
  6
CONTINUOUS
 62
    7
 10
671.18999650000001
 20
119.53250250000008
 11
720.9399954999999
 21
147.88250249999999
  0
LINE
  8
_0-0_レイヤ___1
  6
CONTINUOUS
 62
    7
 10
720.9399954999999
 20
147.88250249999999
 11
738.73999550000008
 21
163.53250250000008
  0
LINE
  8
_0-0_レイヤ___1
  6
CONTINUOUS
 62
    7
 10
738.73999550000008
 20
163.53250250000008
 11
891.53999350000004
 21
251.58250050000004
  0
LINE
  8
_0-0_レイヤ___1
  6
CONTINUOUS
 62
    7
 10
265.64000249999998
 20
-109.06749349999996
 11
442.58999950000003
 21
-7.06749549999995
  0
LINE
  8
_0-0_レイヤ___1
  6
CONTINUOUS
 62
    7
 10
442.58999950000003
 20
-7.06749549999995
 11
458.88999949999999
 21
-3.0174954999999386
  0
LINE
  8
_0-0_レイヤ___1
  6
CONTINUOUS
 62
    7
 10
458.88999949999999
 20
-3.0174954999999386
 11
541.4399985
 21
44.58250350000003
  0
LINE
  8
_0-0_レイヤ___1
  6
CONTINUOUS
 62
    7
 10
675.23999649999996
 20
117.18250250000006
 11
721.78999550000003
 21
143.88250249999999
  0
LINE
  8
_0-0_レイヤ___1
  6
CONTINUOUS
 62
    7
 10
721.78999550000003
 20
143.88250249999999
 11
739.58999549999999
 21
159.33250250000003
  0
LINE
  8
_0-0_レイヤ___1
  6
CONTINUOUS
 62
    7
 10
739.58999549999999
 20
159.33250250000003
 11
892.38999349999995
 21
247.58250050000004
  0
LINE
  8
_0-0_レイヤ___1
  6
CONTINUOUS
 62
    7
 10
266.29000250000001
 20
-113.31749349999996
 11
443.43999949999994
 21
-11.31749549999995
  0
LINE
  8
_0-0_レイヤ___1
  6
CONTINUOUS
 62
    7
 10
443.43999949999994
 20
-11.31749549999995
 11
459.73999950000001
 21
-7.06749549999995
  0
LINE
  8
_0-0_レイヤ___1
  6
CONTINUOUS
 62
    7
 10
459.73999950000001
 20
-7.06749549999995
 11
541.4399985
 21
39.93250450000005
  0
LINE
  8
_0-0_レイヤ___1
  6
CONTINUOUS
 62
    7
 10
645.38999650000005
 20
135.83250250000003
 11
616.38999749999994
 21
118.88250249999999
  0
LINE
  8
_0-0_レイヤ___1
  6
CONTINUOUS
 62
    7
 10
639.23999649999996
 20
-184.41749249999998
 11
670.38999650000005
 21
-238.41749149999998
  0
LINE
  8
_0-0_レイヤ___1
  6
CONTINUOUS
 62
    7
 10
670.38999650000005
 20
-238.41749149999998
 11
688.13999650000005
 21
-238.41749149999998
  0
LINE
  8
_0-0_レイヤ___1
  6
CONTINUOUS
 62
    7
 10
651.93999650000001
 20
137.93250250000006
 11
730.03999550000003
 21
274.88250049999999
  0
LINE
  8
_0-0_レイヤ___1
  6
CONTINUOUS
 62
    7
 10
730.03999550000003
 20
274.88250049999999
 11
746.98999550000008
 21
274.88250049999999
  0
LINE
  8
_0-0_レイヤ___1
  6
CONTINUOUS
 62
    7
 10
666.3399965000001
 20
220.48250150000001
 11
697.23999649999996
 21
274.88250049999999
  0
LINE
  8
_0-0_レイヤ___1
  6
CONTINUOUS
 62
    7
 10
697.23999649999996
 20
274.88250049999999
 11
734.6899954999999
 21
274.88250049999999
  0
LINE
  8
_0-0_レイヤ___1
  6
CONTINUOUS
 62
    7
 10
604.13999749999994
 20
32.332504500000027
 11
646.63999650000005
 21
107.23250350000001
  0
LINE
  8
_0-0_レイヤ___1
  6
CONTINUOUS
 62
    7
 10
646.63999650000005
 20
107.23250350000001
 11
663.5899965000001
 21
107.23250350000001
  0
TEXT
  8
_0-0_レイヤ___1
 62
    7
 10
746.99499549999996
 20
267.68250050000006
 40
16
 41
1
 50
0
  1
ＡＹ丸環カバーセット
  0
TEXT
  8
_0-0_レイヤ___1
 62
    7
 10
663.5899965000001
 20
100.04250350000001
 40
16
 41
1
 50
0
  1
ＡＹシールＭＳ-1
  0
TEXT
  8
_0-0_レイヤ___1
 62
    7
 10
688.13999650000005
 20
-245.61249150000003
 40
16
 41
1
 50
0
  1
リベットルーフ
  0
TEXT
  8
_0-0_レイヤ___1
 62
    7
 10
417.42500050000001
 20
451.41249750000009
 40
16
 41
1
 50
0
  1
丸環納まり イメージ
  0
ENDSEC
  0
EOF
