  0
SECTION
  2
HEADER
  9
$ACADVER
  1
AC1009
  9
$LUNITS
 70
2
  9
$LUPREC
 70
4
  9
$LTSCALE
 40
1.0
  9
$EXTMIN
 10
0.000000
 20
0.000000
 30
0
  9
$EXTMAX
 10
986.019985
 20
1381.134979
 30
0
  0
ENDSEC
  0
SECTION
  2
TABLES
  0
TABLE
  2
LTYPE
 70
256
  0
ENDTAB
  0
TABLE
  2
LAYER
 70
1
  0
LAYER
  2
レイヤー 1
 70
64
 62
7
  6
CONTINUOUS
  0
ENDTAB
  0
TABLE
  2
STYLE
 70
6
  0
STYLE
  2
STANDARD
 70
0
 40
0
 50
0
 71
0
 41
0
 42
0
  3
TXT
  4
BIGFONT
  0
ENDTAB
  0
ENDSEC
  0
SECTION
  2
BLOCKS
  0
ENDSEC
  0
SECTION
  2
ENTITIES
  0
TEXT
  8
レイヤー 1
 10
776.604988
 20
704.644989
 11
776.604988
 21
704.644989
 40
18.385000
 41
0.500000
 50
0.000000
  1
AYボンド580NF
  0
TEXT
  8
レイヤー 1
 10
784.654988
 20
630.344991
 11
784.654988
 21
630.344991
 40
18.385000
 41
0.500000
 50
0.000000
  1
FL鋼板
  0
TEXT
  8
レイヤー 1
 10
859.794987
 20
508.639992
 11
859.794987
 21
508.639992
 40
18.385000
 41
0.500000
 50
0.000000
  1
断熱材
  0
TEXT
  8
レイヤー 1
 10
994.849985
 20
527.689992
 11
994.849985
 21
527.689992
 40
18.385000
 41
0.500000
 50
0.000000
  1
リベットルーフ
  0
LINE
  8
レイヤー 1
 10
934.949986
 20
448.949993
 11
985.299985
 21
536.149992
  0
LINE
  8
レイヤー 1
 10
985.299985
 20
536.149992
 11
994.849985
 21
536.149992
  0
LINE
  8
レイヤー 1
 10
724.749989
 20
638.399990
 11
767.299989
 21
713.099989
  0
LINE
  8
レイヤー 1
 10
767.299989
 20
713.099989
 11
776.599988
 21
713.099989
  0
LINE
  8
レイヤー 1
 10
786.349988
 20
423.949994
 11
840.299987
 21
517.299992
  0
LINE
  8
レイヤー 1
 10
840.299987
 20
517.299992
 11
859.799987
 21
517.299992
  0
LINE
  8
レイヤー 1
 10
702.749990
 20
513.299992
 11
775.149988
 21
638.799990
  0
LINE
  8
レイヤー 1
 10
775.149988
 20
638.799990
 11
784.649988
 21
638.799990
  0
ARC
  8
レイヤー 1
 10
650.679990
 20
785.974988
 40
158.329998
 50
214.278251
 51
233.499211
  0
ARC
  8
レイヤー 1
 10
652.924990
 20
793.839988
 40
144.284998
 50
213.313227
 51
233.573234
  0
ARC
  8
レイヤー 1
 10
683.934990
 20
819.244988
 40
184.359997
 50
201.876049
 51
214.582839
  0
ARC
  8
レイヤー 1
 10
656.824990
 20
804.369988
 40
134.034998
 50
214.450037
 51
234.135354
  0
ARC
  8
レイヤー 1
 10
681.144990
 20
825.919988
 40
166.444998
 50
202.026355
 51
215.888945
  0
ARC
  8
レイヤー 1
 10
666.379990
 20
818.844988
 40
131.869998
 50
215.031711
 51
234.231405
  0
ARC
  8
レイヤー 1
 10
686.514990
 20
835.664988
 40
158.229998
 50
207.134638
 51
215.781451
  0
ARC
  8
レイヤー 1
 10
672.399990
 20
831.149988
 40
123.339998
 50
213.374394
 51
235.053594
  0
ARC
  8
レイヤー 1
 10
668.734990
 20
830.294988
 40
93.414999
 50
226.217803
 51
238.084297
  0
ARC
  8
レイヤー 1
 10
1153.514983
 20
329.144995
 40
682.094990
 50
140.446536
 51
155.135190
  0
ARC
  8
レイヤー 1
 10
1113.004983
 20
349.354995
 40
625.794991
 50
149.230784
 51
163.541991
  0
ARC
  8
レイヤー 1
 10
1081.139984
 20
374.184994
 40
585.459991
 50
138.345816
 51
149.729985
  0
ARC
  8
レイヤー 1
 10
1095.829984
 20
360.229995
 40
592.549991
 50
138.301557
 51
163.007523
  0
LINE
  8
レイヤー 1
 10
653.649990
 20
754.149989
 11
661.899990
 21
763.299989
  0
LINE
  8
レイヤー 1
 10
527.049992
 20
409.999994
 11
527.049992
 21
412.749994
  0
ARC
  8
レイヤー 1
 10
838.239988
 20
417.189994
 40
311.314995
 50
170.606548
 51
178.774457
  0
ARC
  8
レイヤー 1
 10
925.639986
 20
413.029994
 40
398.789994
 50
178.445378
 51
180.011374
  0
ARC
  8
レイヤー 1
 10
948.024986
 20
406.259994
 40
421.439994
 50
161.655287
 51
171.603263
  0
ARC
  8
レイヤー 1
 10
1072.854984
 20
372.389994
 40
550.824992
 50
137.630247
 51
162.404826
  0
LINE
  8
レイヤー 1
 10
666.349990
 20
743.149989
 11
685.399990
 21
762.449989
  0
ARC
  8
レイヤー 1
 10
905.189987
 20
422.969994
 40
358.974995
 50
164.905335
 51
175.441202
  0
ARC
  8
レイヤー 1
 10
997.404985
 20
403.979994
 40
453.179993
 50
152.562017
 51
165.630150
  0
ARC
  8
レイヤー 1
 10
1046.334984
 20
387.059994
 40
504.369992
 50
139.031211
 51
153.386899
  0
ARC
  8
レイヤー 1
 10
962.884986
 20
458.109993
 40
394.944994
 50
129.353552
 51
138.849294
  0
ARC
  8
レイヤー 1
 10
897.084987
 20
432.209994
 40
331.244995
 50
165.222662
 51
174.718974
  0
ARC
  8
レイヤー 1
 10
969.049986
 20
419.479994
 40
404.249994
 50
153.096269
 51
166.120701
  0
ARC
  8
レイヤー 1
 10
1013.044985
 20
404.039994
 40
450.604993
 50
139.305024
 51
153.911273
  0
ARC
  8
レイヤー 1
 10
924.174986
 20
485.119993
 40
330.374995
 50
130.377752
 51
139.917176
  0
ARC
  8
レイヤー 1
 10
884.934987
 20
536.209992
 40
266.374996
 50
122.045457
 51
131.065143
  0
ARC
  8
レイヤー 1
 10
887.124987
 20
443.639993
 40
302.304995
 50
163.182934
 51
174.331100
  0
ARC
  8
レイヤー 1
 10
989.574985
 20
416.959994
 40
408.359994
 50
136.655433
 51
163.739574
  0
ARC
  8
レイヤー 1
 10
923.959986
 20
474.199993
 40
321.229995
 50
127.513586
 51
136.022996
  0
LINE
  8
レイヤー 1
 10
728.549989
 20
728.549989
 11
743.399989
 21
739.149989
  0
ARC
  8
レイヤー 1
 10
874.949987
 20
456.939993
 40
267.229996
 50
162.421250
 51
173.574123
  0
ARC
  8
レイヤー 1
 10
954.904986
 20
435.054994
 40
349.884995
 50
136.216998
 51
162.948854
  0
ARC
  8
レイヤー 1
 10
873.999987
 20
514.334992
 40
236.624996
 50
123.499939
 51
136.521307
  0
ARC
  8
レイヤー 1
 10
878.229987
 20
466.309993
 40
245.984996
 50
160.022123
 51
171.739319
  0
ARC
  8
レイヤー 1
 10
921.889986
 20
453.104993
 40
291.604996
 50
138.468045
 51
160.478194
  0
ARC
  8
レイヤー 1
 10
873.924987
 20
495.239993
 40
227.759997
 50
127.348814
 51
138.402128
  0
LINE
  8
レイヤー 1
 10
735.949989
 20
675.849990
 11
743.399989
 21
681.349990
  0
ARC
  8
レイヤー 1
 10
855.254987
 20
477.949993
 40
205.549997
 50
158.809830
 51
170.450882
  0
ARC
  8
レイヤー 1
 10
903.519987
 20
462.484993
 40
256.394996
 50
138.597772
 51
159.506364
  0
ARC
  8
レイヤー 1
 10
852.794987
 20
505.199992
 40
190.254997
 50
125.339340
 51
138.184816
  0
ARC
  8
レイヤー 1
 10
858.279987
 20
485.104993
 40
190.839997
 50
154.071615
 51
168.608193
  0
ARC
  8
レイヤー 1
 10
871.074987
 20
479.974993
 40
204.594997
 50
137.555496
 51
154.346154
  0
ARC
  8
レイヤー 1
 10
845.934987
 20
501.879993
 40
171.404997
 50
126.845494
 51
137.332801
  0
ARC
  8
レイヤー 1
 10
838.799988
 20
497.229993
 40
149.614998
 50
135.685074
 51
163.228834
  0
ARC
  8
レイヤー 1
 10
790.414988
 20
549.014992
 40
78.554999
 50
126.763324
 51
131.033308
  0
ARC
  8
レイヤー 1
 10
866.944987
 20
461.859993
 40
194.544997
 50
131.183300
 51
134.022298
  0
ARC
  8
レイヤー 1
 10
818.479988
 20
508.444992
 40
112.349998
 50
134.918230
 51
157.879264
  0
LINE
  8
レイヤー 1
 10
739.349989
 20
587.599991
 11
743.399989
 21
591.399991
  0
LINE
  8
レイヤー 1
 10
464.799993
 20
372.299994
 11
464.799993
 21
763.049989
  0
LINE
  8
レイヤー 1
 10
464.799993
 20
372.299994
 11
517.549992
 21
402.799994
  0
ARC
  8
レイヤー 1
 10
623.044991
 20
443.234993
 40
112.904998
 50
192.108891
 51
200.876292
  0
ARC
  8
レイヤー 1
 10
581.154991
 20
431.609994
 40
69.754999
 50
180.171890
 51
189.955383
  0
ARC
  8
レイヤー 1
 10
555.229992
 20
431.299994
 40
43.629999
 50
157.918736
 51
180.194671
  0
ARC
  8
レイヤー 1
 10
483.639993
 20
461.934993
 40
34.434999
 50
335.587196
 51
347.790408
  0
ARC
  8
レイヤー 1
 10
508.969992
 20
458.014993
 40
8.980000
 50
338.015221
 51
1.515176
  0
ARC
  8
レイヤー 1
 10
503.774992
 20
458.194993
 40
14.175000
 50
0.217573
 51
22.194320
  0
ARC
  8
レイヤー 1
 10
649.284990
 20
511.959992
 40
141.149998
 50
181.688971
 51
200.058107
  0
ARC
  8
レイヤー 1
 10
628.099991
 20
510.004992
 40
119.899998
 50
165.536254
 51
180.049476
  0
LINE
  8
レイヤー 1
 10
508.199992
 20
509.899992
 11
508.199992
 21
507.799992
  0
ARC
  8
レイヤー 1
 10
587.649991
 20
518.459992
 40
78.644999
 50
157.109804
 51
164.141881
  0
LINE
  8
レイヤー 1
 10
515.399992
 20
548.849992
 11
516.899992
 21
552.249992
  0
ARC
  8
レイヤー 1
 10
441.944993
 20
584.574991
 40
81.549999
 50
336.801291
 51
358.120498
  0
ARC
  8
レイヤー 1
 10
6335.784906
 20
396.159994
 40
5815.309913
 50
178.107047
 51
178.167672
  0
ARC
  8
レイヤー 1
 10
408.914994
 20
588.274991
 40
114.734998
 50
359.988092
 51
20.044478
  0
ARC
  8
レイヤー 1
 10
608.014991
 20
667.314990
 40
98.514999
 50
166.418782
 51
180.561731
  0
ARC
  8
レイヤー 1
 10
613.954991
 20
666.414990
 40
104.454998
 50
180.036187
 51
201.696314
  0
ARC
  8
レイヤー 1
 10
589.739991
 20
671.074990
 40
80.114999
 50
155.734971
 51
166.005410
  0
ARC
  8
レイヤー 1
 10
459.254993
 20
722.049989
 40
60.404999
 50
342.613212
 51
358.955836
  0
ARC
  8
レイヤー 1
 10
499.499993
 20
720.089989
 40
20.170000
 50
2.442589
 51
8.438074
  0
ARC
  8
レイヤー 1
 10
488.574993
 20
722.694989
 40
30.880000
 50
0.288157
 51
19.103061
  0
LINE
  8
レイヤー 1
 10
517.949992
 20
732.799989
 11
516.899992
 21
735.549989
  0
ARC
  8
レイヤー 1
 10
565.354992
 20
755.279989
 40
52.169999
 50
191.029841
 51
201.749276
  0
ARC
  8
レイヤー 1
 10
675.494990
 20
780.974988
 40
165.489998
 50
186.131740
 51
192.538295
  0
LINE
  8
レイヤー 1
 10
520.049992
 20
696.399990
 11
515.599992
 21
702.949990
  0
ARC
  8
レイヤー 1
 10
639.459990
 20
769.014989
 40
160.784998
 50
216.069791
 51
234.327297
  0
ARC
  8
レイヤー 1
 10
618.964991
 20
740.514989
 40
149.624998
 50
225.880445
 51
235.910617
  0
LINE
  8
レイヤー 1
 10
523.649992
 20
590.549991
 11
534.899992
 21
615.749991
  0
LINE
  8
レイヤー 1
 10
507.999992
 20
507.599992
 11
513.299992
 21
525.999992
  0
ARC
  8
レイヤー 1
 10
956.084986
 20
398.674994
 40
447.879993
 50
162.493554
 51
170.654790
  0
ARC
  8
レイヤー 1
 10
891.499987
 20
358.684995
 40
38.099999
 50
284.205212
 51
298.962741
  0
ARC
  8
レイヤー 1
 10
890.649987
 20
366.464995
 40
46.214999
 50
249.413161
 51
269.565199
  0
ARC
  8
レイヤー 1
 10
890.199987
 20
366.224995
 40
45.974999
 50
270.122166
 51
283.392047
  0
ARC
  8
レイヤー 1
 10
879.109987
 20
340.139995
 40
17.395000
 50
238.222662
 51
253.602459
  0
ARC
  8
レイヤー 1
 10
882.559987
 20
346.044995
 40
24.345000
 50
221.227432
 51
239.352759
  0
ARC
  8
レイヤー 1
 10
872.104987
 20
336.394995
 40
10.005000
 50
180.271120
 51
218.267504
  0
ARC
  8
レイヤー 1
 10
871.059987
 20
336.979995
 40
8.970000
 50
144.026273
 51
182.759769
  0
LINE
  8
レイヤー 1
 10
862.099987
 20
336.549995
 11
862.099987
 21
336.349995
  0
ARC
  8
レイヤー 1
 10
878.314987
 20
332.644995
 40
17.405000
 50
126.135456
 51
146.498339
  0
ARC
  8
レイヤー 1
 10
877.504987
 20
334.279995
 40
15.450000
 50
117.373572
 51
127.726408
  0
ARC
  8
レイヤー 1
 10
888.079987
 20
316.614995
 40
36.019999
 50
103.776934
 51
119.390980
  0
ARC
  8
レイヤー 1
 10
890.609987
 20
308.694995
 40
44.154999
 50
69.668342
 51
90.399233
  0
ARC
  8
レイヤー 1
 10
890.159987
 20
304.614995
 40
48.234999
 50
89.834739
 51
103.073213
  0
LINE
  8
レイヤー 1
 10
909.749986
 20
348.199995
 11
905.949987
 21
350.099995
  0
ARC
  8
レイヤー 1
 10
903.104987
 20
334.239995
 40
15.460000
 50
37.031331
 51
64.554251
  0
ARC
  8
レイヤー 1
 10
905.029987
 20
335.979995
 40
13.245000
 50
6.153096
 51
34.856858
  0
ARC
  8
レイヤー 1
 10
909.034986
 20
336.839995
 40
9.165000
 50
322.434930
 51
359.449665
  0
ARC
  8
レイヤー 1
 10
917.474986
 20
336.879995
 40
0.740000
 50
349.710372
 51
44.495082
  0
ARC
  8
レイヤー 1
 10
905.444987
 20
338.104995
 40
13.010000
 50
301.802720
 51
328.197290
  0
ARC
  8
レイヤー 1
 10
903.389987
 20
337.649995
 40
13.845000
 50
297.336296
 51
310.043851
  0
ARC
  8
レイヤー 1
 10
949.219986
 20
336.594995
 40
0.125000
 50
201.624699
 51
348.283494
  0
ARC
  8
レイヤー 1
 10
948.919986
 20
336.679995
 40
0.435000
 50
345.501154
 51
9.244059
  0
ARC
  8
レイヤー 1
 10
929.419986
 20
336.644995
 40
19.935000
 50
0.303015
 51
26.858827
  0
ARC
  8
レイヤー 1
 10
923.674986
 20
335.034995
 40
25.805000
 50
24.281895
 51
43.647389
  0
ARC
  8
レイヤー 1
 10
913.644986
 20
325.389995
 40
39.724999
 50
43.728786
 51
58.331221
  0
LINE
  8
レイヤー 1
 10
934.749986
 20
359.199995
 11
931.949986
 21
360.699995
  0
ARC
  8
レイヤー 1
 10
899.904987
 20
306.174995
 40
63.219999
 50
59.960405
 51
75.763421
  0
ARC
  8
レイヤー 1
 10
891.159987
 20
281.024996
 40
89.829999
 50
74.179979
 51
90.421853
  0
ARC
  8
レイヤー 1
 10
890.549987
 20
270.639996
 40
100.209999
 50
90.029888
 51
107.991509
  0
ARC
  8
レイヤー 1
 10
877.454987
 20
310.914995
 40
57.669999
 50
108.037473
 51
120.312066
  0
ARC
  8
レイヤー 1
 10
877.989987
 20
311.744995
 40
57.404999
 50
121.090316
 51
132.447706
  0
ARC
  8
レイヤー 1
 10
863.419987
 20
329.609995
 40
34.089999
 50
134.560020
 51
147.240038
  0
ARC
  8
レイヤー 1
 10
853.919987
 20
336.064995
 40
22.610000
 50
147.972796
 51
156.726415
  0
ARC
  8
レイヤー 1
 10
850.304987
 20
337.114995
 40
19.110000
 50
155.633061
 51
179.149689
  0
ARC
  8
レイヤー 1
 10
857.554987
 20
339.634995
 40
27.220000
 50
205.071277
 51
224.077139
  0
ARC
  8
レイヤー 1
 10
869.449987
 20
351.369995
 40
43.929999
 50
224.277223
 51
237.424559
  0
LINE
  8
レイヤー 1
 10
846.049987
 20
314.099995
 11
848.599987
 21
312.399995
  0
ARC
  8
レイヤー 1
 10
885.299987
 20
379.079994
 40
75.889999
 50
241.081646
 51
254.211983
  0
ARC
  8
レイヤー 1
 10
890.604987
 20
399.029994
 40
96.784999
 50
254.320137
 51
269.670427
  0
ARC
  8
レイヤー 1
 10
890.054987
 20
395.979994
 40
93.729999
 50
269.998118
 51
288.987465
  0
ARC
  8
レイヤー 1
 10
890.839987
 20
387.004994
 40
85.084999
 50
290.580726
 51
298.738139
  0
LINE
  8
レイヤー 1
 10
931.949986
 20
312.399995
 11
931.949986
 21
312.649995
  0
ARC
  8
レイヤー 1
 10
902.429987
 20
362.444995
 40
57.714999
 50
300.763354
 51
312.069415
  0
ARC
  8
レイヤー 1
 10
922.809986
 20
339.369995
 40
26.915000
 50
312.097362
 51
327.476645
  0
ARC
  8
レイヤー 1
 10
895.009987
 20
350.129995
 40
28.935000
 50
281.238819
 51
301.083716
  0
ARC
  8
レイヤー 1
 10
890.549987
 20
365.419995
 40
44.969999
 50
248.950909
 51
269.679288
  0
ARC
  8
レイヤー 1
 10
890.164987
 20
363.379995
 40
42.934999
 50
270.181278
 51
284.136901
  0
ARC
  8
レイヤー 1
 10
878.029987
 20
336.884995
 40
13.970000
 50
235.653004
 51
254.081111
  0
ARC
  8
レイヤー 1
 10
879.229987
 20
341.654995
 40
18.540000
 50
218.149048
 51
241.557173
  0
ARC
  8
レイヤー 1
 10
875.889987
 20
337.754995
 40
13.860000
 50
185.813419
 51
205.492654
  0
ARC
  8
レイヤー 1
 10
871.459987
 20
335.894995
 40
9.065000
 50
206.934553
 51
217.313651
  0
ARC
  8
レイヤー 1
 10
870.889987
 20
337.104995
 40
8.560000
 50
143.061003
 51
183.725040
  0
LINE
  8
レイヤー 1
 10
862.349987
 20
336.549995
 11
862.349987
 21
336.349995
  0
ARC
  8
レイヤー 1
 10
878.314987
 20
332.644995
 40
17.405000
 50
126.135456
 51
146.498339
  0
ARC
  8
レイヤー 1
 10
877.504987
 20
334.279995
 40
15.450000
 50
117.373572
 51
127.726408
  0
ARC
  8
レイヤー 1
 10
888.079987
 20
316.614995
 40
36.019999
 50
103.776934
 51
119.390980
  0
ARC
  8
レイヤー 1
 10
890.509987
 20
305.834995
 40
46.814999
 50
71.000083
 51
90.255714
  0
ARC
  8
レイヤー 1
 10
890.194987
 20
308.014995
 40
44.634999
 50
89.864667
 51
103.862696
  0
ARC
  8
レイヤー 1
 10
888.369987
 20
308.124995
 40
45.694999
 50
61.814850
 51
67.369699
  0
ARC
  8
レイヤー 1
 10
903.154987
 20
334.194995
 40
15.300000
 50
36.521808
 51
64.462830
  0
ARC
  8
レイヤー 1
 10
905.029987
 20
335.979995
 40
13.245000
 50
6.153096
 51
34.856858
  0
ARC
  8
レイヤー 1
 10
909.204986
 20
336.509995
 40
8.995000
 50
324.190062
 51
0.242165
  0
ARC
  8
レイヤー 1
 10
917.434986
 20
336.669995
 40
0.775000
 50
350.997143
 51
43.208311
  0
ARC
  8
レイヤー 1
 10
905.399987
 20
337.519995
 40
12.750000
 50
302.770589
 51
330.540394
  0
ARC
  8
レイヤー 1
 10
903.299987
 20
338.754995
 40
14.965000
 50
296.381218
 51
306.969732
  0
LINE
  8
レイヤー 1
 10
694.699990
 20
239.799996
 11
464.799993
 21
372.299994
  0
LINE
  8
レイヤー 1
 10
464.799993
 20
372.299994
 11
550.099992
 21
421.649994
  0
LINE
  8
レイヤー 1
 10
550.099992
 20
421.649994
 11
550.099992
 21
418.049994
  0
LINE
  8
レイヤー 1
 10
550.099992
 20
418.049994
 11
857.049987
 21
240.649996
  0
LINE
  8
レイヤー 1
 10
464.799993
 20
373.399994
 11
464.799993
 21
763.049989
  0
LINE
  8
レイヤー 1
 10
464.799993
 20
373.399994
 11
693.649990
 21
240.649996
  0
ARC
  8
レイヤー 1
 10
381.289994
 20
603.139991
 40
2.260000
 50
315.363944
 51
357.778675
  0
ARC
  8
レイヤー 1
 10
381.044994
 20
603.029991
 40
2.505000
 50
0.487594
 51
24.394902
  0
ARC
  8
レイヤー 1
 10
375.179994
 20
600.089991
 40
9.065000
 50
25.994410
 51
33.929964
  0
ARC
  8
レイヤー 1
 10
377.729994
 20
604.319991
 40
5.865000
 50
303.891595
 51
331.833225
  0
ARC
  8
レイヤー 1
 10
374.439994
 20
608.384991
 40
11.085000
 50
275.496791
 51
306.298755
  0
ARC
  8
レイヤー 1
 10
370.319994
 20
596.899991
 40
0.655000
 50
217.694187
 51
277.066108
  0
ARC
  8
レイヤー 1
 10
370.279994
 20
608.194991
 40
11.945000
 50
270.575205
 51
296.988006
  0
ARC
  8
レイヤー 1
 10
370.034994
 20
603.259991
 40
6.760000
 50
245.677432
 51
269.706559
  0
LINE
  8
レイヤー 1
 10
365.749995
 20
600.099991
 11
365.749995
 21
599.649991
  0
ARC
  8
レイヤー 1
 10
368.589995
 20
599.604991
 40
2.840000
 50
179.058879
 51
241.872204
  0
ARC
  8
レイヤー 1
 10
367.779995
 20
602.344991
 40
2.610000
 50
148.782825
 51
172.690993
  0
ARC
  8
レイヤー 1
 10
372.689994
 20
601.864991
 40
7.540000
 50
173.795074
 51
180.870302
  0
ARC
  8
レイヤー 1
 10
367.054995
 20
601.494991
 40
1.925000
 50
172.404150
 51
218.440169
  0
LINE
  8
レイヤー 1
 10
367.449995
 20
605.599991
 11
365.549995
 21
603.699991
  0
ARC
  8
レイヤー 1
 10
374.059994
 20
595.499991
 40
12.070000
 50
96.233742
 51
123.210790
  0
LINE
  8
レイヤー 1
 10
378.449994
 20
608.549991
 11
378.249994
 21
608.549991
  0
ARC
  8
レイヤー 1
 10
377.869994
 20
596.559991
 40
11.995000
 50
88.189204
 51
114.222669
  0
ARC
  8
レイヤー 1
 10
378.384994
 20
602.984991
 40
5.565000
 50
61.996577
 51
91.406265
  0
ARC
  8
レイヤー 1
 10
379.514994
 20
605.054991
 40
3.385000
 50
1.567313
 51
64.001241
  0
ARC
  8
レイヤー 1
 10
410.364994
 20
630.574991
 40
10.260000
 50
277.486511
 51
304.329465
  0
ARC
  8
レイヤー 1
 10
414.779994
 20
623.804991
 40
2.235000
 50
301.591752
 51
331.879667
  0
ARC
  8
レイヤー 1
 10
417.409994
 20
622.429991
 40
0.665000
 50
128.092573
 51
173.798186
  0
ARC
  8
レイヤー 1
 10
416.769994
 20
622.919991
 40
0.230000
 50
7.582062
 51
95.098310
  0
ARC
  8
レイヤー 1
 10
416.509994
 20
622.854991
 40
0.695000
 50
45.328013
 51
86.746995
  0
LINE
  8
レイヤー 1
 10
416.349994
 20
623.549991
 11
415.699994
 21
623.549991
  0
LINE
  8
レイヤー 1
 10
415.699994
 20
623.799991
 11
414.849994
 21
623.799991
  0
LINE
  8
レイヤー 1
 10
414.849994
 20
623.799991
 11
414.649994
 21
623.799991
  0
ARC
  8
レイヤー 1
 10
414.189994
 20
613.119991
 40
10.700000
 50
86.454327
 51
107.052799
  0
ARC
  8
レイヤー 1
 10
414.269994
 20
609.849991
 40
13.835000
 50
102.611444
 51
121.460986
  0
ARC
  8
レイヤー 1
 10
408.049994
 20
619.329991
 40
2.525000
 50
113.330521
 51
137.104637
  0
LINE
  8
レイヤー 1
 10
406.199994
 20
621.049991
 11
406.199994
 21
620.599991
  0
ARC
  8
レイヤー 1
 10
406.234994
 20
620.469991
 40
0.270000
 50
150.744773
 51
262.385324
  0
ARC
  8
レイヤー 1
 10
406.874994
 20
621.159991
 40
1.170000
 50
234.879684
 51
278.639299
  0
ARC
  8
レイヤー 1
 10
407.194994
 20
617.649991
 40
2.105000
 50
64.499886
 51
93.931501
  0
LINE
  8
レイヤー 1
 10
407.899994
 20
619.549991
 11
408.099994
 21
619.549991
  0
ARC
  8
レイヤー 1
 10
408.204994
 20
629.249991
 40
9.700000
 50
269.368383
 51
291.101241
  0
LINE
  8
レイヤー 1
 10
405.149994
 20
733.449989
 11
405.349994
 21
733.449989
  0
ARC
  8
レイヤー 1
 10
405.164994
 20
736.184989
 40
2.745000
 50
273.830466
 51
355.035011
  0
LINE
  8
レイヤー 1
 10
407.899994
 20
735.949989
 11
407.899994
 21
736.199989
  0
LINE
  8
レイヤー 1
 10
402.999994
 20
736.199989
 11
402.999994
 21
735.949989
  0
ARC
  8
レイヤー 1
 10
405.644994
 20
736.079989
 40
2.645000
 50
182.806464
 51
263.650627
  0
ARC
  8
レイヤー 1
 10
405.434994
 20
735.864989
 40
2.440000
 50
92.034192
 51
177.965778
  0
ARC
  8
レイヤー 1
 10
405.004994
 20
735.364989
 40
2.955000
 50
11.418870
 51
83.255731
  0
LINE
  8
レイヤー 1
 10
405.349994
 20
738.299989
 11
405.149994
 21
738.299989
  0
ARC
  8
レイヤー 1
 10
393.459994
 20
683.859990
 40
0.165000
 50
165.681966
 51
284.318024
  0
ARC
  8
レイヤー 1
 10
393.419994
 20
685.029990
 40
1.335000
 50
273.519976
 51
356.480034
  0
ARC
  8
レイヤー 1
 10
394.589994
 20
684.989990
 40
0.165000
 50
345.682001
 51
104.317989
  0
LINE
  8
レイヤー 1
 10
392.199994
 20
685.149990
 11
392.199994
 21
684.949990
  0
ARC
  8
レイヤー 1
 10
393.254994
 20
684.954990
 40
1.055000
 50
180.308526
 51
272.355943
  0
ARC
  8
レイヤー 1
 10
393.504994
 20
685.194990
 40
1.055000
 50
90.308497
 51
182.355953
  0
ARC
  8
レイヤー 1
 10
393.619994
 20
685.449990
 40
0.810000
 50
25.710992
 51
98.494453
  0
LINE
  8
レイヤー 1
 10
393.499994
 20
686.249990
 11
393.299994
 21
686.249990
  0
ARC
  8
レイヤー 1
 10
392.069994
 20
684.074990
 40
2.700000
 50
23.487100
 51
39.727897
  0
LINE
  8
レイヤー 1
 10
399.399994
 20
653.649990
 11
399.649994
 21
653.849990
  0
ARC
  8
レイヤー 1
 10
399.024994
 20
653.734990
 40
0.635000
 50
10.264749
 51
53.746010
  0
ARC
  8
レイヤー 1
 10
398.899994
 20
653.899990
 40
0.710000
 50
261.896462
 51
314.973451
  0
LINE
  8
レイヤー 1
 10
397.949994
 20
652.999990
 11
398.149994
 21
652.999990
  0
ARC
  8
レイヤー 1
 10
408.739994
 20
619.734991
 40
34.909999
 50
106.544640
 51
107.660794
  0
ARC
  8
レイヤー 1
 10
398.709994
 20
655.884990
 40
3.180000
 50
224.723493
 51
256.198969
  0
LINE
  8
レイヤー 1
 10
396.449994
 20
654.049990
 11
396.449994
 21
653.849990
  0
ARC
  8
レイヤー 1
 10
396.659994
 20
654.049990
 40
0.200000
 50
92.742231
 51
178.134317
  0
ARC
  8
レイヤー 1
 10
397.094994
 20
653.924990
 40
0.650000
 50
168.247717
 51
186.600647
  0
ARC
  8
レイヤー 1
 10
397.229994
 20
653.709990
 40
0.790000
 50
84.952131
 51
137.122866
  0
LINE
  8
レイヤー 1
 10
397.949994
 20
654.499990
 11
397.099994
 21
654.499990
  0
LINE
  8
レイヤー 1
 10
398.799994
 20
654.499990
 11
398.149994
 21
654.499990
  0
LINE
  8
レイヤー 1
 10
398.149994
 20
654.499990
 11
397.949994
 21
654.499990
  0
ARC
  8
レイヤー 1
 10
399.014994
 20
653.864990
 40
0.635000
 50
358.589776
 51
91.410215
  0
ARC
  8
レイヤー 1
 10
411.774994
 20
667.949990
 40
0.725000
 50
136.168776
 51
175.906211
  0
ARC
  8
レイヤー 1
 10
411.049994
 20
668.449990
 40
0.200000
 50
0.576348
 51
89.423642
  0
ARC
  8
レイヤー 1
 10
410.494994
 20
668.359990
 40
0.565000
 50
260.374445
 51
349.015874
  0
LINE
  8
レイヤー 1
 10
409.599994
 20
667.399990
 11
409.799994
 21
667.399990
  0
ARC
  8
レイヤー 1
 10
405.834994
 20
680.289990
 40
13.485000
 50
287.091381
 51
289.778533
  0
ARC
  8
レイヤー 1
 10
397.694994
 20
641.284990
 40
28.595000
 50
65.948284
 51
69.092833
  0
LINE
  8
レイヤー 1
 10
408.099994
 20
668.649990
 11
408.099994
 21
668.449990
  0
LINE
  8
レイヤー 1
 10
408.299994
 20
668.849990
 11
408.299994
 21
668.649990
  0
ARC
  8
レイヤー 1
 10
409.159994
 20
667.829990
 40
1.335000
 50
107.951767
 51
130.157415
  0
LINE
  8
レイヤー 1
 10
409.599994
 20
669.299990
 11
408.749994
 21
669.299990
  0
ARC
  8
レイヤー 1
 10
409.999994
 20
667.899990
 40
1.415000
 50
42.224285
 51
98.177947
  0
LINE
  8
レイヤー 1
 10
409.799994
 20
669.299990
 11
409.599994
 21
669.299990
  0
LINE
  8
レイヤー 1
 10
411.049994
 20
668.849990
 11
410.849994
 21
668.849990
  0
ARC
  8
レイヤー 1
 10
427.404994
 20
756.629989
 40
5.405000
 50
160.877354
 51
172.337614
  0
LINE
  8
レイヤー 1
 10
422.299994
 20
758.399989
 11
422.299994
 21
758.599989
  0
ARC
  8
レイヤー 1
 10
420.729994
 20
756.964989
 40
1.135000
 50
324.104467
 51
9.414496
  0
LINE
  8
レイヤー 1
 10
421.849994
 20
756.099989
 11
421.449994
 21
755.849989
  0
LINE
  8
レイヤー 1
 10
421.199994
 20
756.299989
 11
421.199994
 21
756.099989
  0
LINE
  8
レイヤー 1
 10
420.799994
 20
757.149989
 11
420.799994
 21
756.499989
  0
LINE
  8
レイヤー 1
 10
420.799994
 20
758.399989
 11
420.799994
 21
758.199989
  0
LINE
  8
レイヤー 1
 10
420.799994
 20
758.199989
 11
420.799994
 21
756.899989
  0
LINE
  8
レイヤー 1
 10
420.799994
 20
760.099989
 11
420.799994
 21
758.849989
  0
ARC
  8
レイヤー 1
 10
421.709994
 20
760.174989
 40
0.915000
 50
141.019163
 51
184.775383
  0
LINE
  8
レイヤー 1
 10
421.199994
 20
760.749989
 11
421.449994
 21
760.949989
  0
LINE
  8
レイヤー 1
 10
421.449994
 20
760.949989
 11
421.199994
 21
760.949989
  0
ARC
  8
レイヤー 1
 10
455.314993
 20
770.689989
 40
34.909999
 50
196.544670
 51
197.660824
  0
ARC
  8
レイヤー 1
 10
430.944994
 20
762.009989
 40
9.295000
 50
191.866436
 51
201.532089
  0
ARC
  8
レイヤー 1
 10
443.704993
 20
735.679989
 40
5.405000
 50
160.877354
 51
172.337614
  0
LINE
  8
レイヤー 1
 10
438.599993
 20
737.449989
 11
438.599993
 21
737.649989
  0
ARC
  8
レイヤー 1
 10
436.829993
 20
736.014989
 40
1.135000
 50
324.104467
 51
9.414496
  0
LINE
  8
レイヤー 1
 10
437.949993
 20
735.099989
 11
437.749993
 21
735.099989
  0
LINE
  8
レイヤー 1
 10
437.299993
 20
735.549989
 11
437.299993
 21
735.349989
  0
LINE
  8
レイヤー 1
 10
436.899993
 20
736.199989
 11
436.899993
 21
735.549989
  0
LINE
  8
レイヤー 1
 10
436.899993
 20
737.449989
 11
436.899993
 21
737.249989
  0
LINE
  8
レイヤー 1
 10
436.899993
 20
737.249989
 11
436.899993
 21
735.949989
  0
LINE
  8
レイヤー 1
 10
436.899993
 20
739.349989
 11
436.899993
 21
737.849989
  0
ARC
  8
レイヤー 1
 10
438.009993
 20
739.224989
 40
0.915000
 50
141.019163
 51
184.775383
  0
LINE
  8
レイヤー 1
 10
437.299993
 20
739.799989
 11
437.749993
 21
739.999989
  0
LINE
  8
レイヤー 1
 10
437.499993
 20
739.999989
 11
437.299993
 21
739.999989
  0
ARC
  8
レイヤー 1
 10
471.414993
 20
749.739989
 40
34.909999
 50
196.544670
 51
197.660824
  0
ARC
  8
レイヤー 1
 10
464.864993
 20
745.524989
 40
27.660000
 50
193.323460
 51
196.539411
  0
ARC
  8
レイヤー 1
 10
388.254994
 20
713.729989
 40
3.460000
 50
150.227437
 51
176.374039
  0
LINE
  8
レイヤー 1
 10
384.799994
 20
713.749989
 11
384.799994
 21
713.299989
  0
LINE
  8
レイヤー 1
 10
384.799994
 20
713.299989
 11
384.799994
 21
713.099989
  0
LINE
  8
レイヤー 1
 10
384.999994
 20
712.899989
 11
384.999994
 21
712.699989
  0
ARC
  8
レイヤー 1
 10
385.274994
 20
713.369989
 40
0.670000
 50
224.427640
 51
267.647407
  0
LINE
  8
レイヤー 1
 10
385.249994
 20
712.699989
 11
385.449994
 21
712.899989
  0
ARC
  8
レイヤー 1
 10
380.484994
 20
720.694989
 40
9.135000
 50
301.428045
 51
305.952103
  0
ARC
  8
レイヤー 1
 10
381.544994
 20
716.314989
 40
5.375000
 50
323.249558
 51
343.620346
  0
ARC
  8
レイヤー 1
 10
383.549994
 20
716.344989
 40
3.600000
 50
331.032004
 51
359.315039
  0
ARC
  8
レイヤー 1
 10
420.614994
 20
727.089989
 40
34.909999
 50
196.544670
 51
197.660824
  0
LINE
  8
レイヤー 1
 10
387.149994
 20
716.899989
 11
386.949994
 21
717.149989
  0
LINE
  8
レイヤー 1
 10
386.699994
 20
717.149989
 11
386.499994
 21
717.149989
  0
ARC
  8
レイヤー 1
 10
386.064994
 20
717.574989
 40
0.675000
 50
273.076959
 51
340.662848
  0
ARC
  8
レイヤー 1
 10
361.764995
 20
730.044989
 40
27.435000
 50
327.865565
 51
331.376190
  0
ARC
  8
レイヤー 1
 10
420.394994
 20
695.849990
 40
3.565000
 50
325.919944
 51
355.199991
  0
LINE
  8
レイヤー 1
 10
423.949994
 20
695.549990
 11
423.949994
 21
695.749990
  0
LINE
  8
レイヤー 1
 10
422.049994
 20
693.199990
 11
422.299994
 21
693.199990
  0
ARC
  8
レイヤー 1
 10
422.279994
 20
694.399990
 40
1.200000
 50
270.862345
 51
332.656628
  0
ARC
  8
レイヤー 1
 10
422.019994
 20
694.819990
 40
1.170000
 50
209.132356
 51
271.377908
  0
LINE
  8
レイヤー 1
 10
420.599994
 20
695.749990
 11
420.599994
 21
695.549990
  0
ARC
  8
レイヤー 1
 10
423.244994
 20
695.289990
 40
2.660000
 50
174.427345
 51
203.064977
  0
ARC
  8
レイヤー 1
 10
424.669994
 20
695.889990
 40
4.070000
 50
154.370735
 51
179.148188
  0
ARC
  8
レイヤー 1
 10
422.389994
 20
696.309990
 40
1.790000
 50
92.856949
 51
131.641074
  0
ARC
  8
レイヤー 1
 10
422.414994
 20
697.079990
 40
0.780000
 50
28.398812
 51
98.471071
  0
LINE
  8
レイヤー 1
 10
422.299994
 20
697.849990
 11
422.049994
 21
697.849990
  0
LINE
  8
レイヤー 1
 10
423.949994
 20
695.949990
 11
423.349994
 21
697.649990
  0
ARC
  8
レイヤー 1
 10
450.739993
 20
620.069991
 40
4.790000
 50
6.363936
 51
86.269879
  0
LINE
  8
レイヤー 1
 10
451.049993
 20
624.849991
 11
450.849993
 21
624.849991
  0
ARC
  8
レイヤー 1
 10
451.229993
 20
620.209991
 40
4.645000
 50
92.210574
 51
175.155572
  0
LINE
  8
レイヤー 1
 10
446.599993
 20
621.049991
 11
446.599993
 21
620.799991
  0
ARC
  8
レイヤー 1
 10
451.194993
 20
620.984991
 40
4.600000
 50
182.321545
 51
265.691547
  0
LINE
  8
レイヤー 1
 10
450.849993
 20
616.149991
 11
451.049993
 21
616.149991
  0
ARC
  8
レイヤー 1
 10
450.964993
 20
620.609991
 40
4.460000
 50
271.102537
 51
322.111120
  0
ARC
  8
レイヤー 1
 10
450.384993
 20
621.284991
 40
5.335000
 50
320.176646
 51
354.760317
  0
ARC
  8
レイヤー 1
 10
435.109994
 20
652.449990
 40
1.815000
 50
301.147805
 51
350.420799
  0
LINE
  8
レイヤー 1
 10
436.899993
 20
652.149990
 11
436.899993
 21
652.349990
  0
ARC
  8
レイヤー 1
 10
433.884994
 20
652.824990
 40
2.775000
 50
270.343075
 51
293.373164
  0
ARC
  8
レイヤー 1
 10
432.504994
 20
655.749990
 40
6.010000
 50
294.384836
 51
306.175202
  0
LINE
  8
レイヤー 1
 10
432.449994
 20
649.599990
 11
432.649994
 21
649.599990
  0
ARC
  8
レイヤー 1
 10
424.729994
 20
703.094990
 40
54.079999
 50
278.419658
 51
279.760914
  0
ARC
  8
レイヤー 1
 10
435.169994
 20
662.014990
 40
12.710000
 50
245.495503
 51
257.634623
  0
ARC
  8
レイヤー 1
 10
431.169994
 20
652.779990
 40
2.655000
 50
198.222849
 51
241.388324
  0
LINE
  8
レイヤー 1
 10
428.649994
 20
652.349990
 11
428.649994
 21
652.149990
  0
LINE
  8
レイヤー 1
 10
428.649994
 20
652.149990
 11
428.649994
 21
651.949990
  0
ARC
  8
レイヤー 1
 10
430.164994
 20
652.629990
 40
1.245000
 50
124.980983
 51
157.923326
  0
ARC
  8
レイヤー 1
 10
430.784994
 20
652.329990
 40
1.935000
 50
156.561811
 51
179.335276
  0
ARC
  8
レイヤー 1
 10
431.269994
 20
652.399990
 40
2.105000
 50
93.295128
 51
118.122908
  0
ARC
  8
レイヤー 1
 10
437.404993
 20
640.964990
 40
15.080000
 50
118.194477
 51
122.728502
  0
LINE
  8
レイヤー 1
 10
432.449994
 20
654.499990
 11
431.149994
 21
654.499990
  0
ARC
  8
レイヤー 1
 10
433.274994
 20
650.349990
 40
4.170000
 50
62.495358
 51
95.824014
  0
LINE
  8
レイヤー 1
 10
432.849994
 20
654.499990
 11
432.649994
 21
654.499990
  0
ARC
  8
レイヤー 1
 10
434.084994
 20
651.289990
 40
2.980000
 50
30.493683
 51
67.979096
  0
ARC
  8
レイヤー 1
 10
437.284993
 20
652.859990
 40
0.635000
 50
185.203947
 51
232.905295
  0
LINE
  8
レイヤー 1
 10
430.949994
 20
611.099991
 11
431.149994
 21
611.099991
  0
ARC
  8
レイヤー 1
 10
430.994994
 20
615.504991
 40
4.410000
 50
271.997309
 51
357.324652
  0
LINE
  8
レイヤー 1
 10
435.399994
 20
615.299991
 11
435.399994
 21
615.549991
  0
LINE
  8
レイヤー 1
 10
427.149994
 20
615.549991
 11
427.149994
 21
615.299991
  0
ARC
  8
レイヤー 1
 10
431.544994
 20
615.479991
 40
4.400000
 50
182.347177
 51
264.858491
  0
ARC
  8
レイヤー 1
 10
431.254994
 20
615.044991
 40
4.105000
 50
91.494103
 51
179.217607
  0
ARC
  8
レイヤー 1
 10
430.954994
 20
615.099991
 40
4.050000
 50
2.837845
 51
90.062578
  0
LINE
  8
レイヤー 1
 10
430.949994
 20
619.149991
 11
430.749994
 21
619.149991
  0
ARC
  8
レイヤー 1
 10
382.774994
 20
629.379991
 40
4.180000
 50
313.522381
 51
358.913564
  0
ARC
  8
レイヤー 1
 10
384.024994
 20
629.189991
 40
2.925000
 50
2.202713
 51
32.280202
  0
ARC
  8
レイヤー 1
 10
381.649994
 20
628.764991
 40
4.645000
 50
280.580261
 51
324.988313
  0
ARC
  8
レイヤー 1
 10
380.884994
 20
630.784991
 40
6.990000
 50
238.175042
 51
269.304572
  0
ARC
  8
レイヤー 1
 10
380.709994
 20
627.989991
 40
4.195000
 50
271.220726
 51
295.260330
  0
ARC
  8
レイヤー 1
 10
381.549994
 20
629.774991
 40
6.315000
 50
202.106757
 51
231.272720
  0
ARC
  8
レイヤー 1
 10
377.859994
 20
629.054991
 40
2.145000
 50
142.866986
 51
171.295806
  0
ARC
  8
レイヤー 1
 10
382.969994
 20
628.604991
 40
7.270000
 50
173.883482
 51
181.221268
  0
LINE
  8
レイヤー 1
 10
375.699994
 20
628.449991
 11
375.699994
 21
627.399991
  0
ARC
  8
レイヤー 1
 10
381.219994
 20
627.774991
 40
5.910000
 50
104.393366
 51
154.185419
  0
ARC
  8
レイヤー 1
 10
381.634994
 20
626.669991
 40
7.080000
 50
65.259613
 51
89.888484
  0
ARC
  8
レイヤー 1
 10
381.244994
 20
629.474991
 40
4.295000
 50
84.600484
 51
110.391210
  0
ARC
  8
レイヤー 1
 10
382.439994
 20
629.409991
 40
4.275000
 50
18.267796
 51
59.644011
  0
ARC
  8
レイヤー 1
 10
400.979994
 20
719.139989
 40
1.880000
 50
287.586756
 51
316.722895
  0
ARC
  8
レイヤー 1
 10
401.749994
 20
718.459989
 40
0.850000
 50
314.853883
 51
356.118860
  0
ARC
  8
レイヤー 1
 10
402.439994
 20
718.439989
 40
0.165000
 50
345.682001
 51
104.317989
  0
LINE
  8
レイヤー 1
 10
400.499994
 20
716.899989
 11
400.699994
 21
716.899989
  0
ARC
  8
レイヤー 1
 10
399.824994
 20
720.394989
 40
3.600000
 50
284.072589
 51
302.324607
  0
ARC
  8
レイヤー 1
 10
401.564994
 20
720.529989
 40
3.780000
 50
227.287168
 51
253.635294
  0
LINE
  8
レイヤー 1
 10
398.799994
 20
718.599989
 11
398.799994
 21
718.399989
  0
ARC
  8
レイヤー 1
 10
399.689994
 20
718.314989
 40
0.890000
 50
174.686908
 51
219.518546
  0
ARC
  8
レイヤー 1
 10
399.929994
 20
718.649989
 40
1.130000
 50
117.924794
 51
182.585450
  0
ARC
  8
レイヤー 1
 10
400.324994
 20
718.119989
 40
1.790000
 50
84.427426
 51
121.181083
  0
ARC
  8
レイヤー 1
 10
400.694994
 20
717.764989
 40
2.135000
 50
37.023219
 51
89.846664
  0
LINE
  8
レイヤー 1
 10
400.699994
 20
719.899989
 11
400.499994
 21
719.899989
  0
LINE
  8
レイヤー 1
 10
402.399994
 20
718.599989
 11
402.399994
 21
718.799989
  0
ARC
  8
レイヤー 1
 10
439.764993
 20
749.884989
 40
1.895000
 50
284.868082
 51
314.986005
  0
ARC
  8
レイヤー 1
 10
440.519993
 20
749.129989
 40
0.830000
 50
314.727200
 51
357.768094
  0
ARC
  8
レイヤー 1
 10
441.164993
 20
749.124989
 40
0.185000
 50
352.469030
 51
110.211342
  0
LINE
  8
レイヤー 1
 10
438.999993
 20
747.599989
 11
439.199993
 21
747.599989
  0
ARC
  8
レイヤー 1
 10
439.039993
 20
750.164989
 40
2.570000
 50
273.579328
 51
304.607672
  0
LINE
  8
レイヤー 1
 10
437.499993
 20
748.249989
 11
438.999993
 21
747.599989
  0
LINE
  8
レイヤー 1
 10
437.099993
 20
749.299989
 11
437.099993
 21
749.099989
  0
ARC
  8
レイヤー 1
 10
437.864993
 20
748.979989
 40
0.775000
 50
170.997105
 51
223.208350
  0
ARC
  8
レイヤー 1
 10
438.204993
 20
749.344989
 40
1.105000
 50
114.228003
 51
182.253044
  0
ARC
  8
レイヤー 1
 10
438.734993
 20
748.184989
 40
2.375000
 50
83.648661
 51
114.531871
  0
ARC
  8
レイヤー 1
 10
439.409993
 20
748.924989
 40
1.640000
 50
48.389866
 51
97.404660
  0
LINE
  8
レイヤー 1
 10
439.199993
 20
750.549989
 11
438.999993
 21
750.549989
  0
ARC
  8
レイヤー 1
 10
440.034993
 20
749.314989
 40
1.065000
 50
359.088631
 51
51.313610
  0
ARC
  8
レイヤー 1
 10
458.974993
 20
754.274989
 40
3.930000
 50
312.942848
 51
358.169247
  0
LINE
  8
レイヤー 1
 10
462.899993
 20
754.149989
 11
462.899993
 21
754.399989
  0
LINE
  8
レイヤー 1
 10
459.949993
 20
750.549989
 11
460.149993
 21
750.549989
  0
ARC
  8
レイヤー 1
 10
459.999993
 20
752.949989
 40
2.405000
 50
273.577182
 51
313.280218
  0
ARC
  8
レイヤー 1
 10
460.494993
 20
753.694989
 40
3.190000
 50
206.897628
 51
260.163931
  0
LINE
  8
レイヤー 1
 10
457.199993
 20
754.399989
 11
457.199993
 21
754.149989
  0
ARC
  8
レイヤー 1
 10
462.454993
 20
754.389989
 40
5.260000
 50
182.629870
 51
204.019230
  0
ARC
  8
レイヤー 1
 10
462.059993
 20
754.259989
 40
5.065000
 50
142.393441
 51
178.421959
  0
ARC
  8
レイヤー 1
 10
459.909993
 20
755.159989
 40
2.590000
 50
89.068985
 51
129.811061
  0
ARC
  8
レイヤー 1
 10
459.919993
 20
754.814989
 40
3.195000
 50
36.195892
 51
85.902104
  0
LINE
  8
レイヤー 1
 10
460.149993
 20
757.999989
 11
459.949993
 21
757.999989
  0
ARC
  8
レイヤー 1
 10
457.419993
 20
753.679989
 40
5.530000
 50
7.470195
 51
33.094919
  0
LINE
  8
レイヤー 1
 10
414.649994
 20
761.799989
 11
414.849994
 21
761.999989
  0
ARC
  8
レイヤー 1
 10
413.939994
 20
761.864989
 40
0.920000
 50
8.457546
 51
39.467426
  0
ARC
  8
レイヤー 1
 10
414.049994
 20
762.454989
 40
0.890000
 50
253.791083
 51
312.689974
  0
LINE
  8
レイヤー 1
 10
412.549994
 20
761.149989
 11
412.749994
 21
761.149989
  0
ARC
  8
レイヤー 1
 10
415.529994
 20
749.419989
 40
12.055000
 50
98.242900
 51
103.325673
  0
ARC
  8
レイヤー 1
 10
411.309994
 20
758.704989
 40
2.660000
 50
66.935052
 51
95.572606
  0
ARC
  8
レイヤー 1
 10
411.264994
 20
762.734989
 40
1.135000
 50
220.365696
 51
269.232082
  0
LINE
  8
レイヤー 1
 10
410.199994
 20
762.199989
 11
410.199994
 21
761.999989
  0
LINE
  8
レイヤー 1
 10
410.399994
 20
762.449989
 11
410.399994
 21
762.199989
  0
ARC
  8
レイヤー 1
 10
415.454994
 20
746.734989
 40
16.760000
 50
105.940251
 51
108.265183
  0
ARC
  8
レイヤー 1
 10
412.089994
 20
760.404989
 40
2.660000
 50
84.427375
 51
113.064928
  0
LINE
  8
レイヤー 1
 10
413.799994
 20
762.849989
 11
412.749994
 21
762.849989
  0
LINE
  8
レイヤー 1
 10
412.749994
 20
762.849989
 11
412.549994
 21
762.849989
  0
ARC
  8
レイヤー 1
 10
413.899994
 20
762.024989
 40
0.830000
 50
48.720529
 51
97.073996
  0
LINE
  8
レイヤー 1
 10
414.649994
 20
762.449989
 11
414.449994
 21
762.449989
  0
ARC
  8
レイヤー 1
 10
420.009994
 20
707.464989
 40
0.920000
 50
140.532554
 51
171.542434
  0
ARC
  8
レイヤー 1
 10
419.139994
 20
708.089989
 40
0.165000
 50
345.682001
 51
104.317989
  0
ARC
  8
レイヤー 1
 10
418.659994
 20
707.639989
 40
0.445000
 50
275.398674
 51
354.601336
  0
ARC
  8
レイヤー 1
 10
416.149994
 20
714.524989
 40
7.675000
 50
279.360527
 51
287.424485
  0
LINE
  8
レイヤー 1
 10
416.149994
 20
706.549989
 11
416.349994
 21
706.549989
  0
ARC
  8
レイヤー 1
 10
419.129994
 20
694.819990
 40
12.055000
 50
98.242900
 51
103.325673
  0
ARC
  8
レイヤー 1
 10
415.584994
 20
709.784989
 40
2.865000
 50
236.342689
 51
258.511227
  0
ARC
  8
レイヤー 1
 10
411.889994
 20
688.459990
 40
18.780000
 50
76.889881
 51
80.417451
  0
ARC
  8
レイヤー 1
 10
414.364994
 20
708.219989
 40
1.165000
 50
178.529840
 51
240.959916
  0
LINE
  8
レイヤー 1
 10
413.399994
 20
708.649989
 11
413.399994
 21
708.249989
  0
ARC
  8
レイヤー 1
 10
415.299994
 20
706.739989
 40
2.695000
 50
118.869779
 51
134.869988
  0
ARC
  8
レイヤー 1
 10
415.089994
 20
707.094989
 40
2.220000
 50
96.180540
 51
125.528351
  0
LINE
  8
レイヤー 1
 10
416.149994
 20
709.499989
 11
414.849994
 21
709.499989
  0
ARC
  8
レイヤー 1
 10
417.339994
 20
706.739989
 40
2.725000
 50
60.069983
 51
82.534630
  0
ARC
  8
レイヤー 1
 10
416.704994
 20
701.474990
 40
8.025000
 50
82.904661
 51
91.100259
  0
LINE
  8
レイヤー 1
 10
416.549994
 20
709.499989
 11
416.349994
 21
709.499989
  0
ARC
  8
レイヤー 1
 10
418.109994
 20
708.084989
 40
0.990000
 50
357.914085
 51
38.646218
  0
ARC
  8
レイヤー 1
 10
418.454994
 20
708.334989
 40
0.565000
 50
40.823432
 51
90.571211
  0
ARC
  8
レイヤー 1
 10
435.864994
 20
720.739989
 40
1.235000
 50
298.274825
 51
0.566728
  0
LINE
  8
レイヤー 1
 10
437.099993
 20
720.749989
 11
437.099993
 21
720.949989
  0
ARC
  8
レイヤー 1
 10
436.249993
 20
719.649989
 40
0.200000
 50
179.280127
 51
270.719863
  0
LINE
  8
レイヤー 1
 10
436.249993
 20
719.449989
 11
436.249993
 21
719.649989
  0
ARC
  8
レイヤー 1
 10
435.974994
 20
720.469989
 40
0.575000
 50
176.817909
 51
277.763301
  0
LINE
  8
レイヤー 1
 10
435.199994
 20
721.149989
 11
435.199994
 21
720.949989
  0
LINE
  8
レイヤー 1
 10
435.199994
 20
720.949989
 11
435.199994
 21
720.499989
  0
ARC
  8
レイヤー 1
 10
436.964993
 20
721.154989
 40
1.565000
 50
138.127431
 51
180.163657
  0
LINE
  8
レイヤー 1
 10
436.049994
 20
722.199989
 11
435.599994
 21
722.199989
  0
LINE
  8
レイヤー 1
 10
436.449993
 20
722.199989
 11
436.249993
 21
722.199989
  0
LINE
  8
レイヤー 1
 10
436.249993
 20
722.199989
 11
436.049994
 21
722.199989
  0
LINE
  8
レイヤー 1
 10
436.899993
 20
721.799989
 11
436.449993
 21
722.199989
  0
ARC
  8
レイヤー 1
 10
437.924993
 20
721.699989
 40
0.830000
 50
172.925955
 51
221.279499
  0
ARC
  8
レイヤー 1
 10
455.764993
 20
708.889989
 40
1.235000
 50
298.274825
 51
0.566728
  0
LINE
  8
レイヤー 1
 10
456.999993
 20
708.899989
 11
456.999993
 21
709.099989
  0
ARC
  8
レイヤー 1
 10
455.884993
 20
707.774989
 40
0.185000
 50
172.468996
 51
290.211377
  0
ARC
  8
レイヤー 1
 10
456.384993
 20
707.229989
 40
0.570000
 50
93.441120
 51
139.688957
  0
ARC
  8
レイヤー 1
 10
455.874993
 20
708.619989
 40
0.575000
 50
176.817909
 51
277.763301
  0
LINE
  8
レイヤー 1
 10
455.099993
 20
709.099989
 11
455.099993
 21
708.899989
  0
LINE
  8
レイヤー 1
 10
455.099993
 20
708.899989
 11
455.099993
 21
708.449989
  0
ARC
  8
レイヤー 1
 10
456.764993
 20
709.264989
 40
1.665000
 50
139.437834
 51
178.853215
  0
LINE
  8
レイヤー 1
 10
455.699993
 20
710.349989
 11
455.299993
 21
710.349989
  0
LINE
  8
レイヤー 1
 10
456.149993
 20
710.349989
 11
455.949993
 21
710.349989
  0
LINE
  8
レイヤー 1
 10
455.949993
 20
710.349989
 11
455.699993
 21
710.349989
  0
ARC
  8
レイヤー 1
 10
455.079993
 20
708.614989
 40
2.040000
 50
19.643696
 51
58.338284
  0
ARC
  8
レイヤー 1
 10
439.484993
 20
684.654990
 40
0.690000
 50
134.583079
 51
172.286785
  0
ARC
  8
レイヤー 1
 10
438.834993
 20
685.219990
 40
0.180000
 50
336.449281
 51
100.870327
  0
ARC
  8
レイヤー 1
 10
440.749993
 20
681.239990
 40
4.020000
 50
119.048837
 51
130.341443
  0
LINE
  8
レイヤー 1
 10
436.899993
 20
683.899990
 11
437.099993
 21
683.899990
  0
ARC
  8
レイヤー 1
 10
436.504993
 20
687.039990
 40
3.195000
 50
280.724989
 51
300.983942
  0
ARC
  8
レイヤー 1
 10
437.494993
 20
686.699990
 40
2.865000
 50
222.936225
 51
257.986237
  0
LINE
  8
レイヤー 1
 10
435.199994
 20
685.399990
 11
435.199994
 21
685.149990
  0
LINE
  8
レイヤー 1
 10
435.199994
 20
685.149990
 11
435.199994
 21
684.749990
  0
ARC
  8
レイヤー 1
 10
436.864993
 20
685.364990
 40
1.665000
 50
139.437834
 51
178.853215
  0
ARC
  8
レイヤー 1
 10
436.719993
 20
684.504990
 40
2.150000
 50
85.248251
 51
115.361420
  0
ARC
  8
レイヤー 1
 10
437.314993
 20
685.159990
 40
1.505000
 50
46.388203
 51
98.122438
  0
LINE
  8
レイヤー 1
 10
437.099993
 20
686.649990
 11
436.899993
 21
686.649990
  0
ARC
  8
レイヤー 1
 10
437.794993
 20
685.349990
 40
1.205000
 50
2.275045
 51
48.127196
  0
ARC
  8
レイヤー 1
 10
453.609993
 20
691.854990
 40
7.485000
 50
322.518532
 51
338.631847
  0
ARC
  8
レイヤー 1
 10
457.554993
 20
690.299990
 40
3.245000
 50
338.794878
 51
359.095620
  0
LINE
  8
レイヤー 1
 10
460.799993
 20
690.249990
 11
460.799993
 21
690.449990
  0
LINE
  8
レイヤー 1
 10
457.849993
 20
686.649990
 11
458.049993
 21
686.649990
  0
ARC
  8
レイヤー 1
 10
457.939993
 20
688.964990
 40
2.315000
 50
272.773148
 51
314.084252
  0
ARC
  8
レイヤー 1
 10
458.459993
 20
689.969990
 40
3.375000
 50
208.667067
 51
259.568686
  0
LINE
  8
レイヤー 1
 10
454.849993
 20
690.449990
 11
454.849993
 21
690.249990
  0
ARC
  8
レイヤー 1
 10
458.704993
 20
689.979990
 40
3.865000
 50
175.961758
 51
208.227753
  0
ARC
  8
レイヤー 1
 10
459.684993
 20
690.274990
 40
4.590000
 50
140.399525
 51
177.804909
  0
ARC
  8
レイヤー 1
 10
457.779993
 20
691.484990
 40
2.365000
 50
88.304433
 51
133.544546
  0
ARC
  8
レイヤー 1
 10
457.819993
 20
690.584990
 40
3.275000
 50
38.010657
 51
85.970976
  0
LINE
  8
レイヤー 1
 10
458.049993
 20
693.849990
 11
457.849993
 21
693.849990
  0
ARC
  8
レイヤー 1
 10
455.199993
 20
689.479990
 40
5.680000
 50
9.833941
 51
33.308669
  0
LINE
  8
レイヤー 1
 10
412.549994
 20
697.849990
 11
412.749994
 21
698.099990
  0
ARC
  8
レイヤー 1
 10
412.064994
 20
698.004990
 40
0.690000
 50
7.713196
 51
45.416901
  0
ARC
  8
レイヤー 1
 10
412.149994
 20
698.504990
 40
0.890000
 50
253.791083
 51
312.689974
  0
LINE
  8
レイヤー 1
 10
410.399994
 20
697.249990
 11
410.649994
 21
697.249990
  0
ARC
  8
レイヤー 1
 10
410.419994
 20
700.124990
 40
2.885000
 50
274.592527
 51
300.896832
  0
ARC
  8
レイヤー 1
 10
409.214994
 20
695.084990
 40
2.375000
 50
65.468109
 51
96.351319
  0
ARC
  8
レイヤー 1
 10
409.114994
 20
698.584990
 40
0.950000
 50
210.750583
 51
259.859138
  0
LINE
  8
レイヤー 1
 10
408.299994
 20
698.299990
 11
408.299994
 21
698.099990
  0
LINE
  8
レイヤー 1
 10
408.299994
 20
698.499990
 11
408.299994
 21
698.299990
  0
ARC
  8
レイヤー 1
 10
413.554994
 20
682.584990
 40
16.760000
 50
105.940251
 51
108.265183
  0
LINE
  8
レイヤー 1
 10
410.199994
 20
698.949990
 11
408.949994
 21
698.949990
  0
LINE
  8
レイヤー 1
 10
411.699994
 20
698.949990
 11
410.649994
 21
698.949990
  0
LINE
  8
レイヤー 1
 10
410.649994
 20
698.949990
 11
410.399994
 21
698.949990
  0
ARC
  8
レイヤー 1
 10
411.774994
 20
697.789990
 40
0.915000
 50
51.019192
 51
94.775334
  0
LINE
  8
レイヤー 1
 10
412.749994
 20
698.499990
 11
412.549994
 21
698.499990
  0
ARC
  8
レイヤー 1
 10
358.449995
 20
731.519989
 40
11.550000
 50
340.685975
 51
359.900723
  0
LINE
  8
レイヤー 1
 10
369.999994
 20
731.499989
 11
369.999994
 21
731.749989
  0
ARC
  8
レイヤー 1
 10
367.369995
 20
727.579989
 40
1.785000
 50
320.687494
 51
3.823166
  0
LINE
  8
レイヤー 1
 10
368.099995
 20
725.599989
 11
368.749995
 21
726.249989
  0
ARC
  8
レイヤー 1
 10
367.609995
 20
725.559989
 40
0.165000
 50
165.681966
 51
284.318024
  0
ARC
  8
レイヤー 1
 10
367.509995
 20
726.354989
 40
0.965000
 50
278.299854
 51
324.915164
  0
LINE
  8
レイヤー 1
 10
367.049995
 20
725.399989
 11
367.449995
 21
725.399989
  0
ARC
  8
レイヤー 1
 10
367.254995
 20
726.229989
 40
0.855000
 50
178.589451
 51
256.221254
  0
ARC
  8
レイヤー 1
 10
367.094995
 20
727.124989
 40
1.345000
 50
181.038701
 51
214.035390
  0
ARC
  8
レイヤー 1
 10
372.154994
 20
729.769989
 40
7.050000
 50
208.840254
 51
212.353255
  0
ARC
  8
レイヤー 1
 10
372.299994
 20
729.889989
 40
7.045000
 50
189.293775
 51
201.550584
  0
LINE
  8
レイヤー 1
 10
365.149995
 20
731.749989
 11
365.149995
 21
731.499989
  0
ARC
  8
レイヤー 1
 10
375.814994
 20
730.894989
 40
10.680000
 50
176.744440
 51
191.574844
  0
ARC
  8
レイヤー 1
 10
389.979994
 20
731.484989
 40
24.835000
 50
169.647344
 51
178.931431
  0
ARC
  8
レイヤー 1
 10
376.004994
 20
733.124989
 40
10.640000
 50
157.199386
 51
164.613594
  0
LINE
  8
レイヤー 1
 10
367.049995
 20
737.849989
 11
366.399995
 21
737.249989
  0
ARC
  8
レイヤー 1
 10
367.364995
 20
736.959989
 40
0.890000
 50
84.686937
 51
129.518497
  0
LINE
  8
レイヤー 1
 10
367.899995
 20
738.099989
 11
367.649995
 21
738.099989
  0
LINE
  8
レイヤー 1
 10
367.649995
 20
738.099989
 11
367.449995
 21
738.099989
  0
ARC
  8
レイヤー 1
 10
367.819995
 20
737.114989
 40
0.985000
 50
19.772010
 51
85.417265
  0
ARC
  8
レイヤー 1
 10
360.224995
 20
731.799989
 40
10.130000
 50
28.265474
 51
35.253479
  0
LINE
  8
レイヤー 1
 10
369.549994
 20
734.899989
 11
368.949995
 21
736.599989
  0
ARC
  8
レイヤー 1
 10
239.599996
 20
715.744989
 40
131.599998
 50
7.073749
 51
8.369901
  0
ARC
  8
レイヤー 1
 10
410.724994
 20
435.439994
 40
8.375000
 50
278.080414
 51
291.191723
  0
ARC
  8
レイヤー 1
 10
405.139994
 20
449.154993
 40
23.180000
 50
291.811916
 51
297.804780
  0
ARC
  8
レイヤー 1
 10
415.704994
 20
429.759994
 40
0.940000
 50
285.144755
 51
318.268693
  0
ARC
  8
レイヤー 1
 10
414.489994
 20
431.264994
 40
2.870000
 50
311.919265
 51
321.998405
  0
ARC
  8
レイヤー 1
 10
416.509994
 20
430.199994
 40
0.500000
 50
274.641986
 51
348.625104
  0
ARC
  8
レイヤー 1
 10
416.814994
 20
430.124994
 40
0.185000
 50
352.469030
 51
110.211342
  0
LINE
  8
レイヤー 1
 10
416.749994
 20
430.549994
 11
416.349994
 21
430.549994
  0
LINE
  8
レイヤー 1
 10
416.349994
 20
430.749994
 11
415.699994
 21
430.749994
  0
LINE
  8
レイヤー 1
 10
415.699994
 20
430.749994
 11
415.099994
 21
430.749994
  0
LINE
  8
レイヤー 1
 10
415.099994
 20
430.749994
 11
414.849994
 21
430.749994
  0
ARC
  8
レイヤー 1
 10
414.234994
 20
421.054994
 40
9.715000
 50
86.361850
 51
107.888161
  0
ARC
  8
レイヤー 1
 10
413.819994
 20
417.904994
 40
12.700000
 50
102.607573
 51
122.224697
  0
ARC
  8
レイヤー 1
 10
408.704994
 20
425.604994
 40
3.465000
 50
118.517048
 51
136.293637
  0
LINE
  8
レイヤー 1
 10
405.999994
 20
427.999994
 11
405.999994
 21
427.549994
  0
LINE
  8
レイヤー 1
 10
406.199994
 20
427.549994
 11
406.199994
 21
427.149994
  0
ARC
  8
レイヤー 1
 10
406.874994
 20
428.109994
 40
1.170000
 50
234.879684
 51
278.639299
  0
ARC
  8
レイヤー 1
 10
411.859994
 20
443.974993
 40
17.635000
 50
254.853974
 51
258.361053
  0
ARC
  8
レイヤー 1
 10
409.059994
 20
436.499993
 40
9.580000
 50
265.444019
 51
287.236383
  0
LINE
  8
レイヤー 1
 10
396.249994
 20
582.499991
 11
396.449994
 21
582.699991
  0
ARC
  8
レイヤー 1
 10
393.414994
 20
582.479991
 40
3.045000
 50
4.190636
 51
30.014818
  0
ARC
  8
レイヤー 1
 10
394.029994
 20
582.629991
 40
2.340000
 50
30.101377
 51
59.898613
  0
ARC
  8
レイヤー 1
 10
391.944994
 20
580.624991
 40
5.305000
 50
49.341614
 51
65.419887
  0
ARC
  8
レイヤー 1
 10
389.094994
 20
578.789991
 40
8.360000
 50
52.796580
 51
65.819686
  0
ARC
  8
レイヤー 1
 10
385.354994
 20
570.154992
 40
17.770000
 50
66.215717
 51
72.995179
  0
ARC
  8
レイヤー 1
 10
388.484994
 20
579.194991
 40
8.220000
 50
75.433950
 51
93.367353
  0
LINE
  8
レイヤー 1
 10
387.999994
 20
587.399991
 11
386.699994
 21
587.399991
  0
ARC
  8
レイヤー 1
 10
386.969994
 20
582.759991
 40
4.640000
 50
90.222678
 51
120.699734
  0
ARC
  8
レイヤー 1
 10
385.184994
 20
585.344991
 40
1.440000
 50
123.058589
 51
175.782924
  0
LINE
  8
レイヤー 1
 10
383.749994
 20
585.449991
 11
383.749994
 21
584.849991
  0
ARC
  8
レイヤー 1
 10
384.804994
 20
584.649991
 40
1.075000
 50
169.226207
 51
217.254830
  0
ARC
  8
レイヤー 1
 10
384.879994
 20
584.239991
 40
0.935000
 50
182.425659
 51
252.385086
  0
ARC
  8
レイヤー 1
 10
390.804994
 20
589.699991
 40
9.025000
 50
226.532075
 51
246.087817
  0
ARC
  8
レイヤー 1
 10
390.649994
 20
587.079991
 40
6.630000
 50
238.126877
 51
257.800694
  0
ARC
  8
レイヤー 1
 10
392.114994
 20
590.839991
 40
10.440000
 50
254.074788
 51
269.373448
  0
ARC
  8
レイヤー 1
 10
384.689994
 20
658.979990
 40
78.919999
 50
275.315469
 51
276.702561
  0
ARC
  8
レイヤー 1
 10
393.499994
 20
583.444991
 40
2.920000
 50
282.889666
 51
322.052731
  0
ARC
  8
レイヤー 1
 10
370.994994
 20
593.959991
 40
27.915000
 50
333.834717
 51
335.763041
  0
LINE
  8
レイヤー 1
 10
405.149994
 20
540.399992
 11
405.349994
 21
540.399992
  0
ARC
  8
レイヤー 1
 10
405.164994
 20
543.134992
 40
2.745000
 50
273.911493
 51
356.088517
  0
LINE
  8
レイヤー 1
 10
407.899994
 20
542.949992
 11
407.899994
 21
543.149992
  0
LINE
  8
レイヤー 1
 10
402.999994
 20
542.949992
 11
402.999994
 21
542.699992
  0
ARC
  8
レイヤー 1
 10
405.644994
 20
542.829992
 40
2.645000
 50
182.806464
 51
263.650627
  0
ARC
  8
レイヤー 1
 10
405.429994
 20
542.814992
 40
2.435000
 50
91.932110
 51
176.835741
  0
ARC
  8
レイヤー 1
 10
405.029994
 20
542.334992
 40
2.935000
 50
12.119768
 51
83.781779
  0
LINE
  8
レイヤー 1
 10
405.349994
 20
545.249992
 11
405.149994
 21
545.249992
  0
ARC
  8
レイヤー 1
 10
393.269994
 20
492.344993
 40
1.295000
 50
271.333726
 51
351.361839
  0
ARC
  8
レイヤー 1
 10
394.389994
 20
492.189993
 40
0.165000
 50
345.682001
 51
104.317989
  0
LINE
  8
レイヤー 1
 10
392.199994
 20
492.349993
 11
392.199994
 21
492.149993
  0
ARC
  8
レイヤー 1
 10
393.304994
 20
492.154993
 40
1.105000
 50
180.275730
 51
269.724300
  0
ARC
  8
レイヤー 1
 10
393.479994
 20
492.369993
 40
1.030000
 50
88.892757
 51
181.107253
  0
ARC
  8
レイヤー 1
 10
393.634994
 20
492.589993
 40
0.825000
 50
30.001165
 51
99.596573
  0
LINE
  8
レイヤー 1
 10
393.499994
 20
493.399993
 11
393.299994
 21
493.399993
  0
ARC
  8
レイヤー 1
 10
405.664994
 20
499.634993
 40
13.290000
 50
209.962008
 51
213.253029
  0
ARC
  8
レイヤー 1
 10
400.334994
 20
460.304993
 40
0.690000
 50
134.583079
 51
172.286785
  0
ARC
  8
レイヤー 1
 10
399.649994
 20
460.799993
 40
0.200000
 50
0.576348
 51
89.423642
  0
ARC
  8
レイヤー 1
 10
398.899994
 20
461.099993
 40
0.710000
 50
261.896462
 51
314.973451
  0
LINE
  8
レイヤー 1
 10
397.949994
 20
460.149993
 11
398.149994
 21
460.149993
  0
ARC
  8
レイヤー 1
 10
394.679994
 20
470.144993
 40
10.580000
 50
289.151126
 51
292.923912
  0
ARC
  8
レイヤー 1
 10
397.244994
 20
459.324993
 40
1.085000
 50
49.467112
 51
97.753791
  0
LINE
  8
レイヤー 1
 10
396.449994
 20
461.249993
 11
396.449994
 21
460.999993
  0
ARC
  8
レイヤー 1
 10
397.149994
 20
460.899993
 40
0.710000
 50
171.896414
 51
224.973480
  0
LINE
  8
レイヤー 1
 10
396.649994
 20
461.249993
 11
396.649994
 21
460.999993
  0
ARC
  8
レイヤー 1
 10
401.704994
 20
445.534993
 40
16.760000
 50
105.940251
 51
108.265183
  0
LINE
  8
レイヤー 1
 10
397.949994
 20
461.649993
 11
397.299994
 21
461.649993
  0
ARC
  8
レイヤー 1
 10
398.649994
 20
460.719993
 40
0.910000
 50
52.937322
 51
88.778214
  0
ARC
  8
レイヤー 1
 10
398.324994
 20
458.829993
 40
2.830000
 50
82.977230
 51
93.524074
  0
LINE
  8
レイヤー 1
 10
398.149994
 20
461.649993
 11
397.949994
 21
461.649993
  0
LINE
  8
レイヤー 1
 10
399.399994
 20
461.249993
 11
399.199994
 21
461.249993
  0
LINE
  8
レイヤー 1
 10
411.049994
 20
475.199993
 11
411.249994
 21
475.399993
  0
ARC
  8
レイヤー 1
 10
410.339994
 20
475.264993
 40
0.920000
 50
8.457546
 51
39.467426
  0
ARC
  8
レイヤー 1
 10
410.449994
 20
475.854993
 40
0.890000
 50
253.791083
 51
312.689974
  0
LINE
  8
レイヤー 1
 10
409.599994
 20
474.749993
 11
409.799994
 21
474.749993
  0
ARC
  8
レイヤー 1
 10
410.254994
 20
474.469993
 40
0.535000
 50
95.833153
 51
148.177586
  0
LINE
  8
レイヤー 1
 10
407.899994
 20
475.399993
 11
409.349994
 21
474.749993
  0
LINE
  8
レイヤー 1
 10
408.099994
 20
475.599993
 11
408.099994
 21
475.399993
  0
LINE
  8
レイヤー 1
 10
408.099994
 20
476.049993
 11
408.099994
 21
475.599993
  0
ARC
  8
レイヤー 1
 10
408.589994
 20
475.999993
 40
0.295000
 50
57.212862
 51
170.712091
  0
LINE
  8
レイヤー 1
 10
409.349994
 20
476.249993
 11
408.499994
 21
476.249993
  0
LINE
  8
レイヤー 1
 10
410.399994
 20
476.249993
 11
409.799994
 21
476.249993
  0
LINE
  8
レイヤー 1
 10
409.799994
 20
476.249993
 11
409.599994
 21
476.249993
  0
ARC
  8
レイヤー 1
 10
410.459994
 20
475.459993
 40
0.595000
 50
354.393043
 51
95.606947
  0
ARC
  8
レイヤー 1
 10
372.064994
 20
420.529994
 40
0.180000
 50
156.449247
 51
280.870361
  0
ARC
  8
レイヤー 1
 10
371.989994
 20
421.759994
 40
1.410000
 50
274.391113
 51
355.608897
  0
ARC
  8
レイヤー 1
 10
373.214994
 20
421.674994
 40
0.185000
 50
352.469030
 51
110.211342
  0
LINE
  8
レイヤー 1
 10
371.049994
 20
421.649994
 11
371.049994
 21
421.449994
  0
ARC
  8
レイヤー 1
 10
371.859994
 20
421.409994
 40
0.810000
 50
176.989257
 51
273.010733
  0
ARC
  8
レイヤー 1
 10
372.009994
 20
421.739994
 40
0.965000
 50
96.536136
 51
185.481885
  0
ARC
  8
レイヤー 1
 10
372.234994
 20
422.089994
 40
0.825000
 50
30.001165
 51
99.596573
  0
LINE
  8
レイヤー 1
 10
372.099994
 20
422.899994
 11
371.899994
 21
422.899994
  0
LINE
  8
レイヤー 1
 10
373.149994
 20
421.849994
 11
372.749994
 21
422.499994
  0
LINE
  8
レイヤー 1
 10
378.049994
 20
390.099994
 11
378.249994
 21
390.299994
  0
ARC
  8
レイヤー 1
 10
377.524994
 20
390.249994
 40
0.725000
 50
4.093769
 51
43.831204
  0
ARC
  8
レイヤー 1
 10
377.519994
 20
390.464994
 40
0.775000
 50
260.997153
 51
313.208321
  0
LINE
  8
レイヤー 1
 10
376.549994
 20
389.449994
 11
376.749994
 21
389.449994
  0
ARC
  8
レイヤー 1
 10
375.914994
 20
392.584994
 40
3.245000
 50
284.877487
 51
297.197550
  0
LINE
  8
レイヤー 1
 10
375.099994
 20
390.099994
 11
376.549994
 21
389.449994
  0
LINE
  8
レイヤー 1
 10
375.299994
 20
390.549994
 11
375.299994
 21
390.299994
  0
LINE
  8
レイヤー 1
 10
375.099994
 20
390.949994
 11
375.099994
 21
390.549994
  0
ARC
  8
レイヤー 1
 10
375.769994
 20
390.714994
 40
0.270000
 50
60.744798
 51
172.385279
  0
LINE
  8
レイヤー 1
 10
376.549994
 20
390.949994
 11
375.699994
 21
390.949994
  0
LINE
  8
レイヤー 1
 10
377.599994
 20
390.949994
 11
376.999994
 21
390.949994
  0
LINE
  8
レイヤー 1
 10
376.999994
 20
390.949994
 11
376.749994
 21
390.949994
  0
ARC
  8
レイヤー 1
 10
377.659994
 20
390.359994
 40
0.595000
 50
354.393043
 51
95.606947
  0
ARC
  8
レイヤー 1
 10
390.384994
 20
404.404994
 40
0.690000
 50
134.583079
 51
172.286785
  0
ARC
  8
レイヤー 1
 10
389.674994
 20
404.924994
 40
0.225000
 50
353.271295
 51
84.048313
  0
ARC
  8
レイヤー 1
 10
399.639994
 20
371.234994
 40
34.909999
 50
106.544640
 51
107.660794
  0
LINE
  8
レイヤー 1
 10
388.199994
 20
404.049994
 11
388.399994
 21
404.049994
  0
ARC
  8
レイヤー 1
 10
386.754994
 20
409.299994
 40
5.505000
 50
287.409974
 51
294.665063
  0
LINE
  8
レイヤー 1
 10
386.499994
 20
404.699994
 11
387.999994
 21
404.049994
  0
LINE
  8
レイヤー 1
 10
386.699994
 20
405.149994
 11
386.699994
 21
404.899994
  0
LINE
  8
レイヤー 1
 10
386.699994
 20
405.349994
 11
386.699994
 21
405.149994
  0
ARC
  8
レイヤー 1
 10
388.929994
 20
402.089994
 40
3.985000
 50
113.349244
 51
119.780832
  0
LINE
  8
レイヤー 1
 10
387.999994
 20
405.749994
 11
387.149994
 21
405.749994
  0
ARC
  8
レイヤー 1
 10
388.909994
 20
404.854994
 40
0.880000
 50
52.085863
 51
89.098327
  0
ARC
  8
レイヤー 1
 10
388.584994
 20
402.919994
 40
2.840000
 50
83.159106
 51
93.728524
  0
LINE
  8
レイヤー 1
 10
388.399994
 20
405.749994
 11
388.199994
 21
405.749994
  0
LINE
  8
レイヤー 1
 10
389.699994
 20
405.349994
 11
389.449994
 21
405.349994
  0
ARC
  8
レイヤー 1
 10
430.519994
 20
563.079992
 40
8.285000
 50
165.516672
 51
172.914694
  0
LINE
  8
レイヤー 1
 10
422.499994
 20
565.149992
 11
422.499994
 21
565.349992
  0
ARC
  8
レイヤー 1
 10
420.689994
 20
563.924992
 40
1.170000
 50
324.879674
 51
8.639289
  0
LINE
  8
レイヤー 1
 10
421.849994
 20
563.049992
 11
421.449994
 21
562.849992
  0
LINE
  8
レイヤー 1
 10
421.199994
 20
563.249992
 11
421.199994
 21
563.049992
  0
LINE
  8
レイヤー 1
 10
420.799994
 20
564.099992
 11
420.799994
 21
563.449992
  0
LINE
  8
レイヤー 1
 10
420.799994
 20
565.349992
 11
420.799994
 21
565.149992
  0
LINE
  8
レイヤー 1
 10
420.799994
 20
565.149992
 11
420.799994
 21
563.899992
  0
LINE
  8
レイヤー 1
 10
420.599994
 20
566.849992
 11
420.599994
 21
565.599992
  0
ARC
  8
レイヤー 1
 10
421.909994
 20
566.924992
 40
0.915000
 50
141.019163
 51
184.775383
  0
LINE
  8
レイヤー 1
 10
421.199994
 20
567.499992
 11
421.449994
 21
567.699992
  0
LINE
  8
レイヤー 1
 10
421.449994
 20
567.699992
 11
421.199994
 21
567.699992
  0
ARC
  8
レイヤー 1
 10
420.779994
 20
566.839992
 40
1.090000
 50
11.086747
 51
52.128250
  0
LINE
  8
レイヤー 1
 10
422.499994
 20
565.599992
 11
422.049994
 21
567.049992
  0
ARC
  8
レイヤー 1
 10
443.704993
 20
542.429992
 40
5.405000
 50
160.877354
 51
172.337614
  0
LINE
  8
レイヤー 1
 10
438.599993
 20
544.199992
 11
438.599993
 21
544.399992
  0
ARC
  8
レイヤー 1
 10
436.789993
 20
542.974992
 40
1.170000
 50
324.879674
 51
8.639289
  0
LINE
  8
レイヤー 1
 10
437.949993
 20
542.099992
 11
437.749993
 21
541.849992
  0
LINE
  8
レイヤー 1
 10
437.299993
 20
542.299992
 11
437.299993
 21
542.099992
  0
LINE
  8
レイヤー 1
 10
436.899993
 20
543.149992
 11
436.899993
 21
542.499992
  0
LINE
  8
レイヤー 1
 10
436.899993
 20
544.399992
 11
436.899993
 21
544.199992
  0
LINE
  8
レイヤー 1
 10
436.899993
 20
544.199992
 11
436.899993
 21
542.949992
  0
LINE
  8
レイヤー 1
 10
436.899993
 20
545.899992
 11
436.899993
 21
544.599992
  0
ARC
  8
レイヤー 1
 10
437.809993
 20
545.974992
 40
0.915000
 50
141.019163
 51
184.775383
  0
LINE
  8
レイヤー 1
 10
437.299993
 20
546.549992
 11
437.749993
 21
546.749992
  0
LINE
  8
レイヤー 1
 10
437.499993
 20
546.749992
 11
437.299993
 21
546.749992
  0
ARC
  8
レイヤー 1
 10
471.414993
 20
556.489992
 40
34.909999
 50
196.544670
 51
197.660824
  0
ARC
  8
レイヤー 1
 10
470.989993
 20
554.104992
 40
33.994999
 50
193.623059
 51
196.239811
  0
ARC
  8
レイヤー 1
 10
388.254994
 20
520.679992
 40
3.460000
 50
150.227437
 51
176.374039
  0
LINE
  8
レイヤー 1
 10
384.799994
 20
520.899992
 11
384.799994
 21
520.499992
  0
LINE
  8
レイヤー 1
 10
384.799994
 20
520.499992
 11
384.799994
 21
520.299992
  0
LINE
  8
レイヤー 1
 10
384.799994
 20
520.299992
 11
384.799994
 21
520.049992
  0
LINE
  8
レイヤー 1
 10
384.799994
 20
520.049992
 11
384.799994
 21
519.849992
  0
ARC
  8
レイヤー 1
 10
385.224994
 20
519.879992
 40
0.230000
 50
187.033275
 51
275.647137
  0
LINE
  8
レイヤー 1
 10
385.249994
 20
519.649992
 11
385.249994
 21
519.849992
  0
ARC
  8
レイヤー 1
 10
384.909994
 20
520.629992
 40
0.945000
 50
304.611932
 51
352.173070
  0
ARC
  8
レイヤー 1
 10
384.224994
 20
521.979992
 40
2.335000
 50
313.989564
 51
337.954859
  0
ARC
  8
レイヤー 1
 10
373.869994
 20
526.129992
 40
13.490000
 50
338.139924
 51
341.961854
  0
ARC
  8
レイヤー 1
 10
382.874994
 20
523.379992
 40
4.085000
 50
339.487871
 51
3.780359
  0
ARC
  8
レイヤー 1
 10
371.034994
 20
518.844992
 40
16.760000
 50
15.940261
 51
18.265193
  0
LINE
  8
レイヤー 1
 10
387.149994
 20
524.299992
 11
386.949994
 21
524.299992
  0
LINE
  8
レイヤー 1
 10
386.949994
 20
524.299992
 11
386.699994
 21
524.299992
  0
LINE
  8
レイヤー 1
 10
386.699994
 20
524.299992
 11
386.499994
 21
524.299992
  0
ARC
  8
レイヤー 1
 10
386.029994
 20
524.649992
 40
0.755000
 50
275.153675
 51
332.226473
  0
ARC
  8
レイヤー 1
 10
359.244995
 20
538.184992
 40
30.100000
 50
328.820193
 51
332.102249
  0
ARC
  8
レイヤー 1
 10
420.194994
 20
503.069993
 40
3.770000
 50
326.730237
 51
354.389697
  0
LINE
  8
レイヤー 1
 10
423.949994
 20
502.699993
 11
423.949994
 21
502.899993
  0
LINE
  8
レイヤー 1
 10
422.049994
 20
500.149993
 11
422.299994
 21
500.149993
  0
ARC
  8
レイヤー 1
 10
422.234994
 20
501.424993
 40
1.280000
 50
272.886727
 51
330.632246
  0
ARC
  8
レイヤー 1
 10
422.029994
 20
501.739993
 40
1.140000
 50
205.446662
 51
271.034405
  0
LINE
  8
レイヤー 1
 10
420.799994
 20
502.699993
 11
420.799994
 21
502.499993
  0
ARC
  8
レイヤー 1
 10
423.164994
 20
502.234993
 40
2.375000
 50
173.648632
 51
204.531920
  0
ARC
  8
レイヤー 1
 10
426.284994
 20
502.749993
 40
5.690000
 50
158.332178
 51
178.483434
  0
ARC
  8
レイヤー 1
 10
422.339994
 20
503.429992
 40
1.820000
 50
91.236053
 51
128.730136
  0
ARC
  8
レイヤー 1
 10
422.399994
 20
504.284992
 40
0.770000
 50
23.993328
 51
97.291152
  0
LINE
  8
レイヤー 1
 10
422.299994
 20
505.049992
 11
422.049994
 21
505.049992
  0
LINE
  8
レイヤー 1
 10
423.949994
 20
502.899993
 11
423.349994
 21
504.599992
  0
ARC
  8
レイヤー 1
 10
447.669993
 20
598.849991
 40
1.975000
 50
11.694655
 51
56.736742
  0
ARC
  8
レイヤー 1
 10
446.979993
 20
598.039991
 40
3.315000
 50
53.471065
 51
88.756744
  0
LINE
  8
レイヤー 1
 10
447.049993
 20
601.549991
 11
446.399993
 21
601.549991
  0
LINE
  8
レイヤー 1
 10
446.399993
 20
601.549991
 11
446.199993
 21
601.549991
  0
ARC
  8
レイヤー 1
 10
446.244993
 20
597.304991
 40
4.245000
 50
90.608534
 51
131.186973
  0
ARC
  8
レイヤー 1
 10
445.379993
 20
599.389991
 40
2.135000
 50
154.706413
 51
183.724993
  0
LINE
  8
レイヤー 1
 10
443.249993
 20
599.249991
 11
443.249993
 21
598.999991
  0
ARC
  8
レイヤー 1
 10
444.209993
 20
598.764991
 40
0.990000
 50
166.234709
 51
235.474203
  0
ARC
  8
レイヤー 1
 10
445.999993
 20
599.754991
 40
3.080000
 50
225.688318
 51
247.429218
  0
ARC
  8
レイヤー 1
 10
447.809993
 20
604.454991
 40
8.115000
 50
248.382934
 51
258.560434
  0
LINE
  8
レイヤー 1
 10
446.199993
 20
596.699991
 11
446.399993
 21
596.699991
  0
ARC
  8
レイヤー 1
 10
446.364993
 20
599.569991
 40
2.870000
 50
270.722425
 51
293.024614
  0
ARC
  8
レイヤー 1
 10
444.329993
 20
603.934991
 40
7.685000
 50
294.247847
 51
308.843481
  0
ARC
  8
レイヤー 1
 10
448.359993
 20
599.039991
 40
1.240000
 50
298.437034
 51
358.044013
  0
LINE
  8
レイヤー 1
 10
449.599993
 20
598.999991
 11
449.599993
 21
599.249991
  0
ARC
  8
レイヤー 1
 10
450.739993
 20
427.019994
 40
4.790000
 50
6.363936
 51
86.269879
  0
LINE
  8
レイヤー 1
 10
451.049993
 20
431.799994
 11
450.849993
 21
431.799994
  0
ARC
  8
レイヤー 1
 10
451.224993
 20
427.354994
 40
4.645000
 50
92.165775
 51
174.523223
  0
LINE
  8
レイヤー 1
 10
446.599993
 20
427.999994
 11
446.599993
 21
427.799994
  0
ARC
  8
レイヤー 1
 10
451.234993
 20
427.974994
 40
4.640000
 50
182.132173
 51
265.234032
  0
LINE
  8
レイヤー 1
 10
450.849993
 20
423.349994
 11
451.049993
 21
423.349994
  0
ARC
  8
レイヤー 1
 10
450.914993
 20
428.024994
 40
4.675000
 50
271.664175
 51
336.999486
  0
ARC
  8
レイヤー 1
 10
450.514993
 20
428.414994
 40
5.205000
 50
334.747707
 51
355.398737
  0
LINE
  8
レイヤー 1
 10
436.049994
 20
458.049993
 11
436.649993
 21
459.299993
  0
LINE
  8
レイヤー 1
 10
436.649993
 20
459.299993
 11
436.649993
 21
459.549993
  0
ARC
  8
レイヤー 1
 10
434.444994
 20
460.354993
 40
2.810000
 50
285.578061
 51
304.824201
  0
LINE
  8
レイヤー 1
 10
432.649994
 20
456.999993
 11
432.849994
 21
456.999993
  0
ARC
  8
レイヤー 1
 10
432.699994
 20
462.114993
 40
5.115000
 50
271.674299
 51
299.248153
  0
LINE
  8
レイヤー 1
 10
429.899994
 20
457.399993
 11
432.449994
 21
456.799993
  0
ARC
  8
レイヤー 1
 10
431.359994
 20
460.359993
 40
3.300000
 50
206.244378
 51
243.755652
  0
LINE
  8
レイヤー 1
 10
428.649994
 20
459.549993
 11
428.649994
 21
459.299993
  0
LINE
  8
レイヤー 1
 10
428.649994
 20
459.299993
 11
428.649994
 21
458.899993
  0
ARC
  8
レイヤー 1
 10
429.969994
 20
459.729993
 40
1.010000
 50
120.800837
 51
156.549969
  0
ARC
  8
レイヤー 1
 10
430.889994
 20
459.274993
 40
2.040000
 50
155.079895
 51
179.258664
  0
ARC
  8
レイヤー 1
 10
431.269994
 20
459.349993
 40
2.105000
 50
93.295128
 51
118.122908
  0
ARC
  8
レイヤー 1
 10
437.404993
 20
447.914993
 40
15.080000
 50
118.194477
 51
122.728502
  0
LINE
  8
レイヤー 1
 10
432.449994
 20
461.449993
 11
431.149994
 21
461.449993
  0
ARC
  8
レイヤー 1
 10
433.274994
 20
457.054993
 40
4.615000
 50
65.377881
 51
95.302315
  0
LINE
  8
レイヤー 1
 10
432.849994
 20
461.649993
 11
432.649994
 21
461.649993
  0
ARC
  8
レイヤー 1
 10
433.974994
 20
458.424993
 40
3.080000
 50
29.700424
 51
66.543826
  0
ARC
  8
レイヤー 1
 10
437.214993
 20
460.024993
 40
0.570000
 50
187.501793
 51
236.509006
  0
LINE
  8
レイヤー 1
 10
430.949994
 20
418.049994
 11
431.149994
 21
418.049994
  0
ARC
  8
レイヤー 1
 10
430.989994
 20
422.459994
 40
4.410000
 50
272.048342
 51
357.951668
  0
LINE
  8
レイヤー 1
 10
435.399994
 20
422.299994
 11
435.399994
 21
422.499994
  0
LINE
  8
レイヤー 1
 10
427.149994
 20
422.499994
 11
427.149994
 21
422.299994
  0
ARC
  8
レイヤー 1
 10
431.584994
 20
422.464994
 40
4.435000
 50
182.138206
 51
264.390415
  0
ARC
  8
レイヤー 1
 10
431.149994
 20
422.304994
 40
4.000000
 50
92.865592
 51
180.072019
  0
ARC
  8
レイヤー 1
 10
430.699994
 20
421.774994
 40
4.530000
 50
6.649635
 51
86.821764
  0
LINE
  8
レイヤー 1
 10
430.949994
 20
426.299994
 11
430.749994
 21
426.299994
  0
ARC
  8
レイヤー 1
 10
382.469994
 20
436.304993
 40
4.230000
 50
314.795935
 51
359.276524
  0
ARC
  8
レイヤー 1
 10
383.484994
 20
436.194994
 40
3.215000
 50
0.951872
 51
28.910959
  0
ARC
  8
レイヤー 1
 10
381.619994
 20
436.434993
 40
5.110000
 50
279.902915
 51
318.535592
  0
ARC
  8
レイヤー 1
 10
381.044994
 20
438.329993
 40
7.385000
 50
242.165932
 51
268.082727
  0
ARC
  8
レイヤー 1
 10
380.764994
 20
434.514994
 40
3.565000
 50
270.545745
 51
299.107232
  0
ARC
  8
レイヤー 1
 10
380.654994
 20
436.144994
 40
5.270000
 50
199.908169
 51
231.856137
  0
ARC
  8
レイヤー 1
 10
379.284994
 20
435.784994
 40
3.605000
 50
134.656922
 51
186.158519
  0
LINE
  8
レイヤー 1
 10
375.699994
 20
435.399994
 11
375.699994
 21
434.349994
  0
ARC
  8
レイヤー 1
 10
381.584994
 20
434.539994
 40
6.310000
 50
109.276060
 51
142.894058
  0
ARC
  8
レイヤー 1
 10
381.954994
 20
436.214993
 40
4.495000
 50
53.965800
 51
93.887035
  0
ARC
  8
レイヤー 1
 10
381.119994
 20
434.724994
 40
5.995000
 50
84.943528
 51
105.685542
  0
ARC
  8
レイヤー 1
 10
382.429994
 20
436.324993
 40
4.310000
 50
19.322733
 51
59.796594
  0
ARC
  8
レイヤー 1
 10
401.079994
 20
525.714992
 40
1.565000
 50
295.427566
 51
346.590454
  0
ARC
  8
レイヤー 1
 10
402.439994
 20
525.389992
 40
0.165000
 50
345.682001
 51
104.317989
  0
LINE
  8
レイヤー 1
 10
400.499994
 20
523.899992
 11
400.699994
 21
523.899992
  0
ARC
  8
レイヤー 1
 10
399.974994
 20
527.379992
 40
3.555000
 50
281.766887
 51
299.942044
  0
ARC
  8
レイヤー 1
 10
401.144994
 20
526.509992
 40
2.930000
 50
207.622512
 51
257.240333
  0
LINE
  8
レイヤー 1
 10
398.799994
 20
525.349992
 11
398.799994
 21
525.149992
  0
ARC
  8
レイヤー 1
 10
399.929994
 20
525.399992
 40
1.130000
 50
117.924794
 51
182.585450
  0
ARC
  8
レイヤー 1
 10
400.319994
 20
524.704992
 40
2.150000
 50
85.248251
 51
115.361420
  0
ARC
  8
レイヤー 1
 10
400.769994
 20
525.064992
 40
1.985000
 50
34.838995
 51
92.030888
  0
LINE
  8
レイヤー 1
 10
400.699994
 20
527.049992
 11
400.499994
 21
527.049992
  0
LINE
  8
レイヤー 1
 10
402.399994
 20
525.349992
 11
402.399994
 21
525.549992
  0
ARC
  8
レイヤー 1
 10
421.824994
 20
578.384991
 40
0.635000
 50
126.253970
 51
169.735231
  0
ARC
  8
レイヤー 1
 10
421.264994
 20
578.924991
 40
0.185000
 50
352.469030
 51
110.211342
  0
ARC
  8
レイヤー 1
 10
420.329994
 20
579.109991
 40
1.060000
 50
270.985987
 51
324.808568
  0
ARC
  8
レイヤー 1
 10
419.139994
 20
580.414991
 40
2.570000
 50
273.579328
 51
304.607672
  0
LINE
  8
レイヤー 1
 10
418.249994
 20
577.449991
 11
418.449994
 21
577.449991
  0
ARC
  8
レイヤー 1
 10
421.754994
 20
562.399992
 40
15.410000
 50
98.225630
 51
102.384041
  0
ARC
  8
レイヤー 1
 10
418.189994
 20
582.134991
 40
4.575000
 50
237.019909
 51
254.039517
  0
ARC
  8
レイヤー 1
 10
423.399994
 20
600.429991
 40
23.595000
 50
254.090099
 51
256.894611
  0
LINE
  8
レイヤー 1
 10
415.499994
 20
579.349991
 11
415.499994
 21
579.099991
  0
ARC
  8
レイヤー 1
 10
416.274994
 20
579.009991
 40
0.780000
 50
173.331657
 51
245.383843
  0
LINE
  8
レイヤー 1
 10
415.499994
 20
579.549991
 11
415.499994
 21
579.099991
  0
LINE
  8
レイヤー 1
 10
416.149994
 20
579.749991
 11
415.699994
 21
579.349991
  0
ARC
  8
レイヤー 1
 10
418.449994
 20
572.624991
 40
7.675000
 50
99.360507
 51
107.424465
  0
LINE
  8
レイヤー 1
 10
418.249994
 20
580.199991
 11
416.999994
 21
580.199991
  0
ARC
  8
レイヤー 1
 10
419.239994
 20
577.884991
 40
2.475000
 50
56.669526
 51
80.519124
  0
ARC
  8
レイヤー 1
 10
418.629994
 20
573.849991
 40
6.550000
 50
81.074334
 51
91.589529
  0
LINE
  8
レイヤー 1
 10
418.449994
 20
580.399991
 11
418.249994
 21
580.399991
  0
ARC
  8
レイヤー 1
 10
420.214994
 20
578.959991
 40
0.990000
 50
356.425020
 51
38.353309
  0
ARC
  8
レイヤー 1
 10
420.604994
 20
579.239991
 40
0.510000
 50
41.133431
 51
90.468494
  0
ARC
  8
レイヤー 1
 10
438.029993
 20
591.569991
 40
1.170000
 50
299.132346
 51
1.377898
  0
LINE
  8
レイヤー 1
 10
439.199993
 20
591.599991
 11
439.199993
 21
591.799991
  0
ARC
  8
レイヤー 1
 10
438.109993
 20
590.509991
 40
0.165000
 50
165.681966
 51
284.318024
  0
ARC
  8
レイヤー 1
 10
438.624993
 20
589.879991
 40
0.670000
 50
92.352593
 51
135.572360
  0
ARC
  8
レイヤー 1
 10
437.709993
 20
590.774991
 40
0.210000
 50
186.892112
 51
267.538749
  0
ARC
  8
レイヤー 1
 10
437.864993
 20
591.264991
 40
0.720000
 50
256.959001
 51
276.860795
  0
LINE
  8
レイヤー 1
 10
437.299993
 20
591.799991
 11
437.299993
 21
591.599991
  0
ARC
  8
レイヤー 1
 10
438.174993
 20
591.519991
 40
0.880000
 50
174.691395
 51
241.103140
  0
ARC
  8
レイヤー 1
 10
438.739993
 20
592.054991
 40
1.440000
 50
133.463310
 51
180.139515
  0
LINE
  8
レイヤー 1
 10
437.949993
 20
593.099991
 11
437.499993
 21
593.099991
  0
ARC
  8
レイヤー 1
 10
438.244993
 20
592.179991
 40
0.725000
 50
40.335732
 51
97.589231
  0
LINE
  8
レイヤー 1
 10
438.149993
 20
592.899991
 11
437.949993
 21
592.899991
  0
ARC
  8
レイヤー 1
 10
439.739993
 20
592.564991
 40
0.745000
 50
173.350620
 51
223.519274
  0
LINE
  8
レイヤー 1
 10
458.699993
 20
578.499991
 11
459.299993
 21
579.749991
  0
LINE
  8
レイヤー 1
 10
459.299993
 20
579.749991
 11
459.299993
 21
579.949991
  0
ARC
  8
レイヤー 1
 10
458.009993
 20
578.459991
 40
0.165000
 50
165.681966
 51
284.318024
  0
ARC
  8
レイヤー 1
 10
458.484993
 20
577.929991
 40
0.570000
 50
93.441120
 51
139.688957
  0
ARC
  8
レイヤー 1
 10
458.009993
 20
579.309991
 40
0.615000
 50
176.424946
 51
273.575044
  0
LINE
  8
レイヤー 1
 10
457.199993
 20
579.949991
 11
457.199993
 21
579.749991
  0
LINE
  8
レイヤー 1
 10
457.199993
 20
579.749991
 11
457.199993
 21
579.349991
  0
ARC
  8
レイヤー 1
 10
458.664993
 20
580.164991
 40
1.665000
 50
139.437834
 51
178.853215
  0
LINE
  8
レイヤー 1
 10
457.849993
 20
581.249991
 11
457.399993
 21
581.249991
  0
LINE
  8
レイヤー 1
 10
458.249993
 20
581.249991
 11
458.049993
 21
581.249991
  0
LINE
  8
レイヤー 1
 10
458.049993
 20
581.249991
 11
457.849993
 21
581.249991
  0
ARC
  8
レイヤー 1
 10
457.209993
 20
579.364991
 40
1.980000
 50
17.146187
 51
58.242285
  0
ARC
  8
レイヤー 1
 10
439.719993
 20
556.854992
 40
1.930000
 50
285.925848
 51
314.771212
  0
ARC
  8
レイヤー 1
 10
440.494993
 20
556.114992
 40
0.855000
 50
312.935729
 51
355.799937
  0
ARC
  8
レイヤー 1
 10
441.164993
 20
556.074992
 40
0.185000
 50
352.469030
 51
110.211342
  0
LINE
  8
レイヤー 1
 10
438.999993
 20
554.549992
 11
439.199993
 21
554.549992
  0
ARC
  8
レイヤー 1
 10
438.919993
 20
557.469992
 40
2.930000
 50
275.521834
 51
302.665166
  0
LINE
  8
レイヤー 1
 10
437.499993
 20
555.199992
 11
438.999993
 21
554.549992
  0
LINE
  8
レイヤー 1
 10
437.099993
 20
556.249992
 11
437.099993
 21
556.049992
  0
ARC
  8
レイヤー 1
 10
437.989993
 20
555.964992
 40
0.890000
 50
174.686908
 51
219.518546
  0
LINE
  8
レイヤー 1
 10
437.299993
 20
556.699992
 11
437.299993
 21
556.249992
  0
LINE
  8
レイヤー 1
 10
437.749993
 20
557.099992
 11
437.299993
 21
556.699992
  0
ARC
  8
レイヤー 1
 10
438.814993
 20
555.409992
 40
1.900000
 50
84.433611
 51
117.134962
  0
ARC
  8
レイヤー 1
 10
439.409993
 20
555.674992
 40
1.640000
 50
48.389866
 51
97.404660
  0
LINE
  8
レイヤー 1
 10
439.199993
 20
557.299992
 11
438.999993
 21
557.299992
  0
ARC
  8
レイヤー 1
 10
440.404993
 20
556.444992
 40
0.720000
 50
344.491895
 51
65.910347
  0
ARC
  8
レイヤー 1
 10
456.244993
 20
562.264992
 40
6.915000
 50
321.397297
 51
336.995212
  0
ARC
  8
レイヤー 1
 10
459.314993
 20
560.974992
 40
3.585000
 50
336.813836
 51
358.827669
  0
LINE
  8
レイヤー 1
 10
462.899993
 20
560.899992
 11
462.899993
 21
561.149992
  0
LINE
  8
レイヤー 1
 10
459.749993
 20
557.299992
 11
459.949993
 21
557.299992
  0
ARC
  8
レイヤー 1
 10
459.889993
 20
559.174992
 40
1.875000
 50
271.809403
 51
298.779681
  0
ARC
  8
レイヤー 1
 10
458.664993
 20
561.379992
 40
4.400000
 50
298.970891
 51
312.769815
  0
ARC
  8
レイヤー 1
 10
460.494993
 20
560.444992
 40
3.190000
 50
206.897628
 51
260.163931
  0
LINE
  8
レイヤー 1
 10
456.999993
 20
561.149992
 11
456.999993
 21
560.899992
  0
ARC
  8
レイヤー 1
 10
461.329993
 20
560.634992
 40
4.340000
 50
176.523442
 51
205.045151
  0
ARC
  8
レイヤー 1
 10
462.699993
 20
561.054992
 40
5.510000
 50
143.893146
 51
176.922255
  0
ARC
  8
レイヤー 1
 10
459.964993
 20
562.164992
 40
2.585000
 50
90.311592
 51
131.537387
  0
ARC
  8
レイヤー 1
 10
460.059993
 20
562.689992
 40
2.260000
 50
45.363934
 51
87.778665
  0
LINE
  8
レイヤー 1
 10
460.149993
 20
564.949992
 11
459.949993
 21
564.949992
  0
ARC
  8
レイヤー 1
 10
457.369993
 20
560.414992
 40
5.855000
 50
9.167345
 51
26.977972
  0
ARC
  8
レイヤー 1
 10
459.764993
 20
561.599992
 40
3.185000
 50
27.609737
 51
58.078786
  0
LINE
  8
レイヤー 1
 10
414.649994
 20
568.749992
 11
414.849994
 21
568.949992
  0
ARC
  8
レイヤー 1
 10
414.124994
 20
568.899992
 40
0.725000
 50
4.093769
 51
43.831204
  0
LINE
  8
レイヤー 1
 10
413.799994
 20
568.349992
 11
414.649994
 21
568.749992
  0
LINE
  8
レイヤー 1
 10
412.549994
 20
568.099992
 11
412.749994
 21
568.099992
  0
ARC
  8
レイヤー 1
 10
417.359994
 20
551.074992
 40
17.635000
 50
101.638947
 51
105.146026
  0
ARC
  8
レイヤー 1
 10
411.294994
 20
566.109992
 40
2.250000
 50
62.013534
 51
96.215394
  0
ARC
  8
レイヤー 1
 10
410.804994
 20
569.064992
 40
0.420000
 50
196.166443
 51
247.633746
  0
ARC
  8
レイヤー 1
 10
411.099994
 20
569.409992
 40
0.860000
 50
238.112219
 51
266.788327
  0
LINE
  8
レイヤー 1
 10
410.399994
 20
569.199992
 11
410.399994
 21
568.949992
  0
LINE
  8
レイヤー 1
 10
410.399994
 20
569.399992
 11
410.399994
 21
569.199992
  0
ARC
  8
レイヤー 1
 10
415.454994
 20
553.684992
 40
16.760000
 50
105.940251
 51
108.265183
  0
ARC
  8
レイヤー 1
 10
412.089994
 20
567.354992
 40
2.660000
 50
84.427375
 51
113.064928
  0
LINE
  8
レイヤー 1
 10
413.799994
 20
569.799992
 11
412.749994
 21
569.799992
  0
LINE
  8
レイヤー 1
 10
412.749994
 20
569.799992
 11
412.549994
 21
569.799992
  0
ARC
  8
レイヤー 1
 10
413.899994
 20
568.974992
 40
0.830000
 50
48.720529
 51
97.073996
  0
LINE
  8
レイヤー 1
 10
414.649994
 20
569.399992
 11
414.449994
 21
569.399992
  0
ARC
  8
レイヤー 1
 10
419.784994
 20
514.704992
 40
0.690000
 50
134.583079
 51
172.286785
  0
ARC
  8
レイヤー 1
 10
419.139994
 20
515.239992
 40
0.165000
 50
345.682001
 51
104.317989
  0
ARC
  8
レイヤー 1
 10
417.499994
 20
516.014992
 40
2.010000
 50
291.975364
 51
322.835361
  0
ARC
  8
レイヤー 1
 10
417.179994
 20
516.984992
 40
3.045000
 50
274.190646
 51
300.014828
  0
LINE
  8
レイヤー 1
 10
416.149994
 20
513.699992
 11
416.349994
 21
513.699992
  0
ARC
  8
レイヤー 1
 10
420.959994
 20
496.674993
 40
17.635000
 50
101.638947
 51
105.146026
  0
ARC
  8
レイヤー 1
 10
416.649994
 20
519.969992
 40
6.220000
 50
240.645667
 51
254.850390
  0
ARC
  8
レイヤー 1
 10
421.259994
 20
533.824992
 40
20.815000
 50
252.564552
 51
255.219037
  0
LINE
  8
レイヤー 1
 10
413.399994
 20
515.599992
 11
413.399994
 21
515.399992
  0
ARC
  8
レイヤー 1
 10
414.299994
 20
515.304992
 40
0.905000
 50
173.895422
 51
236.506820
  0
ARC
  8
レイヤー 1
 10
413.424994
 20
515.639992
 40
0.210000
 50
96.892082
 51
177.538720
  0
ARC
  8
レイヤー 1
 10
413.914994
 20
515.484992
 40
0.720000
 50
166.958951
 51
186.860825
  0
ARC
  8
レイヤー 1
 10
413.849994
 20
515.599992
 40
0.450000
 50
96.554424
 51
180.178506
  0
ARC
  8
レイヤー 1
 10
416.389994
 20
509.224992
 40
7.485000
 50
93.386587
 51
110.256368
  0
ARC
  8
レイヤー 1
 10
416.699994
 20
513.394992
 40
3.075000
 50
59.710696
 51
96.511971
  0
LINE
  8
レイヤー 1
 10
416.349994
 20
516.449992
 11
416.149994
 21
516.449992
  0
ARC
  8
レイヤー 1
 10
418.199994
 20
515.349992
 40
0.905000
 50
3.265193
 51
86.734797
  0
ARC
  8
レイヤー 1
 10
435.994994
 20
527.654992
 40
1.105000
 50
294.228041
 51
2.253006
  0
LINE
  8
レイヤー 1
 10
437.099993
 20
527.699992
 11
437.099993
 21
527.899992
  0
ARC
  8
レイヤー 1
 10
436.269993
 20
526.619992
 40
0.220000
 50
171.907396
 51
265.412212
  0
LINE
  8
レイヤー 1
 10
436.249993
 20
526.399992
 11
436.249993
 21
526.649992
  0
ARC
  8
レイヤー 1
 10
435.974994
 20
527.219992
 40
0.575000
 50
176.817909
 51
277.763301
  0
LINE
  8
レイヤー 1
 10
435.199994
 20
527.899992
 11
435.199994
 21
527.699992
  0
LINE
  8
レイヤー 1
 10
435.199994
 20
527.699992
 11
435.199994
 21
527.249992
  0
ARC
  8
レイヤー 1
 10
436.964993
 20
528.104992
 40
1.565000
 50
138.127431
 51
180.163657
  0
LINE
  8
レイヤー 1
 10
436.049994
 20
529.149992
 11
435.599994
 21
529.149992
  0
LINE
  8
レイヤー 1
 10
436.449993
 20
529.149992
 11
436.249993
 21
529.149992
  0
LINE
  8
レイヤー 1
 10
436.249993
 20
529.149992
 11
436.049994
 21
529.149992
  0
LINE
  8
レイヤー 1
 10
436.899993
 20
528.749992
 11
436.449993
 21
529.149992
  0
ARC
  8
レイヤー 1
 10
437.884993
 20
528.434992
 40
0.795000
 50
171.739394
 51
222.466060
  0
ARC
  8
レイヤー 1
 10
455.594993
 20
516.089992
 40
1.605000
 50
306.516410
 51
358.534733
  0
LINE
  8
レイヤー 1
 10
457.199993
 20
516.049992
 11
457.199993
 21
516.249992
  0
ARC
  8
レイヤー 1
 10
455.894993
 20
514.744992
 40
0.200000
 50
163.585507
 51
286.414484
  0
ARC
  8
レイヤー 1
 10
456.404993
 20
514.269992
 40
0.535000
 50
95.833153
 51
148.177586
  0
ARC
  8
レイヤー 1
 10
455.874993
 20
515.569992
 40
0.575000
 50
176.817909
 51
277.763301
  0
LINE
  8
レイヤー 1
 10
455.099993
 20
516.249992
 11
455.099993
 21
516.049992
  0
LINE
  8
レイヤー 1
 10
455.099993
 20
516.049992
 11
455.099993
 21
515.599992
  0
ARC
  8
レイヤー 1
 10
456.664993
 20
516.254992
 40
1.565000
 50
138.127431
 51
180.163657
  0
LINE
  8
レイヤー 1
 10
455.699993
 20
517.549992
 11
455.299993
 21
517.549992
  0
LINE
  8
レイヤー 1
 10
456.149993
 20
517.549992
 11
455.949993
 21
517.549992
  0
LINE
  8
レイヤー 1
 10
455.949993
 20
517.549992
 11
455.699993
 21
517.549992
  0
ARC
  8
レイヤー 1
 10
455.139993
 20
515.609992
 40
1.970000
 50
18.924739
 51
59.057241
  0
ARC
  8
レイヤー 1
 10
437.709993
 20
492.984993
 40
1.740000
 50
284.714540
 51
316.003926
  0
ARC
  8
レイヤー 1
 10
438.334993
 20
492.374993
 40
0.865000
 50
316.201053
 51
358.493332
  0
ARC
  8
レイヤー 1
 10
439.039993
 20
492.389993
 40
0.165000
 50
345.682001
 51
104.317989
  0
LINE
  8
レイヤー 1
 10
436.899993
 20
490.849993
 11
437.099993
 21
490.849993
  0
ARC
  8
レイヤー 1
 10
436.929993
 20
493.284993
 40
2.440000
 50
274.008381
 51
305.589388
  0
ARC
  8
レイヤー 1
 10
437.749993
 20
494.099993
 40
3.360000
 50
225.598956
 51
255.323505
  0
LINE
  8
レイヤー 1
 10
435.199994
 20
492.549993
 11
435.199994
 21
492.349993
  0
ARC
  8
レイヤー 1
 10
435.964994
 20
492.229993
 40
0.775000
 50
170.997105
 51
223.208350
  0
ARC
  8
レイヤー 1
 10
436.369993
 20
492.379993
 40
1.170000
 50
119.132308
 51
181.377936
  0
ARC
  8
レイヤー 1
 10
436.719993
 20
491.654993
 40
2.150000
 50
85.248251
 51
115.361420
  0
ARC
  8
レイヤー 1
 10
437.314993
 20
492.109993
 40
1.505000
 50
46.388203
 51
98.122438
  0
LINE
  8
レイヤー 1
 10
437.099993
 20
493.599993
 11
436.899993
 21
493.599993
  0
ARC
  8
レイヤー 1
 10
437.824993
 20
492.349993
 40
1.175000
 50
359.989538
 51
63.529415
  0
ARC
  8
レイヤー 1
 10
456.874993
 20
497.324993
 40
3.930000
 50
312.942848
 51
358.169247
  0
LINE
  8
レイヤー 1
 10
460.799993
 20
497.199993
 11
460.799993
 21
497.399993
  0
LINE
  8
レイヤー 1
 10
457.849993
 20
493.599993
 11
458.049993
 21
493.599993
  0
ARC
  8
レイヤー 1
 10
457.939993
 20
495.914993
 40
2.315000
 50
272.773148
 51
314.084252
  0
ARC
  8
レイヤー 1
 10
458.459993
 20
496.919993
 40
3.375000
 50
208.667067
 51
259.568686
  0
LINE
  8
レイヤー 1
 10
455.099993
 20
497.399993
 11
455.099993
 21
497.199993
  0
ARC
  8
レイヤー 1
 10
461.154993
 20
497.479993
 40
6.060000
 50
182.670861
 51
201.106492
  0
ARC
  8
レイヤー 1
 10
460.169993
 20
497.309993
 40
5.070000
 50
142.444680
 51
178.975192
  0
ARC
  8
レイヤー 1
 10
457.789993
 20
498.464993
 40
2.535000
 50
88.627086
 51
130.252960
  0
ARC
  8
レイヤー 1
 10
457.909993
 20
498.469993
 40
2.535000
 50
49.616194
 51
86.780972
  0
LINE
  8
レイヤー 1
 10
458.049993
 20
500.999993
 11
457.849993
 21
500.999993
  0
ARC
  8
レイヤー 1
 10
456.899993
 20
497.249993
 40
4.120000
 50
5.541541
 51
54.365669
  0
LINE
  8
レイヤー 1
 10
412.749994
 20
505.049992
 11
412.949994
 21
505.249992
  0
ARC
  8
レイヤー 1
 10
412.264994
 20
505.154992
 40
0.690000
 50
7.713196
 51
45.416901
  0
ARC
  8
レイヤー 1
 10
411.874994
 20
505.569992
 40
0.985000
 50
259.671018
 51
313.108079
  0
LINE
  8
レイヤー 1
 10
410.399994
 20
504.399992
 11
410.649994
 21
504.399992
  0
ARC
  8
レイヤー 1
 10
402.729994
 20
557.894992
 40
54.079999
 50
278.419658
 51
279.760914
  0
ARC
  8
レイヤー 1
 10
409.214994
 20
502.034993
 40
2.375000
 50
65.468109
 51
96.351319
  0
ARC
  8
レイヤー 1
 10
409.199994
 20
505.719992
 40
1.125000
 50
216.736478
 51
267.469006
  0
LINE
  8
レイヤー 1
 10
408.099994
 20
505.449992
 11
408.099994
 21
505.249992
  0
LINE
  8
レイヤー 1
 10
408.299994
 20
505.449992
 11
408.299994
 21
505.249992
  0
ARC
  8
レイヤー 1
 10
410.594994
 20
500.649993
 40
5.505000
 50
107.409954
 51
114.665044
  0
ARC
  8
レイヤー 1
 10
409.934994
 20
503.734992
 40
2.375000
 50
83.648661
 51
114.531871
  0
LINE
  8
レイヤー 1
 10
411.699994
 20
505.899992
 11
410.649994
 21
505.899992
  0
LINE
  8
レイヤー 1
 10
410.649994
 20
505.899992
 11
410.399994
 21
505.899992
  0
ARC
  8
レイヤー 1
 10
411.769994
 20
505.114992
 40
0.790000
 50
42.782834
 51
95.142128
  0
LINE
  8
レイヤー 1
 10
412.549994
 20
505.449992
 11
412.349994
 21
505.449992
  0
ARC
  8
レイヤー 1
 10
358.409995
 20
538.474992
 40
11.590000
 50
340.719030
 51
0.115083
  0
LINE
  8
レイヤー 1
 10
369.999994
 20
538.499992
 11
369.999994
 21
538.699992
  0
ARC
  8
レイヤー 1
 10
366.354995
 20
534.694992
 40
2.995000
 50
330.040199
 51
359.115481
  0
LINE
  8
レイヤー 1
 10
368.299995
 20
532.349992
 11
368.949995
 21
532.999992
  0
ARC
  8
レイヤー 1
 10
367.609995
 20
532.309992
 40
0.165000
 50
165.681966
 51
284.318024
  0
ARC
  8
レイヤー 1
 10
367.509995
 20
533.104992
 40
0.965000
 50
278.299854
 51
324.915164
  0
LINE
  8
レイヤー 1
 10
367.049995
 20
532.149992
 11
367.449995
 21
532.149992
  0
ARC
  8
レイヤー 1
 10
367.254995
 20
533.179992
 40
0.855000
 50
178.589451
 51
256.221254
  0
ARC
  8
レイヤー 1
 10
367.164995
 20
534.034992
 40
1.415000
 50
179.427903
 51
226.969273
  0
ARC
  8
レイヤー 1
 10
361.844995
 20
533.754992
 40
3.915000
 50
4.349299
 51
26.495020
  0
LINE
  8
レイヤー 1
 10
365.349995
 20
538.699992
 11
365.349995
 21
538.499992
  0
ARC
  8
レイヤー 1
 10
375.864994
 20
537.879992
 40
10.530000
 50
176.638342
 51
191.680941
  0
ARC
  8
レイヤー 1
 10
389.844994
 20
538.504992
 40
24.695000
 50
169.633223
 51
179.085640
  0
ARC
  8
レイヤー 1
 10
368.184995
 20
542.584992
 40
2.440000
 50
144.527071
 51
177.285909
  0
LINE
  8
レイヤー 1
 10
366.799995
 20
544.849992
 11
366.199995
 21
544.199992
  0
ARC
  8
レイヤー 1
 10
367.379995
 20
544.059992
 40
0.790000
 50
84.952131
 51
137.122866
  0
LINE
  8
レイヤー 1
 10
367.899995
 20
545.049992
 11
367.649995
 21
545.049992
  0
LINE
  8
レイヤー 1
 10
367.649995
 20
545.049992
 11
367.449995
 21
545.049992
  0
ARC
  8
レイヤー 1
 10
367.819995
 20
543.864992
 40
0.985000
 50
19.772010
 51
85.417265
  0
ARC
  8
レイヤー 1
 10
367.044995
 20
542.414992
 40
2.305000
 50
23.988621
 51
50.822084
  0
ARC
  8
レイヤー 1
 10
366.249995
 20
541.824992
 40
3.100000
 50
0.438441
 51
29.424390
  0
ARC
  8
レイヤー 1
 10
334.164995
 20
534.944992
 40
36.054999
 50
6.301446
 51
11.044900
  0
ARC
  8
レイヤー 1
 10
413.039994
 20
403.539994
 40
2.260000
 50
315.363944
 51
357.778675
  0
ARC
  8
レイヤー 1
 10
412.619994
 20
403.389994
 40
2.680000
 50
1.257270
 51
46.947194
  0
ARC
  8
レイヤー 1
 10
409.194994
 20
405.504994
 40
6.785000
 50
303.581263
 51
326.418747
  0
ARC
  8
レイヤー 1
 10
408.569994
 20
404.334994
 40
6.075000
 50
279.746908
 51
295.040658
  0
ARC
  8
レイヤー 1
 10
404.219994
 20
413.254994
 40
16.000000
 50
295.643974
 51
303.075514
  0
ARC
  8
レイヤー 1
 10
316.774995
 20
825.044988
 40
436.814993
 50
281.953914
 51
282.235618
  0
ARC
  8
レイヤー 1
 10
402.044994
 20
396.924994
 40
0.295000
 50
184.996067
 51
290.993194
  0
ARC
  8
レイヤー 1
 10
402.029994
 20
408.594994
 40
11.945000
 50
270.575205
 51
296.988006
  0
ARC
  8
レイヤー 1
 10
401.949994
 20
403.644994
 40
6.995000
 50
245.050505
 51
268.352377
  0
LINE
  8
レイヤー 1
 10
397.499994
 20
400.499994
 11
397.499994
 21
400.049994
  0
ARC
  8
レイヤー 1
 10
400.759994
 20
400.164994
 40
3.265000
 50
182.022061
 51
241.425178
  0
ARC
  8
レイヤー 1
 10
398.469994
 20
402.949994
 40
1.325000
 50
137.148665
 51
169.551985
  0
ARC
  8
レイヤー 1
 10
402.179994
 20
402.339994
 40
5.080000
 50
170.360998
 51
182.120538
  0
ARC
  8
レイヤー 1
 10
399.849994
 20
401.944994
 40
2.760000
 50
175.703475
 51
211.550512
  0
ARC
  8
レイヤー 1
 10
400.874994
 20
402.174994
 40
3.950000
 50
115.110653
 51
154.889317
  0
ARC
  8
レイヤー 1
 10
406.109994
 20
396.324994
 40
11.685000
 50
97.915973
 51
126.244893
  0
LINE
  8
レイヤー 1
 10
410.199994
 20
408.949994
 11
409.999994
 21
408.949994
  0
ARC
  8
レイヤー 1
 10
409.619994
 20
396.004994
 40
12.950000
 50
88.324974
 51
113.291466
  0
ARC
  8
レイヤー 1
 10
409.984994
 20
400.269994
 40
8.685000
 50
71.418140
 51
88.565882
  0
ARC
  8
レイヤー 1
 10
411.464994
 20
405.454994
 40
3.385000
 50
1.567313
 51
64.001241
  0
ARC
  8
レイヤー 1
 10
426.924994
 20
379.159994
 40
2.685000
 50
283.452984
 51
340.187367
  0
ARC
  8
レイヤー 1
 10
427.189994
 20
380.134994
 40
3.585000
 50
240.981476
 51
269.365587
  0
ARC
  8
レイヤー 1
 10
427.584994
 20
376.179994
 40
0.570000
 50
93.441120
 51
139.688957
  0
ARC
  8
レイヤー 1
 10
427.829994
 20
384.404994
 40
8.015000
 50
219.546997
 51
252.725649
  0
ARC
  8
レイヤー 1
 10
426.359994
 20
387.294994
 40
9.355000
 50
217.129072
 51
241.190242
  0
ARC
  8
レイヤー 1
 10
424.219994
 20
385.469994
 40
6.550000
 50
193.406920
 51
215.668572
  0
ARC
  8
レイヤー 1
 10
420.449994
 20
384.214994
 40
2.600000
 50
126.593919
 51
180.275984
  0
LINE
  8
レイヤー 1
 10
417.849994
 20
384.199994
 11
417.849994
 21
383.949994
  0
ARC
  8
レイヤー 1
 10
420.639994
 20
385.714994
 40
1.835000
 50
91.249636
 51
161.403988
  0
ARC
  8
レイヤー 1
 10
421.674994
 20
384.944994
 40
2.615000
 50
66.895514
 51
94.923914
  0
LINE
  8
レイヤー 1
 10
421.449994
 20
387.549994
 11
420.599994
 21
387.549994
  0
ARC
  8
レイヤー 1
 10
419.059994
 20
377.429994
 40
10.755000
 50
44.739092
 51
70.225875
  0
ARC
  8
レイヤー 1
 10
421.679994
 20
376.039994
 40
10.395000
 50
33.979971
 51
62.379679
  0
LINE
  8
レイヤー 1
 10
430.949994
 20
379.949994
 11
430.299994
 21
381.849994
  0
ARC
  8
レイヤー 1
 10
427.969994
 20
380.549994
 40
3.040000
 50
304.676262
 51
348.642330
  0
ARC
  8
レイヤー 1
 10
403.579994
 20
368.809995
 40
4.070000
 50
334.370755
 51
359.148208
  0
ARC
  8
レイヤー 1
 10
397.539994
 20
367.369995
 40
10.205000
 50
7.782122
 51
13.786471
  0
ARC
  8
レイヤー 1
 10
404.889994
 20
367.324995
 40
2.560000
 50
327.503837
 51
358.290709
  0
ARC
  8
レイヤー 1
 10
405.549994
 20
366.929995
 40
1.795000
 50
276.416829
 51
326.798188
  0
LINE
  8
レイヤー 1
 10
405.349994
 20
365.349995
 11
405.749994
 21
365.349995
  0
ARC
  8
レイヤー 1
 10
404.869994
 20
366.319995
 40
1.170000
 50
209.132356
 51
271.377908
  0
LINE
  8
レイヤー 1
 10
404.899994
 20
365.149995
 11
404.899994
 21
365.349995
  0
ARC
  8
レイヤー 1
 10
409.659994
 20
367.694995
 40
6.195000
 50
193.956418
 51
200.249075
  0
ARC
  8
レイヤー 1
 10
404.854994
 20
367.484995
 40
1.625000
 50
188.398433
 51
222.003848
  0
LINE
  8
レイヤー 1
 10
402.999994
 20
369.999994
 11
402.999994
 21
368.949995
  0
ARC
  8
レイヤー 1
 10
407.214994
 20
368.699995
 40
4.220000
 50
176.624169
 51
200.107601
  0
ARC
  8
レイヤー 1
 10
407.349994
 20
371.544994
 40
4.335000
 50
161.084532
 51
178.298917
  0
ARC
  8
レイヤー 1
 10
413.154994
 20
370.984994
 40
10.160000
 50
176.119373
 51
181.892918
  0
LINE
  8
レイヤー 1
 10
402.999994
 20
370.649994
 11
402.999994
 21
369.999994
  0
LINE
  8
レイヤー 1
 10
403.849994
 20
373.799994
 11
403.249994
 21
372.949994
  0
ARC
  8
レイヤー 1
 10
404.899994
 20
373.274994
 40
1.175000
 50
89.989528
 51
153.529405
  0
LINE
  8
レイヤー 1
 10
405.149994
 20
374.249994
 11
404.899994
 21
374.249994
  0
LINE
  8
レイヤー 1
 10
404.899994
 20
374.249994
 11
404.699994
 21
374.249994
  0
LINE
  8
レイヤー 1
 10
406.199994
 20
374.449994
 11
405.999994
 21
374.449994
  0
LINE
  8
レイヤー 1
 10
405.999994
 20
374.449994
 11
405.349994
 21
374.449994
  0
ARC
  8
レイヤー 1
 10
406.234994
 20
373.514994
 40
0.950000
 50
30.750563
 51
79.859118
  0
LINE
  8
レイヤー 1
 10
407.249994
 20
372.749994
 11
406.849994
 21
373.599994
  0
ARC
  8
レイヤー 1
 10
450.699993
 20
360.274995
 40
44.329999
 50
166.195126
 51
167.323798
  0
ARC
  8
レイヤー 1
 10
401.349994
 20
370.739994
 40
6.300000
 50
1.018267
 51
20.550326
  0
ARC
  8
レイヤー 1
 10
374.619994
 20
372.814994
 40
2.615000
 50
270.623898
 51
294.242762
  0
ARC
  8
レイヤー 1
 10
372.774994
 20
376.609994
 40
6.835000
 50
295.314411
 51
305.573790
  0
ARC
  8
レイヤー 1
 10
379.579994
 20
419.094994
 40
49.434999
 50
261.528345
 51
263.282390
  0
ARC
  8
レイヤー 1
 10
364.074995
 20
413.249994
 40
44.329999
 50
282.676192
 51
283.804864
  0
ARC
  8
レイヤー 1
 10
374.874994
 20
380.819994
 40
10.675000
 50
225.920885
 51
257.410656
  0
ARC
  8
レイヤー 1
 10
373.839994
 20
381.074994
 40
10.310000
 50
198.242609
 51
230.255489
  0
LINE
  8
レイヤー 1
 10
364.049995
 20
380.149994
 11
364.049995
 21
379.499994
  0
ARC
  8
レイヤー 1
 10
367.959995
 20
379.249994
 40
3.920000
 50
176.325200
 51
200.906095
  0
ARC
  8
レイヤー 1
 10
367.704995
 20
379.759994
 40
3.660000
 50
145.192390
 51
177.035400
  0
ARC
  8
レイヤー 1
 10
366.444995
 20
380.949994
 40
1.950000
 50
91.308209
 51
117.989786
  0
ARC
  8
レイヤー 1
 10
367.129995
 20
379.679994
 40
3.395000
 50
118.108217
 51
135.673983
  0
LINE
  8
レイヤー 1
 10
368.749995
 20
382.899994
 11
367.649995
 21
382.899994
  0
LINE
  8
レイヤー 1
 10
367.649995
 20
382.899994
 11
366.399995
 21
382.899994
  0
ARC
  8
レイヤー 1
 10
368.384995
 20
376.389994
 40
6.390000
 50
58.738872
 51
73.720691
  0
ARC
  8
レイヤー 1
 10
365.594995
 20
366.149995
 40
16.995000
 50
74.371279
 51
80.164284
  0
ARC
  8
レイヤー 1
 10
369.514994
 20
375.624994
 40
6.230000
 50
46.550861
 51
61.158066
  0
ARC
  8
レイヤー 1
 10
363.469995
 20
365.954995
 40
17.630000
 50
59.115891
 51
62.907401
  0
ARC
  8
レイヤー 1
 10
364.304995
 20
369.874994
 40
13.990000
 50
22.811616
 51
47.251663
  0
ARC
  8
レイヤー 1
 10
377.169994
 20
373.379994
 40
0.230000
 50
277.582072
 51
5.098320
  0
ARC
  8
レイヤー 1
 10
371.099994
 20
373.289994
 40
6.300000
 50
1.018267
 51
20.550326
  0
ARC
  8
レイヤー 1
 10
372.194994
 20
374.114994
 40
5.490000
 50
326.056195
 51
349.871356
  0
ARC
  8
レイヤー 1
 10
610.299991
 20
263.614996
 40
3.465000
 50
235.762848
 51
269.186039
  0
ARC
  8
レイヤー 1
 10
610.104991
 20
262.699996
 40
2.555000
 50
273.303904
 51
295.713389
  0
ARC
  8
レイヤー 1
 10
608.289991
 20
267.489996
 40
7.670000
 50
292.369863
 51
298.484897
  0
ARC
  8
レイヤー 1
 10
609.504991
 20
264.164996
 40
3.390000
 50
205.574946
 51
226.452984
  0
ARC
  8
レイヤー 1
 10
616.194991
 20
271.609996
 40
13.395000
 50
227.672829
 51
234.165614
  0
ARC
  8
レイヤー 1
 10
616.224991
 20
268.989996
 40
11.970000
 50
184.992292
 51
213.123152
  0
LINE
  8
レイヤー 1
 10
603.449991
 20
273.699996
 11
603.449991
 21
273.249996
  0
ARC
  8
レイヤー 1
 10
615.294991
 20
273.079996
 40
11.845000
 50
179.168904
 51
204.322361
  0
ARC
  8
レイヤー 1
 10
608.689991
 20
273.669996
 40
5.440000
 50
151.698562
 51
179.700847
  0
ARC
  8
レイヤー 1
 10
606.844991
 20
274.444996
 40
3.455000
 50
89.925570
 51
148.512897
  0
ARC
  8
レイヤー 1
 10
609.534991
 20
277.164996
 40
1.345000
 50
47.078364
 51
78.867147
  0
ARC
  8
レイヤー 1
 10
609.064991
 20
274.569996
 40
3.980000
 50
79.463294
 51
91.673236
  0
ARC
  8
レイヤー 1
 10
608.634991
 20
275.329996
 40
3.235000
 50
84.427728
 51
119.349566
  0
ARC
  8
レイヤー 1
 10
606.849991
 20
272.279996
 40
6.785000
 50
35.814850
 51
59.909950
  0
ARC
  8
レイヤー 1
 10
603.104991
 20
269.584996
 40
11.430000
 50
6.869069
 51
28.617648
  0
ARC
  8
レイヤー 1
 10
595.459991
 20
266.004996
 40
19.855000
 50
27.119041
 51
31.735995
  0
ARC
  8
レイヤー 1
 10
615.574991
 20
265.384996
 40
0.185000
 50
262.469040
 51
20.211352
  0
ARC
  8
レイヤー 1
 10
604.709991
 20
265.499996
 40
11.040000
 50
359.730003
 51
28.085549
  0
ARC
  8
レイヤー 1
 10
599.744991
 20
268.364996
 40
16.270000
 50
338.681669
 51
349.679946
  0
ARC
  8
レイヤー 1
 10
612.404991
 20
261.279996
 40
0.535000
 50
211.822414
 51
264.166847
  0
ARC
  8
レイヤー 1
 10
612.244991
 20
263.469996
 40
2.720000
 50
272.227014
 51
316.615842
  0
ARC
  8
レイヤー 1
 10
610.859991
 20
265.184996
 40
4.915000
 50
313.148101
 51
329.621641
  0
ARC
  8
レイヤー 1
 10
640.699990
 20
254.859996
 40
0.200000
 50
183.472863
 51
268.983355
  0
ARC
  8
レイヤー 1
 10
640.854990
 20
255.404996
 40
0.760000
 50
258.029968
 51
277.181557
  0
LINE
  8
レイヤー 1
 10
640.499990
 20
255.499996
 11
640.499990
 21
255.049996
  0
LINE
  8
レイヤー 1
 10
640.299990
 20
256.099996
 11
640.299990
 21
255.899996
  0
LINE
  8
レイヤー 1
 10
640.299990
 20
255.899996
 11
640.299990
 21
255.249996
  0
LINE
  8
レイヤー 1
 10
640.299990
 20
257.199996
 11
640.299990
 21
256.349996
  0
ARC
  8
レイヤー 1
 10
641.194990
 20
256.794996
 40
0.805000
 50
93.374835
 51
149.840142
  0
LINE
  8
レイヤー 1
 10
641.149990
 20
257.599996
 11
640.949990
 21
257.599996
  0
ARC
  8
レイヤー 1
 10
641.109990
 20
257.159996
 40
0.445000
 50
5.398664
 51
84.601326
  0
ARC
  8
レイヤー 1
 10
642.919990
 20
257.014996
 40
1.135000
 50
170.585465
 51
215.895572
  0
ARC
  8
レイヤー 1
 10
640.219990
 20
256.034996
 40
1.785000
 50
309.305610
 51
355.745533
  0
LINE
  8
レイヤー 1
 10
641.999990
 20
255.899996
 11
641.999990
 21
256.099996
  0
LINE
  8
レイヤー 1
 10
641.349990
 20
254.649996
 11
641.149990
 21
254.449996
  0
LINE
  8
レイヤー 1
 10
655.299990
 20
243.399996
 11
655.299990
 21
243.199996
  0
ARC
  8
レイヤー 1
 10
655.359990
 20
243.694996
 40
0.305000
 50
149.758128
 51
258.166844
  0
LINE
  8
レイヤー 1
 10
654.899990
 20
244.699996
 11
654.899990
 21
244.499996
  0
LINE
  8
レイヤー 1
 10
654.899990
 20
244.499996
 11
654.899990
 21
243.849996
  0
ARC
  8
レイヤー 1
 10
657.514990
 20
244.749996
 40
2.620000
 50
147.741913
 51
176.768708
  0
LINE
  8
レイヤー 1
 10
655.549990
 20
245.949996
 11
655.749990
 21
246.149996
  0
LINE
  8
レイヤー 1
 10
655.749990
 20
245.949996
 11
655.549990
 21
245.949996
  0
ARC
  8
レイヤー 1
 10
655.709990
 20
245.509996
 40
0.445000
 50
5.398664
 51
84.601326
  0
ARC
  8
レイヤー 1
 10
657.519990
 20
245.364996
 40
1.135000
 50
170.585465
 51
215.895572
  0
ARC
  8
レイヤー 1
 10
654.734990
 20
244.619996
 40
1.870000
 50
310.550551
 51
356.319353
  0
LINE
  8
レイヤー 1
 10
656.599990
 20
244.499996
 11
656.599990
 21
244.699996
  0
LINE
  8
レイヤー 1
 10
655.949990
 20
242.999996
 11
655.749990
 21
242.999996
  0
ARC
  8
レイヤー 1
 10
604.674991
 20
244.984996
 40
3.890000
 50
237.725844
 51
271.088557
  0
ARC
  8
レイヤー 1
 10
606.994991
 20
232.159997
 40
9.220000
 50
97.461241
 51
104.107332
  0
ARC
  8
レイヤー 1
 10
605.229991
 20
247.029996
 40
6.035000
 50
196.651997
 51
242.013462
  0
ARC
  8
レイヤー 1
 10
605.714991
 20
247.419996
 40
6.280000
 50
149.580804
 51
183.849466
  0
LINE
  8
レイヤー 1
 10
599.449991
 20
246.999996
 11
599.449991
 21
245.549996
  0
ARC
  8
レイヤー 1
 10
603.394991
 20
248.684996
 40
3.370000
 50
107.222724
 51
127.678487
  0
ARC
  8
レイヤー 1
 10
607.764991
 20
243.269996
 40
10.325000
 50
128.501803
 51
136.314214
  0
ARC
  8
レイヤー 1
 10
604.589991
 20
249.409996
 40
2.635000
 50
38.509278
 51
84.323336
  0
ARC
  8
レイヤー 1
 10
603.929991
 20
245.889996
 40
6.210000
 50
81.483570
 51
90.263125
  0
LINE
  8
レイヤー 1
 10
603.899991
 20
252.099996
 11
602.399991
 21
252.099996
  0
ARC
  8
レイヤー 1
 10
600.944991
 20
245.229996
 40
8.575000
 50
20.975483
 51
44.593071
  0
ARC
  8
レイヤー 1
 10
602.709991
 20
246.649996
 40
6.505000
 50
325.895048
 51
355.605905
  0
ARC
  8
レイヤー 1
 10
602.904991
 20
245.954996
 40
6.300000
 50
1.778695
 51
21.864279
  0
ARC
  8
レイヤー 1
 10
604.959991
 20
245.324996
 40
4.110000
 50
281.813147
 51
325.567000
  0
ARC
  8
レイヤー 1
 10
567.104992
 20
242.229996
 40
0.535000
 50
211.822414
 51
264.166847
  0
ARC
  8
レイヤー 1
 10
566.319992
 20
244.849996
 40
3.235000
 50
283.021865
 51
303.375331
  0
ARC
  8
レイヤー 1
 10
567.364992
 20
243.734996
 40
1.745000
 50
294.841440
 51
335.158570
  0
ARC
  8
レイヤー 1
 10
566.459992
 20
246.419996
 40
4.390000
 50
304.525161
 51
342.536378
  0
ARC
  8
レイヤー 1
 10
565.019992
 20
248.769996
 40
6.615000
 50
328.361671
 51
348.495720
  0
ARC
  8
レイヤー 1
 10
561.439992
 20
250.509996
 40
10.515000
 50
343.091747
 51
358.321638
  0
ARC
  8
レイヤー 1
 10
566.594992
 20
249.479996
 40
5.405000
 50
7.662366
 51
19.122626
  0
ARC
  8
レイヤー 1
 10
567.014992
 20
251.304996
 40
4.685000
 50
359.325313
 51
29.320124
  0
ARC
  8
レイヤー 1
 10
569.494992
 20
252.314996
 40
1.910000
 50
32.811011
 51
80.831953
  0
ARC
  8
レイヤー 1
 10
569.354992
 20
252.424996
 40
2.040000
 50
83.115277
 51
119.504565
  0
ARC
  8
レイヤー 1
 10
569.084992
 20
252.614996
 40
1.745000
 50
114.841420
 51
155.158550
  0
ARC
  8
レイヤー 1
 10
569.864992
 20
250.054996
 40
4.055000
 50
125.666129
 51
144.619875
  0
ARC
  8
レイヤー 1
 10
573.364991
 20
247.699996
 40
8.270000
 50
145.358707
 51
156.123286
  0
ARC
  8
レイヤー 1
 10
573.104991
 20
246.594996
 40
8.280000
 50
149.067918
 51
163.827520
  0
ARC
  8
レイヤー 1
 10
581.519991
 20
246.509996
 40
16.780000
 50
170.940693
 51
181.906639
  0
LINE
  8
レイヤー 1
 10
564.749992
 20
245.949996
 11
564.749992
 21
245.299996
  0
ARC
  8
レイヤー 1
 10
569.174992
 20
245.249996
 40
4.225000
 50
179.349263
 51
212.212240
  0
ARC
  8
レイヤー 1
 10
567.559992
 20
243.909996
 40
2.165000
 50
204.921184
 51
245.078846
  0
LINE
  8
レイヤー 1
 10
530.449992
 20
244.049996
 11
530.449992
 21
243.849996
  0
ARC
  8
レイヤー 1
 10
533.134992
 20
243.959996
 40
2.685000
 50
182.299646
 51
261.798826
  0
ARC
  8
レイヤー 1
 10
533.079992
 20
243.714996
 40
2.435000
 50
91.932110
 51
176.835741
  0
ARC
  8
レイヤー 1
 10
532.534992
 20
243.344996
 40
2.810000
 50
10.314962
 51
85.586586
  0
LINE
  8
レイヤー 1
 10
532.749992
 20
246.149996
 11
532.549992
 21
246.149996
  0
LINE
  8
レイヤー 1
 10
532.549992
 20
241.299996
 11
532.749992
 21
241.299996
  0
ARC
  8
レイヤー 1
 10
532.584992
 20
244.014996
 40
2.720000
 50
273.500288
 51
356.499722
  0
LINE
  8
レイヤー 1
 10
535.299992
 20
243.849996
 11
535.299992
 21
244.049996
  0
LINE
  8
レイヤー 1
 10
480.899993
 20
256.099996
 11
480.899993
 21
255.899996
  0
ARC
  8
レイヤー 1
 10
481.949993
 20
255.899996
 40
1.050000
 50
179.919871
 51
270.080119
  0
ARC
  8
レイヤー 1
 10
481.879993
 20
255.924996
 40
0.980000
 50
122.732547
 51
181.472917
  0
LINE
  8
レイヤー 1
 10
481.949993
 20
256.749996
 11
481.349993
 21
256.749996
  0
ARC
  8
レイヤー 1
 10
482.154993
 20
255.619996
 40
1.135000
 50
14.417507
 51
87.600494
  0
LINE
  8
レイヤー 1
 10
482.199993
 20
256.749996
 11
481.949993
 21
256.749996
  0
ARC
  8
レイヤー 1
 10
482.134993
 20
254.624996
 40
0.185000
 50
172.468996
 51
290.211377
  0
ARC
  8
レイヤー 1
 10
482.089993
 20
255.809996
 40
1.365000
 50
274.585057
 51
355.414953
  0
ARC
  8
レイヤー 1
 10
483.289993
 20
255.739996
 40
0.165000
 50
345.682001
 51
104.317989
  0
LINE
  8
レイヤー 1
 10
454.049993
 20
245.949996
 11
454.049993
 21
245.749996
  0
ARC
  8
レイヤー 1
 10
453.849993
 20
246.239996
 40
0.295000
 50
147.212837
 51
260.712136
  0
LINE
  8
レイヤー 1
 10
453.599993
 20
247.249996
 11
453.599993
 21
246.999996
  0
LINE
  8
レイヤー 1
 10
453.599993
 20
246.999996
 11
453.599993
 21
246.399996
  0
ARC
  8
レイヤー 1
 10
455.939993
 20
247.114996
 40
2.345000
 50
143.734401
 51
176.667811
  0
LINE
  8
レイヤー 1
 10
454.249993
 20
248.499996
 11
454.449993
 21
248.699996
  0
LINE
  8
レイヤー 1
 10
454.649993
 20
248.699996
 11
454.449993
 21
248.699996
  0
LINE
  8
レイヤー 1
 10
454.449993
 20
248.699996
 11
454.249993
 21
248.699996
  0
ARC
  8
レイヤー 1
 10
448.839993
 20
246.554996
 40
6.195000
 50
13.956399
 51
20.249056
  0
ARC
  8
レイヤー 1
 10
455.769993
 20
247.899996
 40
0.935000
 50
170.658737
 51
224.049308
  0
ARC
  8
レイヤー 1
 10
467.989993
 20
242.434996
 40
13.485000
 50
160.221457
 51
162.908609
  0
LINE
  8
レイヤー 1
 10
455.299993
 20
246.999996
 11
455.299993
 21
247.249996
  0
ARC
  8
レイヤー 1
 10
454.214993
 20
245.479996
 40
0.180000
 50
156.449247
 51
280.870361
  0
ARC
  8
レイヤー 1
 10
454.089993
 20
245.909996
 40
0.630000
 50
284.874253
 51
326.300930
  0
ARC
  8
レイヤー 1
 10
453.839993
 20
246.209996
 40
1.010000
 50
319.809403
 51
356.461392
  0
ARC
  8
レイヤー 1
 10
389.449994
 20
259.709996
 40
0.200000
 50
183.472863
 51
268.983355
  0
ARC
  8
レイヤー 1
 10
389.604994
 20
260.254996
 40
0.760000
 50
258.029968
 51
277.181557
  0
LINE
  8
レイヤー 1
 10
389.249994
 20
260.349996
 11
389.249994
 21
259.949996
  0
LINE
  8
レイヤー 1
 10
389.249994
 20
261.199996
 11
389.249994
 21
260.999996
  0
LINE
  8
レイヤー 1
 10
389.249994
 20
260.999996
 11
389.249994
 21
260.349996
  0
LINE
  8
レイヤー 1
 10
389.249994
 20
262.049996
 11
389.249994
 21
261.199996
  0
ARC
  8
レイヤー 1
 10
389.999994
 20
261.859996
 40
0.850000
 50
96.921929
 51
152.468350
  0
LINE
  8
レイヤー 1
 10
389.899994
 20
262.449996
 11
389.699994
 21
262.449996
  0
ARC
  8
レイヤー 1
 10
390.074994
 20
261.969996
 40
0.480000
 50
9.724487
 51
87.008423
  0
ARC
  8
レイヤー 1
 10
391.709994
 20
261.874996
 40
1.170000
 50
171.360672
 51
215.120365
  0
ARC
  8
レイヤー 1
 10
388.894994
 20
260.919996
 40
1.860000
 50
310.282546
 51
354.768597
  0
LINE
  8
レイヤー 1
 10
390.749994
 20
260.749996
 11
390.749994
 21
260.999996
  0
LINE
  8
レイヤー 1
 10
390.099994
 20
259.499996
 11
389.899994
 21
259.299996
  0
LINE
  8
レイヤー 1
 10
404.049994
 20
248.299996
 11
404.049994
 21
248.049996
  0
ARC
  8
レイヤー 1
 10
404.739994
 20
248.614996
 40
0.890000
 50
174.686908
 51
219.518546
  0
LINE
  8
レイヤー 1
 10
403.849994
 20
249.549996
 11
403.849994
 21
249.349996
  0
LINE
  8
レイヤー 1
 10
403.849994
 20
249.349996
 11
403.849994
 21
248.899996
  0
ARC
  8
レイヤー 1
 10
405.369994
 20
249.749996
 40
1.535000
 50
134.260416
 51
187.552604
  0
LINE
  8
レイヤー 1
 10
404.299994
 20
250.849996
 11
404.499994
 21
251.049996
  0
LINE
  8
レイヤー 1
 10
404.499994
 20
251.049996
 11
404.299994
 21
251.049996
  0
ARC
  8
レイヤー 1
 10
388.784994
 20
245.794996
 40
16.760000
 50
15.940261
 51
18.265193
  0
ARC
  8
レイヤー 1
 10
405.879994
 20
250.224996
 40
0.995000
 50
170.011994
 51
222.767083
  0
ARC
  8
レイヤー 1
 10
421.264994
 20
244.094996
 40
16.760000
 50
161.734787
 51
164.059719
  0
LINE
  8
レイヤー 1
 10
405.349994
 20
249.349996
 11
405.349994
 21
249.549996
  0
ARC
  8
レイヤー 1
 10
404.234994
 20
247.824996
 40
0.185000
 50
172.468996
 51
290.211377
  0
ARC
  8
レイヤー 1
 10
404.154994
 20
248.264996
 40
0.635000
 50
283.337137
 51
325.355070
  0
ARC
  8
レイヤー 1
 10
403.914994
 20
248.534996
 40
0.985000
 50
320.414854
 51
358.077008
  0
ARC
  8
レイヤー 1
 10
510.254992
 20
260.244996
 40
3.915000
 50
63.504970
 51
85.650691
  0
LINE
  8
レイヤー 1
 10
510.549992
 20
264.349996
 11
509.899992
 21
264.349996
  0
LINE
  8
レイヤー 1
 10
510.099992
 20
264.149996
 11
509.899992
 21
263.949996
  0
LINE
  8
レイヤー 1
 10
509.899992
 20
263.949996
 11
509.899992
 21
263.749996
  0
ARC
  8
レイヤー 1
 10
510.669992
 20
264.224996
 40
1.205000
 50
193.122947
 51
230.092090
  0
ARC
  8
レイヤー 1
 10
512.964992
 20
266.604996
 40
4.375000
 50
229.094405
 51
251.828057
  0
ARC
  8
レイヤー 1
 10
513.304992
 20
264.994996
 40
2.745000
 50
236.720430
 51
269.881105
  0
ARC
  8
レイヤー 1
 10
513.534992
 20
262.619996
 40
0.570000
 50
220.311043
 51
266.558880
  0
LINE
  8
レイヤー 1
 10
513.499992
 20
262.049996
 11
513.699992
 21
262.249996
  0
ARC
  8
レイヤー 1
 10
513.974992
 20
262.519996
 40
0.670000
 50
224.427640
 51
267.647407
  0
ARC
  8
レイヤー 1
 10
513.909992
 20
262.289996
 40
0.445000
 50
275.398674
 51
354.601336
  0
ARC
  8
レイヤー 1
 10
513.439992
 20
262.114996
 40
0.920000
 50
8.457546
 51
39.467426
  0
LINE
  8
レイヤー 1
 10
514.149992
 20
262.049996
 11
514.149992
 21
262.449996
  0
ARC
  8
レイヤー 1
 10
513.474992
 20
262.619996
 40
0.480000
 50
9.724487
 51
87.008423
  0
ARC
  8
レイヤー 1
 10
511.404992
 20
261.349996
 40
2.865000
 50
42.936205
 51
77.986217
  0
ARC
  8
レイヤー 1
 10
429.159994
 20
243.669996
 40
3.420000
 50
234.064002
 51
271.538939
  0
ARC
  8
レイヤー 1
 10
432.029994
 20
228.519997
 40
12.055000
 50
98.242900
 51
103.325673
  0
ARC
  8
レイヤー 1
 10
429.934994
 20
246.184996
 40
6.290000
 50
197.934353
 51
241.676820
  0
ARC
  8
レイヤー 1
 10
429.604994
 20
246.289996
 40
5.865000
 50
148.580188
 51
183.347328
  0
LINE
  8
レイヤー 1
 10
423.749994
 20
245.949996
 11
423.749994
 21
244.499996
  0
ARC
  8
レイヤー 1
 10
427.479994
 20
248.244996
 40
2.910000
 50
105.545768
 51
127.114031
  0
ARC
  8
レイヤー 1
 10
431.664994
 20
242.874996
 40
9.720000
 50
127.673356
 51
136.614126
  0
ARC
  8
レイヤー 1
 10
428.524994
 20
247.494996
 40
3.770000
 50
45.853906
 51
94.961514
  0
LINE
  8
レイヤー 1
 10
428.199994
 20
251.249996
 11
426.699994
 21
251.249996
  0
ARC
  8
レイヤー 1
 10
427.719994
 20
245.554996
 40
5.660000
 50
19.565469
 51
55.167862
  0
ARC
  8
レイヤー 1
 10
427.324994
 20
245.674996
 40
6.390000
 50
326.501683
 51
356.628423
  0
ARC
  8
レイヤー 1
 10
427.064994
 20
245.179996
 40
6.635000
 50
1.052659
 51
20.025707
  0
ARC
  8
レイヤー 1
 10
429.259994
 20
244.474996
 40
4.110000
 50
281.813147
 51
325.567000
  0
ARC
  8
レイヤー 1
 10
515.379992
 20
248.079996
 40
1.490000
 50
196.784665
 51
263.154845
  0
LINE
  8
レイヤー 1
 10
513.949992
 20
248.699996
 11
513.949992
 21
248.499996
  0
ARC
  8
レイヤー 1
 10
515.004992
 20
248.299996
 40
1.075000
 50
169.226207
 51
217.254830
  0
ARC
  8
レイヤー 1
 10
515.554992
 20
248.884996
 40
1.615000
 50
110.059479
 51
186.537668
  0
LINE
  8
レイヤー 1
 10
515.199992
 20
250.399996
 11
514.999992
 21
250.399996
  0
ARC
  8
レイヤー 1
 10
515.534992
 20
249.589996
 40
0.825000
 50
30.001165
 51
99.596573
  0
LINE
  8
レイヤー 1
 10
515.399992
 20
250.399996
 11
515.199992
 21
250.399996
  0
LINE
  8
レイヤー 1
 10
516.899992
 20
248.699996
 11
516.449992
 21
249.749996
  0
ARC
  8
レイヤー 1
 10
514.154992
 20
249.074996
 40
3.000000
 50
304.388180
 51
348.930413
  0
LINE
  8
レイヤー 1
 10
517.099992
 20
248.499996
 11
517.099992
 21
248.699996
  0
ARC
  8
レイヤー 1
 10
515.359992
 20
246.759996
 40
0.165000
 50
165.681966
 51
284.318024
  0
LINE
  8
レイヤー 1
 10
515.399992
 20
246.599996
 11
515.399992
 21
246.799996
  0
LINE
  8
レイヤー 1
 10
483.849993
 20
244.249996
 11
483.849993
 21
244.049996
  0
ARC
  8
レイヤー 1
 10
484.339993
 20
244.814996
 40
0.890000
 50
174.686908
 51
219.518546
  0
LINE
  8
レイヤー 1
 10
483.249993
 20
246.149996
 11
483.249993
 21
245.949996
  0
LINE
  8
レイヤー 1
 10
483.249993
 20
245.949996
 11
483.249993
 21
244.899996
  0
LINE
  8
レイヤー 1
 10
483.449993
 20
247.649996
 11
483.449993
 21
246.399996
  0
ARC
  8
レイヤー 1
 10
477.639993
 20
249.794996
 40
6.195000
 50
339.750944
 51
346.043601
  0
LINE
  8
レイヤー 1
 10
483.849993
 20
248.299996
 11
484.299993
 21
248.499996
  0
LINE
  8
レイヤー 1
 10
484.099993
 20
248.499996
 11
483.849993
 21
248.499996
  0
ARC
  8
レイヤー 1
 10
483.529993
 20
247.374996
 40
1.205000
 50
13.122927
 51
50.092070
  0
ARC
  8
レイヤー 1
 10
486.809993
 20
247.419996
 40
2.120000
 50
173.817152
 51
208.802711
  0
ARC
  8
レイヤー 1
 10
491.679993
 20
244.359996
 40
6.770000
 50
164.686888
 51
173.744479
  0
LINE
  8
レイヤー 1
 10
485.149993
 20
246.149996
 11
485.149993
 21
246.399996
  0
LINE
  8
レイヤー 1
 10
484.499993
 20
244.049996
 11
484.949993
 21
245.099996
  0
LINE
  8
レイヤー 1
 10
484.499993
 20
244.049996
 11
484.299993
 21
243.849996
  0
ARC
  8
レイヤー 1
 10
380.474994
 20
253.294996
 40
7.545000
 50
251.233587
 51
269.034822
  0
ARC
  8
レイヤー 1
 10
378.854994
 20
251.759996
 40
6.195000
 50
283.956409
 51
290.249065
  0
ARC
  8
レイヤー 1
 10
379.449994
 20
249.479996
 40
3.540000
 50
214.995955
 51
250.193360
  0
LINE
  8
レイヤー 1
 10
376.749994
 20
248.049996
 11
376.749994
 21
247.649996
  0
LINE
  8
レイヤー 1
 10
376.749994
 20
247.649996
 11
376.749994
 21
247.449996
  0
ARC
  8
レイヤー 1
 10
377.554994
 20
248.709996
 40
1.030000
 50
141.618285
 51
191.900678
  0
LINE
  8
レイヤー 1
 10
376.549994
 20
248.499996
 11
376.549994
 21
248.299996
  0
ARC
  8
レイヤー 1
 10
377.439994
 20
249.109996
 40
0.445000
 50
95.398655
 51
174.601316
  0
ARC
  8
レイヤー 1
 10
370.129994
 20
264.514996
 40
16.455000
 50
296.222833
 51
299.571722
  0
LINE
  8
レイヤー 1
 10
380.999994
 20
250.399996
 11
380.349994
 21
250.399996
  0
ARC
  8
レイヤー 1
 10
379.839994
 20
244.629996
 40
5.790000
 50
84.944683
 51
105.935960
  0
ARC
  8
レイヤー 1
 10
382.419994
 20
244.574996
 40
5.640000
 50
74.238751
 51
93.743219
  0
LINE
  8
レイヤー 1
 10
382.049994
 20
250.199996
 11
380.999994
 21
250.199996
  0
ARC
  8
レイヤー 1
 10
383.984994
 20
248.829996
 40
1.370000
 50
42.195028
 51
91.407776
  0
ARC
  8
レイヤー 1
 10
384.474994
 20
248.499996
 40
1.175000
 50
359.989538
 51
63.529415
  0
ARC
  8
レイヤー 1
 10
386.374994
 20
247.999996
 40
0.725000
 50
136.168776
 51
175.906211
  0
ARC
  8
レイヤー 1
 10
385.689994
 20
248.539996
 40
0.165000
 50
345.682001
 51
104.317989
  0
ARC
  8
レイヤー 1
 10
384.359994
 20
248.084996
 40
1.740000
 50
284.714540
 51
316.003926
  0
ARC
  8
レイヤー 1
 10
384.984994
 20
247.474996
 40
0.865000
 50
316.201053
 51
358.493332
  0
ARC
  8
レイヤー 1
 10
372.959994
 20
243.484996
 40
13.485000
 50
17.091371
 51
19.778523
  0
ARC
  8
レイヤー 1
 10
383.914994
 20
247.364996
 40
1.215000
 50
271.651215
 51
305.799287
  0
ARC
  8
レイヤー 1
 10
378.369994
 20
257.404996
 40
12.675000
 50
299.561044
 51
301.527554
  0
ARC
  8
レイヤー 1
 10
385.454994
 20
265.429996
 40
19.940000
 50
257.679767
 51
260.751659
  0
ARC
  8
レイヤー 1
 10
382.189994
 20
249.809996
 40
4.060000
 50
270.815655
 51
295.665402
  0
ARC
  8
レイヤー 1
 10
371.529994
 20
262.969996
 40
1.980000
 50
182.000924
 51
208.436347
  0
ARC
  8
レイヤー 1
 10
372.834994
 20
263.644996
 40
3.450000
 50
207.982336
 51
225.124173
  0
LINE
  8
レイヤー 1
 10
369.549994
 20
265.449996
 11
369.549994
 21
263.949996
  0
LINE
  8
レイヤー 1
 10
369.549994
 20
263.949996
 11
369.549994
 21
263.099996
  0
ARC
  8
レイヤー 1
 10
376.794994
 20
263.839996
 40
7.370000
 50
143.758433
 51
169.384147
  0
ARC
  8
レイヤー 1
 10
378.184994
 20
264.689996
 40
7.950000
 50
135.122835
 51
153.801778
  0
ARC
  8
レイヤー 1
 10
380.829994
 20
263.479996
 40
10.725000
 50
110.918159
 51
140.521722
  0
ARC
  8
レイヤー 1
 10
378.499994
 20
266.864996
 40
6.865000
 50
84.971695
 51
104.757313
  0
ARC
  8
レイヤー 1
 10
379.399994
 20
270.349996
 40
3.550000
 50
54.733674
 51
91.623490
  0
ARC
  8
レイヤー 1
 10
380.024994
 20
271.069996
 40
2.225000
 50
2.049441
 51
26.714266
  0
ARC
  8
レイヤー 1
 10
371.569994
 20
266.709996
 40
11.740000
 50
27.176336
 51
32.693419
  0
ARC
  8
レイヤー 1
 10
390.719994
 20
268.029996
 40
8.285000
 50
165.516672
 51
172.914694
  0
ARC
  8
レイヤー 1
 10
374.479994
 20
269.079996
 40
8.285000
 50
7.085286
 51
14.483308
  0
ARC
  8
レイヤー 1
 10
372.839994
 20
270.649996
 40
9.590000
 50
313.981306
 51
348.877304
  0
ARC
  8
レイヤー 1
 10
371.119994
 20
271.174996
 40
11.200000
 50
288.378820
 51
318.454356
  0
ARC
  8
レイヤー 1
 10
370.804994
 20
254.539996
 40
6.195000
 50
69.750935
 51
76.043591
  0
ARC
  8
レイヤー 1
 10
372.889994
 20
264.409996
 40
4.060000
 50
270.815655
 51
295.665402
  0
ARC
  8
レイヤー 1
 10
372.259994
 20
262.449996
 40
1.925000
 50
213.153847
 51
278.641709
  0
ARC
  8
レイヤー 1
 10
452.319993
 20
401.579994
 40
8.285000
 50
165.516672
 51
172.914694
  0
LINE
  8
レイヤー 1
 10
444.299993
 20
403.649994
 11
444.299993
 21
403.849994
  0
ARC
  8
レイヤー 1
 10
443.119993
 20
402.424994
 40
0.995000
 50
317.232955
 51
9.987968
  0
LINE
  8
レイヤー 1
 10
443.849993
 20
401.549994
 11
443.449993
 21
401.299994
  0
LINE
  8
レイヤー 1
 10
443.249993
 20
401.749994
 11
443.249993
 21
401.549994
  0
ARC
  8
レイヤー 1
 10
443.564993
 20
402.479994
 40
0.775000
 50
170.997105
 51
223.208350
  0
LINE
  8
レイヤー 1
 10
442.599993
 20
403.849994
 11
442.599993
 21
403.649994
  0
LINE
  8
レイヤー 1
 10
442.599993
 20
403.649994
 11
442.599993
 21
402.399994
  0
LINE
  8
レイヤー 1
 10
442.599993
 20
405.349994
 11
442.599993
 21
404.049994
  0
ARC
  8
レイヤー 1
 10
436.989993
 20
407.494994
 40
6.195000
 50
339.750944
 51
346.043601
  0
LINE
  8
レイヤー 1
 10
443.249993
 20
405.999994
 11
443.449993
 21
406.199994
  0
LINE
  8
レイヤー 1
 10
443.449993
 20
405.999994
 11
443.249993
 21
405.999994
  0
ARC
  8
レイヤー 1
 10
443.024993
 20
405.284994
 40
1.105000
 50
13.769405
 51
55.620895
  0
LINE
  8
レイヤー 1
 10
444.499993
 20
404.049994
 11
444.099993
 21
405.549994
  0
ARC
  8
レイヤー 1
 10
468.619993
 20
380.629994
 40
8.285000
 50
165.516672
 51
172.914694
  0
LINE
  8
レイヤー 1
 10
460.599993
 20
382.699994
 11
460.599993
 21
382.899994
  0
ARC
  8
レイヤー 1
 10
458.989993
 20
381.474994
 40
1.170000
 50
324.879674
 51
8.639289
  0
LINE
  8
レイヤー 1
 10
459.949993
 20
380.599994
 11
459.749993
 21
380.349994
  0
LINE
  8
レイヤー 1
 10
459.299993
 20
380.799994
 11
459.299993
 21
380.599994
  0
ARC
  8
レイヤー 1
 10
459.824993
 20
381.319994
 40
0.740000
 50
169.710334
 51
224.495121
  0
LINE
  8
レイヤー 1
 10
458.699993
 20
382.899994
 11
458.699993
 21
382.699994
  0
LINE
  8
レイヤー 1
 10
458.699993
 20
382.699994
 11
458.699993
 21
381.449994
  0
LINE
  8
レイヤー 1
 10
458.899993
 20
384.399994
 11
458.899993
 21
383.099994
  0
ARC
  8
レイヤー 1
 10
446.209993
 20
388.964994
 40
13.485000
 50
340.221477
 51
342.908629
  0
LINE
  8
レイヤー 1
 10
459.299993
 20
384.999994
 11
459.749993
 21
385.249994
  0
LINE
  8
レイヤー 1
 10
459.749993
 20
385.249994
 11
459.549993
 21
385.249994
  0
ARC
  8
レイヤー 1
 10
493.414993
 20
395.189994
 40
34.909999
 50
196.544670
 51
197.660824
  0
ARC
  8
レイヤー 1
 10
428.099994
 20
374.164994
 40
33.704999
 50
15.368064
 51
18.030420
  0
ARC
  8
レイヤー 1
 10
381.454994
 20
303.369995
 40
2.095000
 50
313.574624
 51
358.134298
  0
ARC
  8
レイヤー 1
 10
380.889994
 20
303.264995
 40
2.660000
 50
0.720658
 51
24.039309
  0
ARC
  8
レイヤー 1
 10
375.469994
 20
300.649996
 40
8.680000
 50
25.231775
 51
33.569208
  0
ARC
  8
レイヤー 1
 10
376.584994
 20
306.094995
 40
7.890000
 50
305.806281
 51
325.681848
  0
ARC
  8
レイヤー 1
 10
376.609994
 20
304.529995
 40
6.160000
 50
279.255211
 51
294.428145
  0
ARC
  8
レイヤー 1
 10
372.804994
 20
312.464995
 40
14.960000
 50
295.124131
 51
303.214098
  0
ARC
  8
レイヤー 1
 10
373.854994
 20
308.324995
 40
10.650000
 50
278.889350
 51
292.033102
  0
ARC
  8
レイヤー 1
 10
370.199994
 20
296.759996
 40
0.200000
 50
182.742278
 51
268.134330
  0
ARC
  8
レイヤー 1
 10
370.324994
 20
297.194996
 40
0.650000
 50
258.247767
 51
276.600617
  0
ARC
  8
レイヤー 1
 10
370.339994
 20
308.654995
 40
12.105000
 50
270.274073
 51
296.267231
  0
ARC
  8
レイヤー 1
 10
369.974994
 20
302.789995
 40
6.040000
 50
243.169158
 51
270.233724
  0
LINE
  8
レイヤー 1
 10
365.749995
 20
300.349996
 11
365.749995
 21
299.949996
  0
ARC
  8
レイヤー 1
 10
368.999995
 20
300.054996
 40
3.250000
 50
181.894916
 51
241.552323
  0
ARC
  8
レイヤー 1
 10
368.204995
 20
302.399995
 40
3.075000
 50
149.710667
 51
186.512020
  0
ARC
  8
レイヤー 1
 10
367.249995
 20
301.804996
 40
2.115000
 50
173.382292
 51
216.480539
  0
ARC
  8
レイヤー 1
 10
368.879995
 20
302.574995
 40
3.660000
 50
116.471400
 51
135.896412
  0
ARC
  8
レイヤー 1
 10
370.914994
 20
300.589996
 40
6.500000
 50
135.817446
 51
148.884970
  0
ARC
  8
レイヤー 1
 10
374.089994
 20
296.634996
 40
11.195000
 50
96.866519
 51
126.363014
  0
LINE
  8
レイヤー 1
 10
378.449994
 20
309.049995
 11
378.249994
 21
309.049995
  0
ARC
  8
レイヤー 1
 10
377.984994
 20
296.479996
 40
12.570000
 50
88.795854
 51
113.616019
  0
ARC
  8
レイヤー 1
 10
378.219994
 20
302.774995
 40
6.275000
 50
63.684201
 51
89.718641
  0
ARC
  8
レイヤー 1
 10
379.829994
 20
305.399995
 40
3.070000
 50
0.897678
 51
42.849451
  0
ARC
  8
レイヤー 1
 10
378.549994
 20
304.394995
 40
4.690000
 50
41.218590
 51
58.554201
  0
ARC
  8
レイヤー 1
 10
409.089994
 20
334.614995
 40
14.405000
 50
280.439024
 51
298.441061
  0
ARC
  8
レイヤー 1
 10
393.064994
 20
351.494995
 40
37.214999
 50
307.951008
 51
310.030992
  0
ARC
  8
レイヤー 1
 10
416.734994
 20
323.464995
 40
0.465000
 50
271.913041
 51
358.086969
  0
ARC
  8
レイヤー 1
 10
417.039994
 20
323.489995
 40
0.165000
 50
345.682001
 51
104.317989
  0
ARC
  8
レイヤー 1
 10
416.509994
 20
323.354995
 40
0.695000
 50
45.328013
 51
86.746995
  0
LINE
  8
レイヤー 1
 10
416.349994
 20
324.049995
 11
415.699994
 21
324.049995
  0
LINE
  8
レイヤー 1
 10
415.699994
 20
324.299995
 11
414.849994
 21
324.299995
  0
LINE
  8
レイヤー 1
 10
414.849994
 20
324.299995
 11
414.649994
 21
324.299995
  0
ARC
  8
レイヤー 1
 10
414.189994
 20
313.619995
 40
10.700000
 50
86.454327
 51
107.052799
  0
ARC
  8
レイヤー 1
 10
414.259994
 20
310.544995
 40
13.495000
 50
103.758388
 51
122.292571
  0
ARC
  8
レイヤー 1
 10
408.114994
 20
319.674995
 40
2.515000
 50
115.111578
 51
139.699107
  0
LINE
  8
レイヤー 1
 10
405.999994
 20
321.299995
 11
405.999994
 21
320.899995
  0
LINE
  8
レイヤー 1
 10
406.199994
 20
320.899995
 11
406.199994
 21
320.449995
  0
ARC
  8
レイヤー 1
 10
406.874994
 20
321.409995
 40
1.170000
 50
234.879684
 51
278.639299
  0
ARC
  8
レイヤー 1
 10
410.029994
 20
331.979995
 40
12.055000
 50
256.674327
 51
261.757100
  0
ARC
  8
レイヤー 1
 10
409.059994
 20
329.599995
 40
9.580000
 50
265.444019
 51
287.236383
  0
LINE
  8
レイヤー 1
 10
399.399994
 20
353.899995
 11
399.649994
 21
354.099995
  0
ARC
  8
レイヤー 1
 10
398.989994
 20
354.029995
 40
0.665000
 50
6.201794
 51
51.907407
  0
ARC
  8
レイヤー 1
 10
398.899994
 20
354.399995
 40
0.710000
 50
261.896462
 51
314.973451
  0
LINE
  8
レイヤー 1
 10
397.949994
 20
353.249995
 11
398.149994
 21
353.249995
  0
ARC
  8
レイヤー 1
 10
394.679994
 20
363.244995
 40
10.580000
 50
289.151126
 51
292.923912
  0
ARC
  8
レイヤー 1
 10
399.314994
 20
357.404995
 40
4.375000
 50
229.094405
 51
251.828057
  0
LINE
  8
レイヤー 1
 10
396.449994
 20
354.349995
 11
396.449994
 21
354.099995
  0
LINE
  8
レイヤー 1
 10
396.649994
 20
354.549995
 11
396.649994
 21
354.349995
  0
ARC
  8
レイヤー 1
 10
401.704994
 20
338.834995
 40
16.760000
 50
105.940251
 51
108.265183
  0
LINE
  8
レイヤー 1
 10
397.949994
 20
354.949995
 11
397.299994
 21
354.949995
  0
ARC
  8
レイヤー 1
 10
398.649994
 20
354.019995
 40
0.910000
 50
52.937322
 51
88.778214
  0
ARC
  8
レイヤー 1
 10
398.324994
 20
352.129995
 40
2.830000
 50
82.977230
 51
93.524074
  0
LINE
  8
レイヤー 1
 10
398.149994
 20
354.949995
 11
397.949994
 21
354.949995
  0
LINE
  8
レイヤー 1
 10
399.399994
 20
354.549995
 11
399.199994
 21
354.549995
  0
ARC
  8
レイヤー 1
 10
450.774993
 20
320.349995
 40
4.760000
 50
6.637124
 51
86.673839
  0
LINE
  8
レイヤー 1
 10
451.049993
 20
325.099995
 11
450.849993
 21
325.099995
  0
ARC
  8
レイヤー 1
 10
451.229993
 20
320.709995
 40
4.645000
 50
92.210574
 51
175.155572
  0
LINE
  8
レイヤー 1
 10
446.599993
 20
321.299995
 11
446.599993
 21
321.099995
  0
ARC
  8
レイヤー 1
 10
451.234993
 20
321.274995
 40
4.640000
 50
182.132173
 51
265.234032
  0
LINE
  8
レイヤー 1
 10
450.849993
 20
316.649995
 11
451.049993
 21
316.649995
  0
ARC
  8
レイヤー 1
 10
450.914993
 20
321.324995
 40
4.675000
 50
271.664175
 51
336.999486
  0
ARC
  8
レイヤー 1
 10
450.514993
 20
321.714995
 40
5.205000
 50
334.747707
 51
355.398737
  0
ARC
  8
レイヤー 1
 10
434.954994
 20
352.994995
 40
1.975000
 50
303.680708
 51
349.962276
  0
LINE
  8
レイヤー 1
 10
436.899993
 20
352.649995
 11
436.899993
 21
352.849995
  0
ARC
  8
レイヤー 1
 10
433.864994
 20
353.159995
 40
2.660000
 50
270.720668
 51
294.039319
  0
ARC
  8
レイヤー 1
 10
431.249994
 20
358.579995
 40
8.680000
 50
295.231785
 51
303.569218
  0
LINE
  8
レイヤー 1
 10
432.449994
 20
350.099995
 11
432.649994
 21
350.099995
  0
ARC
  8
レイヤー 1
 10
424.729994
 20
403.594994
 40
54.079999
 50
278.419658
 51
279.760914
  0
ARC
  8
レイヤー 1
 10
434.189994
 20
359.564995
 40
9.620000
 50
243.535914
 51
259.594213
  0
ARC
  8
レイヤー 1
 10
431.124994
 20
353.069995
 40
2.625000
 50
199.357481
 51
242.169760
  0
LINE
  8
レイヤー 1
 10
428.649994
 20
352.849995
 11
428.649994
 21
352.649995
  0
LINE
  8
レイヤー 1
 10
428.649994
 20
352.649995
 11
428.649994
 21
352.449995
  0
ARC
  8
レイヤー 1
 10
429.974994
 20
353.019995
 40
1.025000
 50
120.862825
 51
156.567179
  0
ARC
  8
レイヤー 1
 10
430.774994
 20
352.604995
 40
1.925000
 50
154.656017
 51
178.611096
  0
ARC
  8
レイヤー 1
 10
431.254994
 20
352.559995
 40
2.190000
 50
92.714199
 51
117.314495
  0
ARC
  8
レイヤー 1
 10
433.849994
 20
347.474995
 40
7.900000
 50
117.100936
 51
125.588245
  0
LINE
  8
レイヤー 1
 10
432.449994
 20
354.749995
 11
431.149994
 21
354.749995
  0
ARC
  8
レイヤー 1
 10
433.274994
 20
350.354995
 40
4.615000
 50
65.377881
 51
95.302315
  0
LINE
  8
レイヤー 1
 10
432.849994
 20
354.949995
 11
432.649994
 21
354.949995
  0
ARC
  8
レイヤー 1
 10
434.114994
 20
351.879995
 40
2.885000
 50
28.392531
 51
67.851719
  0
ARC
  8
レイヤー 1
 10
437.214993
 20
353.124995
 40
0.570000
 50
187.501793
 51
236.509006
  0
LINE
  8
レイヤー 1
 10
631.599991
 20
240.449996
 11
631.849991
 21
240.449996
  0
ARC
  8
レイヤー 1
 10
631.679991
 20
244.819996
 40
4.375000
 50
272.243561
 51
358.434497
  0
LINE
  8
レイヤー 1
 10
636.049991
 20
244.699996
 11
636.049991
 21
244.899996
  0
LINE
  8
レイヤー 1
 10
627.799991
 20
244.899996
 11
627.799991
 21
244.699996
  0
ARC
  8
レイヤー 1
 10
632.229991
 20
244.869996
 40
4.435000
 50
182.185905
 51
265.053416
  0
ARC
  8
レイヤー 1
 10
631.939991
 20
244.559996
 40
4.140000
 50
91.237325
 51
178.050906
  0
ARC
  8
レイヤー 1
 10
631.559991
 20
244.189996
 40
4.520000
 50
6.464264
 51
86.330088
  0
LINE
  8
レイヤー 1
 10
631.849991
 20
248.699996
 11
631.599991
 21
248.699996
  0
ARC
  8
レイヤー 1
 10
382.469994
 20
329.604995
 40
4.230000
 50
314.795935
 51
359.276524
  0
ARC
  8
レイヤー 1
 10
383.599994
 20
329.524995
 40
3.100000
 50
0.438441
 51
29.424390
  0
ARC
  8
レイヤー 1
 10
381.659994
 20
329.569995
 40
4.940000
 50
279.796573
 51
320.110657
  0
ARC
  8
レイヤー 1
 10
380.884994
 20
331.284995
 40
6.990000
 50
238.175042
 51
269.304572
  0
ARC
  8
レイヤー 1
 10
380.709994
 20
328.489995
 40
4.195000
 50
271.220726
 51
295.260330
  0
ARC
  8
レイヤー 1
 10
379.534994
 20
328.704995
 40
3.975000
 50
195.390961
 51
237.547539
  0
ARC
  8
レイヤー 1
 10
378.094994
 20
329.519995
 40
2.565000
 50
148.790871
 51
172.629002
  0
ARC
  8
レイヤー 1
 10
384.454994
 20
328.884995
 40
8.960000
 50
173.826887
 51
181.194007
  0
LINE
  8
レイヤー 1
 10
375.499994
 20
328.699995
 11
375.499994
 21
327.649995
  0
ARC
  8
レイヤー 1
 10
380.954994
 20
328.769995
 40
5.235000
 50
106.129462
 51
156.604607
  0
ARC
  8
レイヤー 1
 10
381.399994
 20
325.224995
 40
8.780000
 50
68.633104
 51
88.373753
  0
ARC
  8
レイヤー 1
 10
381.119994
 20
328.024995
 40
5.995000
 50
84.943528
 51
105.685542
  0
ARC
  8
レイヤー 1
 10
383.274994
 20
330.284995
 40
3.080000
 50
10.577834
 51
68.541493
  0
LINE
  8
レイヤー 1
 10
396.249994
 20
282.799996
 11
396.449994
 21
282.999996
  0
ARC
  8
レイヤー 1
 10
393.574994
 20
282.769996
 40
2.885000
 50
4.592517
 51
30.896822
  0
ARC
  8
レイヤー 1
 10
394.454994
 20
283.304996
 40
1.760000
 50
25.020192
 51
64.979798
  0
ARC
  8
レイヤー 1
 10
391.599994
 20
282.109996
 40
4.555000
 50
37.754869
 51
55.556596
  0
ARC
  8
レイヤー 1
 10
389.179994
 20
278.394996
 40
8.990000
 50
56.237359
 51
65.893945
  0
ARC
  8
レイヤー 1
 10
389.004994
 20
279.739996
 40
7.865000
 50
60.747643
 51
78.687223
  0
ARC
  8
レイヤー 1
 10
388.534994
 20
275.969996
 40
11.695000
 50
79.069997
 51
92.610700
  0
LINE
  8
レイヤー 1
 10
387.999994
 20
287.649996
 11
387.149994
 21
287.649996
  0
ARC
  8
レイヤー 1
 10
387.074994
 20
283.349996
 40
4.300000
 50
88.986462
 51
121.935950
  0
ARC
  8
レイヤー 1
 10
385.474994
 20
285.489996
 40
1.745000
 50
120.089176
 51
171.479387
  0
LINE
  8
レイヤー 1
 10
383.949994
 20
285.949996
 11
383.949994
 21
285.349996
  0
LINE
  8
レイヤー 1
 10
383.949994
 20
285.349996
 11
383.949994
 21
284.699996
  0
ARC
  8
レイヤー 1
 10
384.839994
 20
284.509996
 40
0.890000
 50
180.555902
 51
254.254843
  0
ARC
  8
レイヤー 1
 10
389.909994
 20
288.854996
 40
7.435000
 50
224.419644
 51
248.200248
  0
ARC
  8
レイヤー 1
 10
390.214994
 20
286.504996
 40
5.490000
 50
236.056204
 51
259.871366
  0
ARC
  8
レイヤー 1
 10
392.114994
 20
289.979996
 40
9.330000
 50
252.117985
 51
269.295420
  0
ARC
  8
レイヤー 1
 10
388.619994
 20
313.679995
 40
33.205000
 50
275.842236
 51
279.149498
  0
ARC
  8
レイヤー 1
 10
393.669994
 20
283.679996
 40
2.620000
 50
280.574709
 51
324.367688
  0
ARC
  8
レイヤー 1
 10
391.879994
 20
284.629996
 40
4.855000
 50
329.246738
 51
340.351020
  0
ARC
  8
レイヤー 1
 10
430.519994
 20
263.579996
 40
8.285000
 50
165.516672
 51
172.914694
  0
LINE
  8
レイヤー 1
 10
422.499994
 20
265.649996
 11
422.499994
 21
265.849996
  0
ARC
  8
レイヤー 1
 10
420.779994
 20
264.194996
 40
1.085000
 50
323.583312
 51
8.344204
  0
LINE
  8
レイヤー 1
 10
421.849994
 20
263.299996
 11
421.449994
 21
263.299996
  0
LINE
  8
レイヤー 1
 10
421.199994
 20
263.749996
 11
421.199994
 21
263.549996
  0
LINE
  8
レイヤー 1
 10
420.799994
 20
264.349996
 11
420.799994
 21
263.749996
  0
LINE
  8
レイヤー 1
 10
420.799994
 20
265.649996
 11
420.799994
 21
265.449996
  0
LINE
  8
レイヤー 1
 10
420.799994
 20
265.449996
 11
420.799994
 21
264.149996
  0
LINE
  8
レイヤー 1
 10
420.799994
 20
267.149996
 11
420.799994
 21
265.849996
  0
ARC
  8
レイヤー 1
 10
421.539994
 20
267.434996
 40
0.745000
 50
136.480726
 51
186.649380
  0
LINE
  8
レイヤー 1
 10
421.199994
 20
267.949996
 11
421.449994
 21
267.949996
  0
LINE
  8
レイヤー 1
 10
421.449994
 20
267.949996
 11
421.199994
 21
267.949996
  0
ARC
  8
レイヤー 1
 10
409.159994
 20
263.384996
 40
13.485000
 50
17.091371
 51
19.778523
  0
ARC
  8
レイヤー 1
 10
430.189994
 20
269.034996
 40
8.505000
 50
191.417671
 51
201.980853
  0
ARC
  8
レイヤー 1
 10
447.414993
 20
298.999996
 40
2.240000
 50
12.914016
 51
53.443000
  0
ARC
  8
レイヤー 1
 10
446.739993
 20
299.064996
 40
2.790000
 50
43.947173
 51
92.910197
  0
LINE
  8
レイヤー 1
 10
446.599993
 20
301.849996
 11
446.399993
 21
301.849996
  0
ARC
  8
レイヤー 1
 10
446.299993
 20
297.464996
 40
4.390000
 50
91.300044
 51
130.495463
  0
ARC
  8
レイヤー 1
 10
445.189993
 20
299.674996
 40
1.945000
 50
153.272986
 51
185.158421
  0
LINE
  8
レイヤー 1
 10
443.249993
 20
299.699996
 11
443.249993
 21
299.499996
  0
ARC
  8
レイヤー 1
 10
444.209993
 20
299.264996
 40
0.990000
 50
166.234709
 51
235.474203
  0
ARC
  8
レイヤー 1
 10
446.064993
 20
300.329996
 40
3.180000
 50
225.826600
 51
246.928374
  0
ARC
  8
レイヤー 1
 10
449.009993
 20
307.789995
 40
11.200000
 50
248.028515
 51
255.468871
  0
LINE
  8
レイヤー 1
 10
446.199993
 20
297.199996
 11
446.399993
 21
297.199996
  0
ARC
  8
レイヤー 1
 10
446.374993
 20
300.179996
 40
2.980000
 50
270.513481
 51
292.368625
  0
ARC
  8
レイヤー 1
 10
444.889993
 20
303.439995
 40
6.560000
 50
293.500827
 51
310.473202
  0
ARC
  8
レイヤー 1
 10
448.359993
 20
299.539996
 40
1.240000
 50
298.437034
 51
358.044013
  0
LINE
  8
レイヤー 1
 10
449.599993
 20
299.499996
 11
449.599993
 21
299.699996
  0
ARC
  8
レイヤー 1
 10
420.949994
 20
290.049996
 40
0.500000
 50
275.516893
 51
354.483117
  0
ARC
  8
レイヤー 1
 10
421.264994
 20
290.024996
 40
0.185000
 50
352.469030
 51
110.211342
  0
ARC
  8
レイヤー 1
 10
420.559994
 20
289.589996
 40
0.445000
 50
275.398674
 51
354.601336
  0
LINE
  8
レイヤー 1
 10
418.249994
 20
288.499996
 11
418.449994
 21
288.499996
  0
ARC
  8
レイヤー 1
 10
418.314994
 20
292.834996
 40
4.335000
 50
271.806955
 51
301.835881
  0
ARC
  8
レイヤー 1
 10
417.609994
 20
291.189996
 40
2.510000
 50
234.363997
 51
258.009660
  0
ARC
  8
レイヤー 1
 10
411.839994
 20
259.844996
 40
29.360000
 50
77.387510
 51
79.696962
  0
ARC
  8
レイヤー 1
 10
416.424994
 20
289.969996
 40
1.125000
 50
178.547119
 51
244.971834
  0
LINE
  8
レイヤー 1
 10
415.299994
 20
290.399996
 11
415.299994
 21
289.999996
  0
ARC
  8
レイヤー 1
 10
418.309994
 20
287.239996
 40
4.380000
 50
119.517842
 51
129.872438
  0
ARC
  8
レイヤー 1
 10
417.094994
 20
289.379996
 40
1.675000
 50
93.229526
 51
133.167630
  0
LINE
  8
レイヤー 1
 10
418.249994
 20
291.249996
 11
416.999994
 21
291.249996
  0
ARC
  8
レイヤー 1
 10
419.239994
 20
288.489996
 40
2.725000
 50
60.069983
 51
82.534630
  0
ARC
  8
レイヤー 1
 10
418.604994
 20
283.224996
 40
8.025000
 50
82.904661
 51
91.100259
  0
LINE
  8
レイヤー 1
 10
418.449994
 20
291.249996
 11
418.249994
 21
291.249996
  0
ARC
  8
レイヤー 1
 10
420.214994
 20
289.809996
 40
0.990000
 50
356.425020
 51
38.353309
  0
ARC
  8
レイヤー 1
 10
420.604994
 20
290.089996
 40
0.510000
 50
41.133431
 51
90.468494
  0
ARC
  8
レイヤー 1
 10
438.029993
 20
292.069996
 40
1.170000
 50
299.132346
 51
1.377898
  0
LINE
  8
レイヤー 1
 10
439.199993
 20
292.099996
 11
439.199993
 21
292.299996
  0
ARC
  8
レイヤー 1
 10
438.114993
 20
290.779996
 40
0.180000
 50
156.449247
 51
280.870361
  0
ARC
  8
レイヤー 1
 10
438.644993
 20
290.239996
 40
0.610000
 50
94.186686
 51
143.922496
  0
ARC
  8
レイヤー 1
 10
437.709993
 20
291.074996
 40
0.210000
 50
186.892112
 51
267.538749
  0
ARC
  8
レイヤー 1
 10
437.864993
 20
291.564996
 40
0.720000
 50
256.959001
 51
276.860795
  0
LINE
  8
レイヤー 1
 10
437.299993
 20
292.299996
 11
437.299993
 21
292.099996
  0
ARC
  8
レイヤー 1
 10
438.129993
 20
291.994996
 40
0.835000
 50
172.763592
 51
243.030944
  0
ARC
  8
レイヤー 1
 10
438.669993
 20
292.334996
 40
1.370000
 50
132.194999
 51
181.407825
  0
LINE
  8
レイヤー 1
 10
437.949993
 20
293.599996
 11
437.499993
 21
293.599996
  0
ARC
  8
レイヤー 1
 10
438.249993
 20
292.524996
 40
0.830000
 50
48.720529
 51
97.073996
  0
LINE
  8
レイヤー 1
 10
438.149993
 20
293.349996
 11
437.949993
 21
293.349996
  0
ARC
  8
レイヤー 1
 10
439.824993
 20
292.849996
 40
0.830000
 50
172.925955
 51
221.279499
  0
ARC
  8
レイヤー 1
 10
457.994993
 20
280.004996
 40
1.105000
 50
294.228041
 51
2.253006
  0
LINE
  8
レイヤー 1
 10
459.099993
 20
280.049996
 11
459.099993
 21
280.249996
  0
ARC
  8
レイヤー 1
 10
458.014993
 20
278.929996
 40
0.180000
 50
156.449247
 51
280.870361
  0
ARC
  8
レイヤー 1
 10
458.504993
 20
278.469996
 40
0.535000
 50
95.833153
 51
148.177586
  0
ARC
  8
レイヤー 1
 10
457.989993
 20
279.789996
 40
0.590000
 50
178.844793
 51
275.736416
  0
LINE
  8
レイヤー 1
 10
456.999993
 20
280.249996
 11
456.999993
 21
280.049996
  0
LINE
  8
レイヤー 1
 10
456.999993
 20
280.049996
 11
456.999993
 21
279.599996
  0
ARC
  8
レイヤー 1
 10
458.569993
 20
280.484996
 40
1.370000
 50
132.194999
 51
181.407825
  0
LINE
  8
レイヤー 1
 10
457.849993
 20
281.499996
 11
457.399993
 21
281.499996
  0
LINE
  8
レイヤー 1
 10
458.249993
 20
281.499996
 11
458.049993
 21
281.499996
  0
LINE
  8
レイヤー 1
 10
458.049993
 20
281.499996
 11
457.849993
 21
281.499996
  0
ARC
  8
レイヤー 1
 10
457.449993
 20
279.984996
 40
1.715000
 50
15.791152
 51
62.190828
  0
ARC
  8
レイヤー 1
 10
441.809993
 20
255.764996
 40
0.920000
 50
140.532554
 51
171.542434
  0
ARC
  8
レイヤー 1
 10
440.939993
 20
256.389996
 40
0.165000
 50
345.682001
 51
104.317989
  0
ARC
  8
レイヤー 1
 10
439.174993
 20
257.979996
 40
2.700000
 50
293.487110
 51
309.727907
  0
LINE
  8
レイヤー 1
 10
438.999993
 20
255.049996
 11
439.199993
 21
255.049996
  0
ARC
  8
レイヤー 1
 10
438.734993
 20
257.589996
 40
2.580000
 50
280.418509
 51
305.978687
  0
LINE
  8
レイヤー 1
 10
437.499993
 20
255.699996
 11
438.999993
 21
255.049996
  0
LINE
  8
レイヤー 1
 10
437.299993
 20
256.549996
 11
437.299993
 21
256.349996
  0
LINE
  8
レイヤー 1
 10
437.299993
 20
256.349996
 11
437.299993
 21
255.899996
  0
ARC
  8
レイヤー 1
 10
438.239993
 20
256.569996
 40
1.140000
 50
115.446614
 51
181.034433
  0
ARC
  8
レイヤー 1
 10
438.734993
 20
255.434996
 40
2.375000
 50
83.648661
 51
114.531871
  0
ARC
  8
レイヤー 1
 10
439.409993
 20
256.174996
 40
1.640000
 50
48.389866
 51
97.404660
  0
LINE
  8
レイヤー 1
 10
439.199993
 20
257.799996
 11
438.999993
 21
257.799996
  0
ARC
  8
レイヤー 1
 10
439.954993
 20
256.529996
 40
1.145000
 50
0.963482
 51
49.438760
  0
ARC
  8
レイヤー 1
 10
456.244993
 20
262.764996
 40
6.915000
 50
321.397297
 51
336.995212
  0
ARC
  8
レイヤー 1
 10
459.314993
 20
261.474996
 40
3.585000
 50
336.813836
 51
358.827669
  0
LINE
  8
レイヤー 1
 10
462.899993
 20
261.399996
 11
462.899993
 21
261.599996
  0
LINE
  8
レイヤー 1
 10
459.749993
 20
257.799996
 11
459.949993
 21
257.799996
  0
ARC
  8
レイヤー 1
 10
459.889993
 20
259.674996
 40
1.875000
 50
271.809403
 51
298.779681
  0
ARC
  8
レイヤー 1
 10
458.664993
 20
261.879996
 40
4.400000
 50
298.970891
 51
312.769815
  0
ARC
  8
レイヤー 1
 10
460.464993
 20
260.904996
 40
3.145000
 50
206.495540
 51
260.566020
  0
LINE
  8
レイヤー 1
 10
456.999993
 20
261.599996
 11
456.999993
 21
261.399996
  0
ARC
  8
レイヤー 1
 10
461.239993
 20
261.119996
 40
4.245000
 50
176.206830
 51
205.361763
  0
ARC
  8
レイヤー 1
 10
461.839993
 20
261.404996
 40
4.645000
 50
140.633409
 51
177.571024
  0
ARC
  8
レイヤー 1
 10
459.894993
 20
262.589996
 40
2.410000
 50
88.743760
 51
133.105219
  0
ARC
  8
レイヤー 1
 10
460.014993
 20
261.909996
 40
3.090000
 50
36.489304
 51
87.492329
  0
LINE
  8
レイヤー 1
 10
460.149993
 20
264.999996
 11
459.949993
 21
264.999996
  0
ARC
  8
レイヤー 1
 10
457.299993
 20
260.629996
 40
5.680000
 50
9.833941
 51
33.308669
  0
LINE
  8
レイヤー 1
 10
414.649994
 20
269.249996
 11
414.849994
 21
269.449996
  0
ARC
  8
レイヤー 1
 10
413.939994
 20
269.314996
 40
0.920000
 50
8.457546
 51
39.467426
  0
ARC
  8
レイヤー 1
 10
414.034994
 20
269.579996
 40
0.810000
 50
253.329273
 51
319.449824
  0
LINE
  8
レイヤー 1
 10
412.549994
 20
268.399996
 11
412.749994
 21
268.399996
  0
ARC
  8
レイヤー 1
 10
408.769994
 20
297.284996
 40
29.155000
 50
277.846399
 51
280.334173
  0
ARC
  8
レイヤー 1
 10
411.309994
 20
266.154996
 40
2.660000
 50
66.935052
 51
95.572606
  0
LINE
  8
レイヤー 1
 10
410.399994
 20
269.249996
 11
411.049994
 21
268.799996
  0
LINE
  8
レイヤー 1
 10
410.399994
 20
269.649996
 11
410.399994
 21
269.449996
  0
LINE
  8
レイヤー 1
 10
410.399994
 20
269.649996
 11
410.399994
 21
269.449996
  0
ARC
  8
レイヤー 1
 10
400.459994
 20
303.364995
 40
34.909999
 50
286.544660
 51
287.660814
  0
LINE
  8
レイヤー 1
 10
412.349994
 20
270.099996
 11
411.049994
 21
270.099996
  0
LINE
  8
レイヤー 1
 10
413.799994
 20
270.299996
 11
412.749994
 21
270.299996
  0
LINE
  8
レイヤー 1
 10
412.749994
 20
270.299996
 11
412.549994
 21
270.299996
  0
ARC
  8
レイヤー 1
 10
413.809994
 20
269.094996
 40
1.030000
 50
51.618314
 51
101.900629
  0
LINE
  8
レイヤー 1
 10
414.649994
 20
269.649996
 11
414.449994
 21
269.649996
  0
ARC
  8
レイヤー 1
 10
515.644992
 20
283.949996
 40
3.565000
 50
325.919944
 51
355.199991
  0
ARC
  8
レイヤー 1
 10
515.339992
 20
283.529996
 40
3.860000
 50
1.772074
 51
38.793039
  0
ARC
  8
レイヤー 1
 10
511.789992
 20
286.859996
 40
8.395000
 50
305.793282
 51
324.206727
  0
ARC
  8
レイヤー 1
 10
512.069992
 20
284.534996
 40
6.075000
 50
279.746908
 51
295.040658
  0
ARC
  8
レイヤー 1
 10
507.719992
 20
293.454996
 40
16.000000
 50
295.643974
 51
303.075514
  0
ARC
  8
レイヤー 1
 10
509.304992
 20
288.424996
 40
10.650000
 50
278.889350
 51
292.033102
  0
ARC
  8
レイヤー 1
 10
506.024992
 20
277.559996
 40
0.915000
 50
231.019212
 51
274.775354
  0
ARC
  8
レイヤー 1
 10
506.039992
 20
288.754996
 40
12.105000
 50
270.274073
 51
296.267231
  0
ARC
  8
レイヤー 1
 10
505.314992
 20
282.414996
 40
5.565000
 50
241.996597
 51
271.406285
  0
LINE
  8
レイヤー 1
 10
501.249993
 20
280.449996
 11
501.249993
 21
280.249996
  0
ARC
  8
レイヤー 1
 10
504.294992
 20
280.169996
 40
3.045000
 50
178.495469
 51
220.523817
  0
ARC
  8
レイヤー 1
 10
503.564992
 20
279.739996
 40
2.215000
 50
224.362049
 51
247.052280
  0
ARC
  8
レイヤー 1
 10
502.939993
 20
282.989996
 40
2.315000
 50
146.989860
 51
172.165405
  0
ARC
  8
レイヤー 1
 10
507.589992
 20
282.479996
 40
6.990000
 50
173.220680
 51
181.054213
  0
ARC
  8
レイヤー 1
 10
502.504993
 20
282.094996
 40
1.925000
 50
172.404150
 51
218.440169
  0
ARC
  8
レイヤー 1
 10
504.724992
 20
282.544996
 40
3.860000
 50
118.213608
 51
136.819839
  0
ARC
  8
レイヤー 1
 10
508.529992
 20
278.969996
 40
9.085000
 50
136.801455
 51
146.006806
  0
ARC
  8
レイヤー 1
 10
509.909992
 20
276.279996
 40
11.945000
 50
98.226794
 51
125.934072
  0
LINE
  8
レイヤー 1
 10
514.149992
 20
289.149996
 11
513.949992
 21
289.149996
  0
ARC
  8
レイヤー 1
 10
513.534992
 20
276.384996
 40
12.770000
 50
88.143581
 51
113.472858
  0
ARC
  8
レイヤー 1
 10
514.084992
 20
283.784996
 40
5.565000
 50
61.996577
 51
91.406265
  0
ARC
  8
レイヤー 1
 10
514.759992
 20
285.364996
 40
3.885000
 50
8.648891
 51
46.102131
  0
ARC
  8
レイヤー 1
 10
515.644992
 20
285.979996
 40
2.840000
 50
50.357882
 51
73.471997
  0
ARC
  8
レイヤー 1
 10
543.274992
 20
315.084995
 40
15.045000
 50
284.929591
 51
294.794481
  0
ARC
  8
レイヤー 1
 10
532.089992
 20
338.484995
 40
40.979999
 50
295.271120
 51
298.431880
  0
ARC
  8
レイヤー 1
 10
549.894992
 20
304.604995
 40
2.800000
 50
302.595289
 51
327.404721
  0
ARC
  8
レイヤー 1
 10
553.359992
 20
302.964995
 40
0.920000
 50
140.532554
 51
171.542434
  0
ARC
  8
レイヤー 1
 10
552.449992
 20
303.549995
 40
0.200000
 50
0.576348
 51
89.423642
  0
ARC
  8
レイヤー 1
 10
552.009992
 20
303.709995
 40
0.445000
 50
5.398664
 51
84.601326
  0
LINE
  8
レイヤー 1
 10
552.049992
 20
304.149995
 11
551.399992
 21
304.149995
  0
LINE
  8
レイヤー 1
 10
551.599992
 20
304.399995
 11
550.749992
 21
304.399995
  0
LINE
  8
レイヤー 1
 10
550.749992
 20
304.399995
 11
550.549992
 21
304.399995
  0
LINE
  8
レイヤー 1
 10
550.349992
 20
304.399995
 11
548.849992
 21
304.399995
  0
ARC
  8
レイヤー 1
 10
544.254992
 20
320.719995
 40
16.955000
 50
278.463172
 51
285.726360
  0
ARC
  8
レイヤー 1
 10
548.179992
 20
294.209996
 40
9.845000
 50
98.359337
 51
125.243457
  0
ARC
  8
レイヤー 1
 10
545.109992
 20
297.929996
 40
4.945000
 50
119.179029
 51
131.256129
  0
LINE
  8
レイヤー 1
 10
541.849992
 20
301.649996
 11
541.849992
 21
301.199996
  0
LINE
  8
レイヤー 1
 10
541.649992
 20
301.399996
 11
541.649992
 21
301.199996
  0
LINE
  8
レイヤー 1
 10
541.649992
 20
301.199996
 11
541.649992
 21
300.799996
  0
ARC
  8
レイヤー 1
 10
542.324992
 20
301.529996
 40
0.995000
 50
227.232965
 51
279.987978
  0
ARC
  8
レイヤー 1
 10
542.694992
 20
298.524996
 40
1.835000
 50
62.304143
 51
96.127244
  0
LINE
  8
レイヤー 1
 10
543.549992
 20
300.149996
 11
543.749992
 21
300.149996
  0
ARC
  8
レイヤー 1
 10
536.199992
 20
353.564995
 40
53.944999
 50
278.047657
 51
279.444685
  0
ARC
  8
レイヤー 1
 10
544.864992
 20
306.339995
 40
5.995000
 50
271.775727
 51
292.413804
  0
ARC
  8
レイヤー 1
 10
477.404993
 20
331.014995
 40
3.510000
 50
150.417227
 51
176.184248
  0
LINE
  8
レイヤー 1
 10
473.899993
 20
331.049995
 11
473.899993
 21
330.649995
  0
LINE
  8
レイヤー 1
 10
473.899993
 20
330.649995
 11
473.899993
 21
330.399995
  0
LINE
  8
レイヤー 1
 10
473.899993
 20
330.199995
 11
474.149993
 21
329.999995
  0
ARC
  8
レイヤー 1
 10
474.389993
 20
330.694995
 40
0.695000
 50
225.328033
 51
266.747015
  0
LINE
  8
レイヤー 1
 10
474.349993
 20
329.999995
 11
474.549993
 21
330.199995
  0
ARC
  8
レイヤー 1
 10
481.634993
 20
318.884995
 40
13.290000
 50
119.961978
 51
123.253000
  0
ARC
  8
レイヤー 1
 10
467.324993
 20
335.299995
 40
9.105000
 50
327.444616
 51
339.425288
  0
ARC
  8
レイヤー 1
 10
472.449993
 20
333.644995
 40
3.600000
 50
331.032004
 51
359.315039
  0
ARC
  8
レイヤー 1
 10
509.514992
 20
344.389995
 40
34.909999
 50
196.544670
 51
197.660824
  0
LINE
  8
レイヤー 1
 10
476.249993
 20
334.199995
 11
476.049993
 21
334.449995
  0
LINE
  8
レイヤー 1
 10
475.599993
 20
334.449995
 11
475.399993
 21
334.449995
  0
ARC
  8
レイヤー 1
 10
474.964993
 20
334.874995
 40
0.675000
 50
273.076959
 51
340.662848
  0
LINE
  8
レイヤー 1
 10
474.999993
 20
334.199995
 11
474.149993
 21
332.749995
  0
ARC
  8
レイヤー 1
 10
586.639991
 20
293.669996
 40
4.790000
 50
6.363936
 51
86.269879
  0
LINE
  8
レイヤー 1
 10
586.949991
 20
298.449996
 11
586.749991
 21
298.449996
  0
ARC
  8
レイヤー 1
 10
586.914991
 20
293.824996
 40
4.630000
 50
92.028324
 51
175.337822
  0
LINE
  8
レイヤー 1
 10
582.499991
 20
294.449996
 11
582.499991
 21
294.199996
  0
ARC
  8
レイヤー 1
 10
587.154991
 20
294.389996
 40
4.660000
 50
182.342434
 51
265.023771
  0
LINE
  8
レイヤー 1
 10
586.549991
 20
289.749996
 11
586.749991
 21
289.749996
  0
ARC
  8
レイヤー 1
 10
586.649991
 20
294.189996
 40
4.440000
 50
271.277679
 51
322.390318
  0
ARC
  8
レイヤー 1
 10
586.029991
 20
294.934996
 40
5.390000
 50
320.134199
 51
354.832427
  0
ARC
  8
レイヤー 1
 10
526.914992
 20
331.324995
 40
30.235000
 50
148.995902
 51
153.957827
  0
ARC
  8
レイヤー 1
 10
492.274993
 20
354.634995
 40
11.795000
 50
317.725827
 51
324.292193
  0
LINE
  8
レイヤー 1
 10
501.849993
 20
347.549995
 11
502.299993
 21
347.749995
  0
LINE
  8
レイヤー 1
 10
502.299993
 20
347.749995
 11
502.099993
 21
347.749995
  0
LINE
  8
レイヤー 1
 10
502.299993
 20
347.149995
 11
502.499993
 21
347.349995
  0
LINE
  8
レイヤー 1
 10
502.499993
 20
347.349995
 11
502.499993
 21
347.549995
  0
ARC
  8
レイヤー 1
 10
488.729993
 20
349.154995
 40
13.560000
 50
337.426910
 51
350.425945
  0
ARC
  8
レイヤー 1
 10
492.454993
 20
347.079995
 40
9.405000
 50
322.841017
 51
339.256999
  0
ARC
  8
レイヤー 1
 10
557.539992
 20
296.684996
 40
72.914999
 50
142.174196
 51
143.015059
  0
LINE
  8
レイヤー 1
 10
499.549993
 20
340.349995
 11
499.099993
 21
340.349995
  0
LINE
  8
レイヤー 1
 10
498.899993
 20
340.799995
 11
498.899993
 21
340.549995
  0
LINE
  8
レイヤー 1
 10
498.899993
 20
341.649995
 11
498.899993
 21
340.999995
  0
ARC
  8
レイヤー 1
 10
509.174992
 20
339.414995
 40
10.660000
 50
152.136948
 51
169.282924
  0
ARC
  8
レイヤー 1
 10
565.884992
 20
296.469996
 40
4.800000
 50
276.165465
 51
353.156496
  0
LINE
  8
レイヤー 1
 10
570.649991
 20
295.899996
 11
570.649991
 21
296.099996
  0
LINE
  8
レイヤー 1
 10
562.599992
 20
296.099996
 11
562.599992
 21
295.899996
  0
ARC
  8
レイヤー 1
 10
566.994992
 20
296.084996
 40
4.395000
 50
182.395930
 51
265.520846
  0
ARC
  8
レイヤー 1
 10
566.729992
 20
295.569996
 40
4.130000
 50
91.098209
 51
178.190022
  0
ARC
  8
レイヤー 1
 10
566.384992
 20
295.214996
 40
4.495000
 50
6.192769
 51
86.601583
  0
LINE
  8
レイヤー 1
 10
566.649992
 20
299.699996
 11
566.399992
 21
299.699996
  0
ARC
  8
レイヤー 1
 10
518.254992
 20
309.874995
 40
4.150000
 50
314.215071
 51
356.897025
  0
ARC
  8
レイヤー 1
 10
519.729992
 20
309.664995
 40
2.670000
 50
359.660224
 51
33.738261
  0
ARC
  8
レイヤー 1
 10
516.599992
 20
310.919995
 40
6.070000
 50
282.854076
 51
318.545382
  0
ARC
  8
レイヤー 1
 10
516.469992
 20
311.144995
 40
6.745000
 50
237.546961
 51
268.129226
  0
ARC
  8
レイヤー 1
 10
516.189992
 20
308.459995
 40
4.060000
 50
270.815655
 51
295.665402
  0
ARC
  8
レイヤー 1
 10
514.744992
 20
308.859995
 40
3.455000
 50
194.396870
 51
214.532020
  0
ARC
  8
レイヤー 1
 10
516.304992
 20
309.924995
 40
5.345000
 50
214.474094
 51
233.137995
  0
ARC
  8
レイヤー 1
 10
514.724992
 20
309.749995
 40
3.485000
 50
135.311170
 51
175.371903
  0
ARC
  8
レイヤー 1
 10
519.634992
 20
309.074995
 40
8.435000
 50
173.506832
 51
180.181634
  0
LINE
  8
レイヤー 1
 10
511.199992
 20
309.049995
 11
511.199992
 21
307.999995
  0
ARC
  8
レイヤー 1
 10
516.609992
 20
308.389995
 40
5.640000
 50
102.385759
 51
137.521431
  0
ARC
  8
レイヤー 1
 10
516.834992
 20
304.944995
 40
9.415000
 50
68.393479
 51
87.156258
  0
ARC
  8
レイヤー 1
 10
516.809992
 20
309.514995
 40
4.860000
 50
84.223809
 51
109.354119
  0
ARC
  8
レイヤー 1
 10
518.439992
 20
310.479995
 40
3.420000
 50
14.723742
 51
61.942930
  0
LINE
  8
レイヤー 1
 10
531.899992
 20
262.899996
 11
532.149992
 21
263.099996
  0
ARC
  8
レイヤー 1
 10
530.354992
 20
263.159996
 40
1.795000
 50
358.079372
 51
41.518377
  0
ARC
  8
レイヤー 1
 10
529.024992
 20
263.284996
 40
2.515000
 50
25.111588
 51
49.699117
  0
ARC
  8
レイヤー 1
 10
527.304992
 20
262.634996
 40
4.215000
 50
37.506033
 51
56.323689
  0
ARC
  8
レイヤー 1
 10
525.649992
 20
259.969996
 40
7.350000
 50
57.114539
 51
70.545228
  0
ARC
  8
レイヤー 1
 10
518.629992
 20
242.314996
 40
26.345000
 50
68.929903
 51
73.297907
  0
ARC
  8
レイヤー 1
 10
523.984992
 20
256.069996
 40
11.695000
 50
79.069997
 51
92.610700
  0
LINE
  8
レイヤー 1
 10
523.449992
 20
267.749996
 11
522.599992
 21
267.749996
  0
ARC
  8
レイヤー 1
 10
522.524992
 20
263.339996
 40
4.410000
 50
88.995300
 51
120.246425
  0
ARC
  8
レイヤー 1
 10
521.324992
 20
265.479996
 40
1.960000
 50
121.547829
 51
163.063659
  0
LINE
  8
レイヤー 1
 10
519.199992
 20
266.049996
 11
519.199992
 21
265.449996
  0
ARC
  8
レイヤー 1
 10
520.129992
 20
265.259996
 40
0.945000
 50
168.507578
 51
224.271499
  0
ARC
  8
レイヤー 1
 10
521.514992
 20
265.549996
 40
2.010000
 50
201.975374
 51
232.835370
  0
ARC
  8
レイヤー 1
 10
524.614992
 20
266.834996
 40
5.305000
 50
215.553249
 51
249.977111
  0
ARC
  8
レイヤー 1
 10
527.139992
 20
270.454996
 40
9.375000
 50
241.025098
 51
254.902473
  0
ARC
  8
レイヤー 1
 10
527.884992
 20
273.664996
 40
12.915000
 50
254.808612
 51
269.181952
  0
ARC
  8
レイヤー 1
 10
526.279992
 20
265.004996
 40
4.485000
 50
288.465599
 51
296.774146
  0
ARC
  8
レイヤー 1
 10
528.254992
 20
266.899996
 40
5.900000
 50
270.418058
 51
296.062999
  0
ARC
  8
レイヤー 1
 10
530.364992
 20
262.924996
 40
1.180000
 50
294.279812
 51
329.441729
  0
ARC
  8
レイヤー 1
 10
528.309992
 20
264.044996
 40
3.515000
 50
330.768191
 51
344.442761
  0
ARC
  8
レイヤー 1
 10
582.649991
 20
279.369996
 40
2.635000
 50
9.412032
 51
53.990820
  0
ARC
  8
レイヤー 1
 10
582.474991
 20
279.359996
 40
2.595000
 50
42.099503
 51
93.828028
  0
LINE
  8
レイヤー 1
 10
582.299991
 20
281.949996
 11
582.099991
 21
281.949996
  0
ARC
  8
レイヤー 1
 10
581.919991
 20
277.834996
 40
4.315000
 50
90.275607
 51
130.836460
  0
ARC
  8
レイヤー 1
 10
581.259991
 20
279.724996
 40
2.560000
 50
147.503817
 51
178.290689
  0
LINE
  8
レイヤー 1
 10
578.699991
 20
279.799996
 11
578.699991
 21
279.599996
  0
ARC
  8
レイヤー 1
 10
582.524991
 20
279.874996
 40
3.835000
 50
184.106497
 51
206.737862
  0
ARC
  8
レイヤー 1
 10
581.854991
 20
280.419996
 40
3.130000
 50
216.739755
 51
266.214034
  0
LINE
  8
レイヤー 1
 10
581.899991
 20
277.049996
 11
582.099991
 21
277.049996
  0
ARC
  8
レイヤー 1
 10
582.069991
 20
279.869996
 40
2.820000
 50
270.656734
 51
293.340403
  0
ARC
  8
レイヤー 1
 10
580.284991
 20
283.619996
 40
6.970000
 50
294.562779
 51
310.874818
  0
ARC
  8
レイヤー 1
 10
583.364991
 20
279.734996
 40
1.890000
 50
312.842204
 51
355.875790
  0
LINE
  8
レイヤー 1
 10
585.249991
 20
279.599996
 11
585.249991
 21
279.799996
  0
LINE
  8
レイヤー 1
 10
556.699992
 20
259.499996
 11
556.899992
 21
259.499996
  0
ARC
  8
レイヤー 1
 10
556.699992
 20
259.499996
 40
0.200000
 50
0.576348
 51
89.423642
  0
ARC
  8
レイヤー 1
 10
555.619992
 20
259.679996
 40
1.055000
 50
282.694659
 51
326.695660
  0
ARC
  8
レイヤー 1
 10
555.314992
 20
259.664996
 40
1.255000
 50
255.544402
 51
306.024211
  0
LINE
  8
レイヤー 1
 10
553.949992
 20
257.999996
 11
554.149992
 21
257.999996
  0
ARC
  8
レイヤー 1
 10
551.134992
 20
269.824996
 40
12.205000
 50
284.309464
 51
288.469632
  0
LINE
  8
レイヤー 1
 10
551.399992
 20
258.649996
 11
553.699992
 21
257.999996
  0
LINE
  8
レイヤー 1
 10
550.949992
 20
259.949996
 11
550.949992
 21
259.699996
  0
ARC
  8
レイヤー 1
 10
551.824992
 20
259.619996
 40
0.880000
 50
174.691395
 51
241.103140
  0
LINE
  8
レイヤー 1
 10
550.949992
 20
260.149996
 11
550.949992
 21
259.699996
  0
LINE
  8
レイヤー 1
 10
551.599992
 20
260.549996
 11
550.949992
 21
259.949996
  0
ARC
  8
レイヤー 1
 10
552.639992
 20
258.669996
 40
2.090000
 50
95.242433
 51
126.466458
  0
LINE
  8
レイヤー 1
 10
553.699992
 20
260.999996
 11
552.449992
 21
260.999996
  0
ARC
  8
レイヤー 1
 10
554.499992
 20
257.694996
 40
3.075000
 50
59.710696
 51
96.511971
  0
LINE
  8
レイヤー 1
 10
554.149992
 20
260.749996
 11
553.949992
 21
260.749996
  0
ARC
  8
レイヤー 1
 10
555.744992
 20
259.559996
 40
0.955000
 50
356.260515
 51
38.935688
  0
ARC
  8
レイヤー 1
 10
556.064992
 20
259.774996
 40
0.575000
 50
42.437156
 51
91.428251
  0
ARC
  8
レイヤー 1
 10
571.874991
 20
273.179996
 40
3.125000
 50
319.487657
 51
345.563486
  0
LINE
  8
レイヤー 1
 10
574.899991
 20
272.399996
 11
574.899991
 21
272.649996
  0
ARC
  8
レイヤー 1
 10
573.784991
 20
271.124996
 40
0.185000
 50
172.468996
 51
290.211377
  0
ARC
  8
レイヤー 1
 10
574.284991
 20
270.579996
 40
0.570000
 50
93.441120
 51
139.688957
  0
ARC
  8
レイヤー 1
 10
573.579991
 20
271.729996
 40
0.580000
 50
173.275564
 51
272.143207
  0
LINE
  8
レイヤー 1
 10
572.749991
 20
272.399996
 11
572.749991
 21
272.199996
  0
LINE
  8
レイヤー 1
 10
572.749991
 20
272.199996
 11
572.749991
 21
271.799996
  0
ARC
  8
レイヤー 1
 10
574.464991
 20
272.534996
 40
1.720000
 50
137.409001
 51
176.193783
  0
LINE
  8
レイヤー 1
 10
573.599991
 20
273.699996
 11
573.199991
 21
273.699996
  0
LINE
  8
レイヤー 1
 10
574.049991
 20
273.699996
 11
573.849991
 21
273.699996
  0
LINE
  8
レイヤー 1
 10
573.849991
 20
273.699996
 11
573.599991
 21
273.699996
  0
ARC
  8
レイヤー 1
 10
572.979991
 20
271.964996
 40
2.040000
 50
19.643696
 51
58.338284
  0
ARC
  8
レイヤー 1
 10
593.359991
 20
260.389996
 40
1.240000
 50
298.437034
 51
358.044013
  0
LINE
  8
レイヤー 1
 10
594.599991
 20
260.349996
 11
594.599991
 21
260.549996
  0
ARC
  8
レイヤー 1
 10
593.684991
 20
259.274996
 40
0.185000
 50
172.468996
 51
290.211377
  0
ARC
  8
レイヤー 1
 10
594.184991
 20
258.729996
 40
0.570000
 50
93.441120
 51
139.688957
  0
ARC
  8
レイヤー 1
 10
593.299991
 20
259.509996
 40
0.200000
 50
182.742278
 51
268.134330
  0
ARC
  8
レイヤー 1
 10
593.424991
 20
259.944996
 40
0.650000
 50
258.247767
 51
276.600617
  0
LINE
  8
レイヤー 1
 10
592.649991
 20
260.549996
 11
592.649991
 21
260.349996
  0
ARC
  8
レイヤー 1
 10
593.479991
 20
260.244996
 40
0.835000
 50
172.763592
 51
243.030944
  0
ARC
  8
レイヤー 1
 10
594.249991
 20
260.484996
 40
1.600000
 50
135.871831
 51
177.730953
  0
LINE
  8
レイヤー 1
 10
593.499991
 20
261.849996
 11
593.099991
 21
261.849996
  0
ARC
  8
レイヤー 1
 10
593.614991
 20
260.814996
 40
0.795000
 50
47.533969
 51
98.260557
  0
LINE
  8
レイヤー 1
 10
593.499991
 20
261.599996
 11
593.299991
 21
261.599996
  0
ARC
  8
レイヤー 1
 10
595.069991
 20
261.104996
 40
0.725000
 50
172.410721
 51
229.664296
  0
ARC
  8
レイヤー 1
 10
494.219993
 20
270.979996
 40
8.285000
 50
165.516672
 51
172.914694
  0
LINE
  8
レイヤー 1
 10
486.199993
 20
273.049996
 11
486.199993
 21
273.249996
  0
ARC
  8
レイヤー 1
 10
485.024993
 20
271.579996
 40
1.000000
 50
320.862590
 51
12.656373
  0
LINE
  8
レイヤー 1
 10
485.799993
 20
270.949996
 11
485.349993
 21
270.699996
  0
LINE
  8
レイヤー 1
 10
485.149993
 20
271.149996
 11
485.149993
 21
270.949996
  0
ARC
  8
レイヤー 1
 10
485.364993
 20
271.684996
 40
0.675000
 50
170.012497
 51
232.062520
  0
LINE
  8
レイヤー 1
 10
484.499993
 20
273.049996
 11
484.499993
 21
272.849996
  0
LINE
  8
レイヤー 1
 10
484.499993
 20
272.849996
 11
484.499993
 21
271.549996
  0
LINE
  8
レイヤー 1
 10
484.499993
 20
274.549996
 11
484.499993
 21
273.249996
  0
ARC
  8
レイヤー 1
 10
481.814993
 20
276.234996
 40
3.245000
 50
332.802460
 51
345.122523
  0
LINE
  8
レイヤー 1
 10
485.149993
 20
275.149996
 11
485.349993
 21
275.399996
  0
LINE
  8
レイヤー 1
 10
485.349993
 20
275.399996
 11
485.149993
 21
275.399996
  0
ARC
  8
レイヤー 1
 10
484.969993
 20
274.519996
 40
1.055000
 50
12.694649
 51
56.695650
  0
LINE
  8
レイヤー 1
 10
486.199993
 20
273.249996
 11
485.799993
 21
274.749996
  0
LINE
  8
レイヤー 1
 10
494.649993
 20
318.749995
 11
494.899993
 21
318.749995
  0
ARC
  8
レイヤー 1
 10
494.719993
 20
323.129995
 40
4.385000
 50
272.375162
 51
358.302897
  0
LINE
  8
レイヤー 1
 10
499.099993
 20
322.999995
 11
499.099993
 21
323.199995
  0
LINE
  8
レイヤー 1
 10
491.049993
 20
323.199995
 11
491.049993
 21
322.999995
  0
ARC
  8
レイヤー 1
 10
495.499993
 20
323.189995
 40
4.455000
 50
182.419810
 51
264.819512
  0
ARC
  8
レイヤー 1
 10
495.099993
 20
323.004995
 40
4.050000
 50
92.837818
 51
180.062625
  0
ARC
  8
レイヤー 1
 10
494.574993
 20
322.509995
 40
4.550000
 50
6.185707
 51
85.897536
  0
LINE
  8
レイヤー 1
 10
494.899993
 20
327.049995
 11
494.649993
 21
327.049995
  0
ARC
  8
レイヤー 1
 10
634.119991
 20
255.529996
 40
8.285000
 50
165.516672
 51
172.914694
  0
LINE
  8
レイヤー 1
 10
626.099991
 20
257.599996
 11
626.099991
 21
257.799996
  0
ARC
  8
レイヤー 1
 10
624.579991
 20
256.164996
 40
1.135000
 50
324.104467
 51
9.414496
  0
LINE
  8
レイヤー 1
 10
625.699991
 20
255.249996
 11
625.249991
 21
255.049996
  0
LINE
  8
レイヤー 1
 10
624.849991
 20
255.499996
 11
624.849991
 21
255.249996
  0
LINE
  8
レイヤー 1
 10
624.649991
 20
256.349996
 11
624.649991
 21
255.699996
  0
LINE
  8
レイヤー 1
 10
624.399991
 20
257.599996
 11
624.399991
 21
257.399996
  0
LINE
  8
レイヤー 1
 10
624.399991
 20
257.399996
 11
624.399991
 21
256.099996
  0
LINE
  8
レイヤー 1
 10
624.649991
 20
259.299996
 11
624.649991
 21
257.999996
  0
ARC
  8
レイヤー 1
 10
625.559991
 20
259.374996
 40
0.915000
 50
141.019163
 51
184.775383
  0
LINE
  8
レイヤー 1
 10
625.049991
 20
259.949996
 11
625.249991
 21
260.149996
  0
LINE
  8
レイヤー 1
 10
625.249991
 20
260.149996
 11
625.049991
 21
260.149996
  0
ARC
  8
レイヤー 1
 10
659.164990
 20
269.889996
 40
34.909999
 50
196.544670
 51
197.660824
  0
ARC
  8
レイヤー 1
 10
652.614990
 20
265.674996
 40
27.660000
 50
193.323460
 51
196.539411
  0
LINE
  8
レイヤー 1
 10
550.099992
 20
418.049994
 11
857.049987
 21
240.649996
  0
LINE
  8
レイヤー 1
 10
907.649986
 20
239.599996
 11
550.099992
 21
446.199993
  0
LINE
  8
レイヤー 1
 10
550.099992
 20
418.049994
 11
550.099992
 21
446.199993
  0
LINE
  8
レイヤー 1
 10
550.099992
 20
418.049994
 11
858.099987
 21
240.249996
  0
LINE
  8
レイヤー 1
 10
848.349987
 20
362.149995
 11
682.649990
 21
458.249993
  0
LINE
  8
レイヤー 1
 10
1057.699984
 20
240.899996
 11
938.549986
 21
309.899995
  0
LINE
  8
レイヤー 1
 10
694.899990
 20
535.949992
 11
548.449992
 21
451.499993
  0
LINE
  8
レイヤー 1
 10
548.449992
 20
430.299994
 11
548.449992
 21
451.499993
  0
LINE
  8
レイヤー 1
 10
548.449992
 20
430.299994
 11
549.499992
 21
429.699994
  0
LINE
  8
レイヤー 1
 10
549.499992
 20
429.699994
 11
549.499992
 21
449.149993
  0
LINE
  8
レイヤー 1
 10
549.499992
 20
449.149993
 11
587.399991
 21
427.349994
  0
LINE
  8
レイヤー 1
 10
587.399991
 20
427.349994
 11
605.349991
 21
416.999994
  0
ARC
  8
レイヤー 1
 10
604.464991
 20
416.289994
 40
1.140000
 50
2.906578
 51
52.887958
  0
LINE
  8
レイヤー 1
 10
605.599991
 20
415.949994
 11
605.799991
 21
416.149994
  0
ARC
  8
レイヤー 1
 10
605.114991
 20
416.054994
 40
0.690000
 50
7.713196
 51
45.416901
  0
LINE
  8
レイヤー 1
 10
605.599991
 20
415.949994
 11
605.349991
 21
415.949994
  0
LINE
  8
レイヤー 1
 10
605.349991
 20
415.949994
 11
598.799991
 21
419.549994
  0
LINE
  8
レイヤー 1
 10
598.799991
 20
418.049994
 11
598.799991
 21
419.549994
  0
LINE
  8
レイヤー 1
 10
598.799991
 20
418.049994
 11
605.349991
 21
414.449994
  0
LINE
  8
レイヤー 1
 10
605.349991
 20
414.449994
 11
605.799991
 21
413.999994
  0
LINE
  8
レイヤー 1
 10
605.799991
 20
413.999994
 11
753.749989
 21
499.749993
  0
LINE
  8
レイヤー 1
 10
753.749989
 20
499.949993
 11
753.099989
 21
501.249993
  0
LINE
  8
レイヤー 1
 10
752.899989
 20
500.999993
 11
751.399989
 21
503.349992
  0
LINE
  8
レイヤー 1
 10
751.399989
 20
503.349992
 11
694.899990
 21
535.949992
  0
LINE
  8
レイヤー 1
 10
548.449992
 20
451.499993
 11
587.399991
 21
428.849994
  0
LINE
  8
レイヤー 1
 10
587.399991
 20
428.849994
 11
605.349991
 21
418.449994
  0
ARC
  8
レイヤー 1
 10
604.214991
 20
416.794994
 40
2.300000
 50
39.151801
 51
66.037475
  0
ARC
  8
レイヤー 1
 10
600.804991
 20
414.844994
 40
6.105000
 50
8.073439
 51
31.696887
  0
ARC
  8
レイヤー 1
 10
610.309991
 20
413.519994
 40
3.985000
 50
150.219138
 51
156.650726
  0
LINE
  8
レイヤー 1
 10
606.849991
 20
415.499994
 11
606.849991
 21
415.699994
  0
ARC
  8
レイヤー 1
 10
605.739991
 20
414.699994
 40
0.395000
 50
187.568393
 51
245.344039
  0
ARC
  8
レイヤー 1
 10
605.984991
 20
415.184994
 40
0.935000
 50
243.958558
 51
270.841200
  0
ARC
  8
レイヤー 1
 10
605.839991
 20
414.939994
 40
0.710000
 50
283.083439
 51
322.205854
  0
ARC
  8
レイヤー 1
 10
605.714991
 20
415.144994
 40
0.935000
 50
317.049981
 51
357.282716
  0
LINE
  8
レイヤー 1
 10
605.349991
 20
414.449994
 11
598.799991
 21
418.049994
  0
LINE
  8
レイヤー 1
 10
598.799991
 20
418.049994
 11
598.799991
 21
419.549994
  0
LINE
  8
レイヤー 1
 10
598.799991
 20
419.549994
 11
605.349991
 21
415.949994
  0
LINE
  8
レイヤー 1
 10
605.349991
 20
415.949994
 11
605.799991
 21
415.949994
  0
LINE
  8
レイヤー 1
 10
605.599991
 20
415.949994
 11
605.799991
 21
416.149994
  0
ARC
  8
レイヤー 1
 10
605.114991
 20
416.054994
 40
0.690000
 50
7.713196
 51
45.416901
  0
ARC
  8
レイヤー 1
 10
604.624991
 20
416.349994
 40
1.175000
 50
359.989538
 51
63.529415
  0
LINE
  8
レイヤー 1
 10
605.349991
 20
416.999994
 11
587.399991
 21
427.349994
  0
LINE
  8
レイヤー 1
 10
587.399991
 20
427.349994
 11
549.499992
 21
449.149993
  0
LINE
  8
レイヤー 1
 10
549.499992
 20
429.699994
 11
549.499992
 21
449.149993
  0
LINE
  8
レイヤー 1
 10
549.499992
 20
429.699994
 11
548.449992
 21
430.299994
  0
LINE
  8
レイヤー 1
 10
548.449992
 20
430.299994
 11
548.449992
 21
451.499993
  0
ARC
  8
レイヤー 1
 10
606.439991
 20
444.904993
 40
11.105000
 50
304.921410
 51
321.217426
  0
ARC
  8
レイヤー 1
 10
612.474991
 20
439.929993
 40
3.290000
 50
323.013677
 51
355.137324
  0
ARC
  8
レイヤー 1
 10
612.239991
 20
439.519993
 40
3.510000
 50
2.113776
 51
55.107137
  0
ARC
  8
レイヤー 1
 10
612.424991
 20
441.429993
 40
2.165000
 50
32.647431
 51
58.388731
  0
ARC
  8
レイヤー 1
 10
722.154989
 20
635.794991
 40
221.034997
 50
240.273197
 51
240.574830
  0
ARC
  8
レイヤー 1
 10
606.864991
 20
434.479994
 40
10.925000
 50
57.096323
 51
77.663933
  0
ARC
  8
レイヤー 1
 10
606.984991
 20
433.469994
 40
11.695000
 50
79.069997
 51
92.610700
  0
ARC
  8
レイヤー 1
 10
606.274991
 20
428.884994
 40
16.265000
 50
89.381713
 51
114.807779
  0
ARC
  8
レイヤー 1
 10
602.249991
 20
437.784993
 40
6.500000
 50
115.511962
 51
142.399825
  0
ARC
  8
レイヤー 1
 10
599.249991
 20
440.424993
 40
2.525000
 50
148.403780
 51
172.793934
  0
ARC
  8
レイヤー 1
 10
605.669991
 20
439.824993
 40
8.970000
 50
174.122595
 51
181.115571
  0
ARC
  8
レイヤー 1
 10
600.129991
 20
439.569993
 40
3.430000
 50
178.670550
 51
226.089715
  0
LINE
  8
レイヤー 1
 10
597.549991
 20
437.299993
 11
599.449991
 21
436.049994
  0
ARC
  8
レイヤー 1
 10
604.634991
 20
444.774993
 40
10.150000
 50
239.278681
 51
261.010915
  0
ARC
  8
レイヤー 1
 10
606.419991
 20
448.704993
 40
14.355000
 50
256.413036
 51
269.113142
  0
ARC
  8
レイヤー 1
 10
606.084991
 20
448.019993
 40
13.670000
 50
270.484466
 51
280.643247
  0
ARC
  8
レイヤー 1
 10
604.294991
 20
457.404993
 40
23.225000
 50
280.708050
 51
287.041819
  0
ARC
  8
レイヤー 1
 10
609.269991
 20
440.979993
 40
6.060000
 50
287.545944
 51
305.584173
  0
LINE
  8
レイヤー 1
 10
604.749991
 20
439.849993
 11
602.399991
 21
438.349993
  0
ARC
  8
レイヤー 1
 10
602.239991
 20
437.849993
 40
0.500000
 50
94.641966
 51
168.625084
  0
LINE
  8
レイヤー 1
 10
601.999991
 20
437.949993
 11
601.999991
 21
437.749993
  0
ARC
  8
レイヤー 1
 10
601.919991
 20
437.284993
 40
0.670000
 50
43.891160
 51
82.978723
  0
LINE
  8
レイヤー 1
 10
602.399991
 20
437.949993
 11
602.399991
 21
437.749993
  0
ARC
  8
レイヤー 1
 10
602.774991
 20
437.674993
 40
0.380000
 50
168.574492
 51
281.425498
  0
ARC
  8
レイヤー 1
 10
611.169991
 20
422.984994
 40
16.455000
 50
116.222814
 51
119.571703
  0
LINE
  8
レイヤー 1
 10
603.899991
 20
437.499993
 11
606.199991
 21
438.999993
  0
LINE
  8
レイヤー 1
 10
606.199991
 20
438.999993
 11
608.749991
 21
437.499993
  0
ARC
  8
レイヤー 1
 10
610.604991
 20
441.184993
 40
4.320000
 50
238.559455
 51
251.038323
  0
ARC
  8
レイヤー 1
 10
609.399991
 20
437.299993
 40
0.200000
 50
179.280127
 51
270.719863
  0
ARC
  8
レイヤー 1
 10
609.164991
 20
437.984993
 40
0.915000
 50
284.786872
 51
345.213138
  0
ARC
  8
レイヤー 1
 10
609.819991
 20
437.719993
 40
0.230000
 50
7.582062
 51
95.098310
  0
ARC
  8
レイヤー 1
 10
609.984991
 20
437.924993
 40
0.185000
 50
172.468996
 51
290.211377
  0
ARC
  8
レイヤー 1
 10
610.009991
 20
438.189993
 40
0.445000
 50
275.398674
 51
354.601336
  0
ARC
  8
レイヤー 1
 10
612.069991
 20
442.604993
 40
4.485000
 50
243.225874
 51
251.534421
  0
LINE
  8
レイヤー 1
 10
610.249991
 20
438.349993
 11
607.899991
 21
439.849993
  0
LINE
  8
レイヤー 1
 10
607.899991
 20
439.849993
 11
610.249991
 21
441.099993
  0
ARC
  8
レイヤー 1
 10
610.044991
 20
441.344993
 40
0.250000
 50
179.418304
 51
270.581686
  0
ARC
  8
レイヤー 1
 10
609.784991
 20
441.944993
 40
0.885000
 50
287.363714
 51
347.217515
  0
ARC
  8
レイヤー 1
 10
610.449991
 20
441.749993
 40
0.200000
 50
0.576348
 51
89.423642
  0
LINE
  8
レイヤー 1
 10
610.649991
 20
441.549993
 11
610.449991
 21
441.749993
  0
LINE
  8
レイヤー 1
 10
610.249991
 20
441.949993
 11
610.049991
 21
441.949993
  0
LINE
  8
レイヤー 1
 10
610.049991
 20
441.949993
 11
609.799991
 21
441.949993
  0
LINE
  8
レイヤー 1
 10
610.049991
 20
442.399993
 11
609.599991
 21
442.399993
  0
LINE
  8
レイヤー 1
 10
609.599991
 20
442.399993
 11
609.399991
 21
442.399993
  0
ARC
  8
レイヤー 1
 10
609.279991
 20
441.384993
 40
0.775000
 50
80.997133
 51
133.208301
  0
LINE
  8
レイヤー 1
 10
608.749991
 20
441.949993
 11
606.199991
 21
440.699993
  0
LINE
  8
レイヤー 1
 10
606.199991
 20
440.699993
 11
603.899991
 21
441.949993
  0
LINE
  8
レイヤー 1
 10
603.449991
 20
442.149993
 11
603.049991
 21
442.149993
  0
LINE
  8
レイヤー 1
 10
603.049991
 20
442.149993
 11
602.849991
 21
442.149993
  0
ARC
  8
レイヤー 1
 10
602.709991
 20
442.124993
 40
0.310000
 50
62.948621
 51
175.160561
  0
LINE
  8
レイヤー 1
 10
602.199991
 20
441.949993
 11
601.749991
 21
441.949993
  0
LINE
  8
レイヤー 1
 10
601.999991
 20
441.749993
 11
601.999991
 21
441.549993
  0
ARC
  8
レイヤー 1
 10
602.714991
 20
442.204993
 40
0.995000
 50
194.761759
 51
238.978068
  0
LINE
  8
レイヤー 1
 10
602.399991
 20
441.099993
 11
604.749991
 21
439.849993
  0
LINE
  8
レイヤー 1
 10
604.749991
 20
439.399993
 11
602.399991
 21
437.949993
  0
ARC
  8
レイヤー 1
 10
602.249991
 20
437.449993
 40
0.500000
 50
95.516873
 51
174.483097
  0
LINE
  8
レイヤー 1
 10
601.999991
 20
437.499993
 11
601.999991
 21
437.299993
  0
ARC
  8
レイヤー 1
 10
601.919991
 20
436.834993
 40
0.670000
 50
43.891160
 51
82.978723
  0
LINE
  8
レイヤー 1
 10
602.399991
 20
437.749993
 11
602.399991
 21
437.499993
  0
ARC
  8
レイヤー 1
 10
602.764991
 20
437.454993
 40
0.365000
 50
173.046075
 51
283.686835
  0
ARC
  8
レイヤー 1
 10
605.104991
 20
433.214994
 40
4.320000
 50
108.961677
 51
121.440545
  0
LINE
  8
レイヤー 1
 10
603.899991
 20
437.099993
 11
606.199991
 21
438.599993
  0
LINE
  8
レイヤー 1
 10
606.199991
 20
438.599993
 11
608.749991
 21
437.099993
  0
ARC
  8
レイヤー 1
 10
609.299991
 20
437.829993
 40
0.820000
 50
203.591698
 51
248.980094
  0
ARC
  8
レイヤー 1
 10
610.394991
 20
439.854993
 40
3.120000
 50
243.570365
 51
251.390307
  0
ARC
  8
レイヤー 1
 10
609.619991
 20
436.869993
 40
0.220000
 50
171.907396
 51
265.412212
  0
ARC
  8
レイヤー 1
 10
609.319991
 20
437.579993
 40
0.970000
 50
286.669075
 51
343.330935
  0
ARC
  8
レイヤー 1
 10
610.049991
 20
437.299993
 40
0.200000
 50
0.576348
 51
89.423642
  0
ARC
  8
レイヤー 1
 10
609.984991
 20
437.474993
 40
0.185000
 50
172.468996
 51
290.211377
  0
ARC
  8
レイヤー 1
 10
610.484991
 20
436.929993
 40
0.570000
 50
93.441120
 51
139.688957
  0
LINE
  8
レイヤー 1
 10
610.649991
 20
437.499993
 11
610.649991
 21
437.749993
  0
LINE
  8
レイヤー 1
 10
610.249991
 20
438.149993
 11
610.049991
 21
438.149993
  0
LINE
  8
レイヤー 1
 10
610.249991
 20
437.949993
 11
607.899991
 21
439.399993
  0
LINE
  8
レイヤー 1
 10
607.899991
 20
439.399993
 11
610.249991
 21
440.899993
  0
ARC
  8
レイヤー 1
 10
610.289991
 20
441.594993
 40
0.695000
 50
225.328033
 51
266.747015
  0
ARC
  8
レイヤー 1
 10
610.199991
 20
441.349993
 40
0.450000
 50
276.554462
 51
0.178469
  0
ARC
  8
レイヤー 1
 10
609.964991
 20
441.254993
 40
0.690000
 50
7.713196
 51
45.416901
  0
LINE
  8
レイヤー 1
 10
610.649991
 20
441.349993
 11
610.449991
 21
441.349993
  0
LINE
  8
レイヤー 1
 10
610.249991
 20
441.549993
 11
610.049991
 21
441.549993
  0
LINE
  8
レイヤー 1
 10
610.049991
 20
441.549993
 11
609.799991
 21
441.549993
  0
ARC
  8
レイヤー 1
 10
609.459991
 20
441.609993
 40
0.345000
 50
349.773966
 51
100.226024
  0
LINE
  8
レイヤー 1
 10
609.399991
 20
441.949993
 11
609.199991
 21
441.949993
  0
ARC
  8
レイヤー 1
 10
609.279991
 20
441.184993
 40
0.775000
 50
80.997133
 51
133.208301
  0
LINE
  8
レイヤー 1
 10
608.749991
 20
441.549993
 11
606.449991
 21
440.249993
  0
LINE
  8
レイヤー 1
 10
606.449991
 20
440.249993
 11
603.899991
 21
441.549993
  0
ARC
  8
レイヤー 1
 10
603.124991
 20
441.039993
 40
0.915000
 50
51.019192
 51
94.775334
  0
LINE
  8
レイヤー 1
 10
603.049991
 20
441.949993
 11
602.849991
 21
441.949993
  0
ARC
  8
レイヤー 1
 10
602.854991
 20
441.489993
 40
0.460000
 50
90.826929
 51
172.440120
  0
ARC
  8
レイヤー 1
 10
602.044991
 20
441.289993
 40
0.305000
 50
59.758154
 51
168.166799
  0
LINE
  8
レイヤー 1
 10
601.999991
 20
441.349993
 11
601.999991
 21
441.099993
  0
LINE
  8
レイヤー 1
 10
601.549991
 20
441.549993
 11
602.199991
 21
440.899993
  0
LINE
  8
レイヤー 1
 10
602.399991
 20
440.899993
 11
604.749991
 21
439.399993
  0
LINE
  8
レイヤー 1
 10
549.499992
 20
449.149993
 11
552.649992
 21
447.449993
  0
LINE
  8
レイヤー 1
 10
552.649992
 20
447.449993
 11
550.099992
 21
446.199993
  0
LINE
  8
レイヤー 1
 10
550.099992
 20
429.249994
 11
550.099992
 21
446.199993
  0
LINE
  8
レイヤー 1
 10
550.099992
 20
429.249994
 11
549.499992
 21
429.699994
  0
LINE
  8
レイヤー 1
 10
549.499992
 20
429.699994
 11
549.499992
 21
449.149993
  0
LINE
  8
レイヤー 1
 10
548.449992
 20
451.499993
 11
694.899990
 21
535.949992
  0
LINE
  8
レイヤー 1
 10
749.299989
 20
501.849993
 11
608.949991
 21
420.599994
  0
LINE
  8
レイヤー 1
 10
605.799991
 20
413.999994
 11
753.749989
 21
499.749993
  0
LINE
  8
レイヤー 1
 10
599.849991
 20
420.149994
 11
598.799991
 21
419.549994
  0
LINE
  8
レイヤー 1
 10
841.599987
 20
310.299995
 11
814.299988
 21
294.449996
  0
LINE
  8
レイヤー 1
 10
814.299988
 20
266.049996
 11
814.299988
 21
294.449996
  0
LINE
  8
レイヤー 1
 10
962.449986
 20
380.149994
 11
931.349986
 21
362.149995
  0
LINE
  8
レイヤー 1
 10
694.899990
 20
538.899992
 11
744.649989
 21
567.699992
  0
LINE
  8
レイヤー 1
 10
786.749988
 20
542.499992
 11
823.399988
 21
563.449992
  0
LINE
  8
レイヤー 1
 10
786.749988
 20
545.249992
 11
786.749988
 21
542.499992
  0
LINE
  8
レイヤー 1
 10
786.749988
 20
542.499992
 11
823.399988
 21
563.449992
  0
LINE
  8
レイヤー 1
 10
823.399988
 20
563.449992
 11
823.199988
 21
566.649992
  0
LINE
  8
レイヤー 1
 10
823.199988
 20
566.649992
 11
786.749988
 21
545.249992
  0
LINE
  8
レイヤー 1
 10
823.599988
 20
563.049992
 11
827.599988
 21
560.699992
  0
LINE
  8
レイヤー 1
 10
827.599988
 20
560.699992
 11
1155.699983
 21
749.949989
  0
LINE
  8
レイヤー 1
 10
821.499988
 20
567.499992
 11
823.399988
 21
566.399992
  0
LINE
  8
レイヤー 1
 10
823.399988
 20
566.399992
 11
823.599988
 21
563.049992
  0
LINE
  8
レイヤー 1
 10
823.599988
 20
563.049992
 11
827.599988
 21
560.699992
  0
ARC
  8
レイヤー 1
 10
837.779988
 20
571.024991
 40
14.385000
 50
204.095670
 51
213.977749
  0
ARC
  8
レイヤー 1
 10
849.359987
 20
578.824991
 40
28.345000
 50
213.975416
 51
219.222737
  0
ARC
  8
レイヤー 1
 10
827.284988
 20
566.459992
 40
3.035000
 50
181.085626
 51
209.758733
  0
ARC
  8
レイヤー 1
 10
820.964988
 20
566.179992
 40
3.045000
 50
4.190636
 51
30.014818
  0
ARC
  8
レイヤー 1
 10
823.199988
 20
567.689992
 40
0.200000
 50
3.472844
 51
88.983336
  0
ARC
  8
レイヤー 1
 10
823.044988
 20
567.144992
 40
0.760000
 50
78.029948
 51
97.181537
  0
LINE
  8
レイヤー 1
 10
822.949988
 20
568.099992
 11
822.349988
 21
568.099992
  0
LINE
  8
レイヤー 1
 10
822.349988
 20
568.099992
 11
822.099988
 21
568.099992
  0
LINE
  8
レイヤー 1
 10
822.099988
 20
568.099992
 11
821.499988
 21
567.499992
  0
LINE
  8
レイヤー 1
 10
823.599988
 20
563.049992
 11
823.399988
 21
566.399992
  0
LINE
  8
レイヤー 1
 10
821.499988
 20
567.499992
 11
823.399988
 21
566.399992
  0
LINE
  8
レイヤー 1
 10
743.399989
 20
573.849991
 11
743.399989
 21
763.699989
  0
LINE
  8
レイヤー 1
 10
743.399989
 20
574.049991
 11
743.399989
 21
573.199991
  0
LINE
  8
レイヤー 1
 10
743.399989
 20
573.199991
 11
743.399989
 21
570.849991
  0
ARC
  8
レイヤー 1
 10
751.139989
 20
571.704991
 40
7.785000
 50
186.319259
 51
201.496888
  0
ARC
  8
レイヤー 1
 10
747.649989
 20
570.339992
 40
4.040000
 50
201.613997
 51
229.939573
  0
ARC
  8
レイヤー 1
 10
749.259989
 20
569.509992
 40
4.560000
 50
209.719411
 51
230.341139
  0
ARC
  8
レイヤー 1
 10
755.294989
 20
577.219991
 40
14.225000
 50
232.073743
 51
241.244869
  0
LINE
  8
レイヤー 1
 10
748.649989
 20
564.499992
 11
786.749988
 21
542.499992
  0
LINE
  8
レイヤー 1
 10
786.749988
 20
542.499992
 11
786.749988
 21
545.249992
  0
LINE
  8
レイヤー 1
 10
786.749988
 20
545.249992
 11
748.049989
 21
567.899992
  0
ARC
  8
レイヤー 1
 10
749.299989
 20
571.134991
 40
3.150000
 50
180.608631
 51
221.753228
  0
ARC
  8
レイヤー 1
 10
750.454989
 20
572.039991
 40
4.615000
 50
220.612877
 51
238.613559
  0
LINE
  8
レイヤー 1
 10
745.899989
 20
573.399991
 11
745.899989
 21
572.999991
  0
ARC
  8
レイヤー 1
 10
751.349989
 20
572.544991
 40
5.465000
 50
175.215832
 51
198.049196
  0
LINE
  8
レイヤー 1
 10
745.899989
 20
573.399991
 11
746.149989
 21
763.049989
  0
ARC
  8
レイヤー 1
 10
1155.534983
 20
289.414996
 40
19.120000
 50
245.644248
 51
269.298159
  0
ARC
  8
レイヤー 1
 10
1165.284983
 20
311.104995
 40
42.714999
 50
240.573619
 51
245.614220
  0
LINE
  8
レイヤー 1
 10
1144.499983
 20
273.699996
 11
771.949988
 21
490.449993
  0
LINE
  8
レイヤー 1
 10
771.949988
 20
490.449993
 11
756.899989
 21
499.099993
  0
ARC
  8
レイヤー 1
 10
757.574989
 20
500.824993
 40
1.930000
 50
206.863718
 51
243.136312
  0
ARC
  8
レイヤー 1
 10
757.144989
 20
501.044993
 40
1.695000
 50
181.501393
 51
220.207558
  0
LINE
  8
レイヤー 1
 10
755.649989
 20
500.799993
 11
753.949989
 21
504.199992
  0
ARC
  8
レイヤー 1
 10
750.489989
 20
502.034993
 40
3.915000
 50
33.556733
 51
52.105251
  0
ARC
  8
レイヤー 1
 10
743.214989
 20
493.939993
 40
14.790000
 50
49.139764
 51
52.354670
  0
LINE
  8
レイヤー 1
 10
752.499989
 20
505.449992
 11
694.899990
 21
538.899992
  0
LINE
  8
レイヤー 1
 10
694.899990
 20
535.949992
 11
694.899990
 21
538.899992
  0
LINE
  8
レイヤー 1
 10
694.899990
 20
535.949992
 11
750.549989
 21
503.749992
  0
ARC
  8
レイヤー 1
 10
748.589989
 20
500.539993
 40
4.060000
 50
25.667016
 51
64.332974
  0
LINE
  8
レイヤー 1
 10
753.349989
 20
500.399993
 11
752.499989
 21
502.299993
  0
ARC
  8
レイヤー 1
 10
760.969989
 20
502.914993
 40
8.265000
 50
197.704839
 51
214.354380
  0
ARC
  8
レイヤー 1
 10
756.694989
 20
499.814993
 40
2.895000
 50
217.524386
 51
244.493655
  0
LINE
  8
レイヤー 1
 10
755.449989
 20
497.199993
 11
771.949988
 21
487.449993
  0
LINE
  8
レイヤー 1
 10
771.949988
 20
487.449993
 11
1142.349983
 21
271.349996
  0
ARC
  8
レイヤー 1
 10
1156.259983
 20
294.794996
 40
27.260000
 50
239.315439
 51
267.977378
  0
LINE
  8
レイヤー 1
 10
1155.299983
 20
760.299989
 11
821.499988
 21
567.699992
  0
LINE
  8
レイヤー 1
 10
1083.299984
 20
763.499989
 11
749.299989
 21
570.849991
  0
LINE
  8
レイヤー 1
 10
1154.849983
 20
735.749989
 11
756.699989
 21
506.299992
  0
LINE
  8
レイヤー 1
 10
1155.049983
 20
729.849989
 11
758.849989
 21
501.249993
  0
LINE
  8
レイヤー 1
 10
843.099987
 20
248.049996
 11
874.849987
 21
258.249996
  0
LINE
  8
レイヤー 1
 10
824.449988
 20
258.849996
 11
855.149987
 21
269.249996
  0
LINE
  8
レイヤー 1
 10
870.999987
 20
239.799996
 11
895.149987
 21
247.649996
  0
LINE
  8
レイヤー 1
 10
805.599988
 20
269.899996
 11
836.099988
 21
280.449996
  0
LINE
  8
レイヤー 1
 10
786.749988
 20
281.099996
 11
816.849988
 21
291.899996
  0
LINE
  8
レイヤー 1
 10
767.699989
 20
292.099996
 11
795.849988
 21
302.699995
  0
LINE
  8
レイヤー 1
 10
748.449989
 20
303.299995
 11
776.599988
 21
314.099995
  0
LINE
  8
レイヤー 1
 10
729.599989
 20
314.549995
 11
756.899989
 21
325.749995
  0
LINE
  8
レイヤー 1
 10
710.149989
 20
325.949995
 11
737.449989
 21
337.199995
  0
LINE
  8
レイヤー 1
 10
690.649990
 20
337.399995
 11
717.749989
 21
349.049995
  0
LINE
  8
レイヤー 1
 10
671.199990
 20
348.849995
 11
697.849990
 21
360.699995
  0
LINE
  8
レイヤー 1
 10
651.499990
 20
360.249995
 11
677.749990
 21
372.549994
  0
LINE
  8
レイヤー 1
 10
631.599991
 20
371.899994
 11
657.649990
 21
384.399994
  0
LINE
  8
レイヤー 1
 10
611.699991
 20
383.549994
 11
637.549990
 21
396.249994
  0
LINE
  8
レイヤー 1
 10
591.599991
 20
395.399994
 11
617.199991
 21
408.299994
  0
LINE
  8
レイヤー 1
 10
571.499991
 20
407.049994
 11
596.699991
 21
420.349994
  0
LINE
  8
レイヤー 1
 10
574.699991
 20
431.799994
 11
551.199992
 21
419.099994
  0
LINE
  8
レイヤー 1
 10
552.449992
 20
441.949993
 11
568.349992
 21
408.949994
  0
LINE
  8
レイヤー 1
 10
571.499991
 20
433.499994
 11
588.449991
 21
397.099994
  0
LINE
  8
レイヤー 1
 10
590.999991
 20
423.749994
 11
608.549991
 21
385.449994
  0
LINE
  8
レイヤー 1
 10
611.499991
 20
411.699994
 11
628.649991
 21
373.799994
  0
LINE
  8
レイヤー 1
 10
631.849991
 20
399.649994
 11
648.349990
 21
362.149995
  0
LINE
  8
レイヤー 1
 10
652.149990
 20
387.549994
 11
668.249990
 21
350.499995
  0
LINE
  8
レイヤー 1
 10
672.449990
 20
375.699994
 11
687.699990
 21
339.099995
  0
LINE
  8
レイヤー 1
 10
692.349990
 20
363.849995
 11
707.199989
 21
327.649995
  0
LINE
  8
レイヤー 1
 10
712.249989
 20
352.199995
 11
726.649989
 21
316.449995
  0
LINE
  8
レイヤー 1
 10
732.149989
 20
340.349995
 11
745.699989
 21
304.999995
  0
LINE
  8
レイヤー 1
 10
750.999989
 20
330.649995
 11
764.749989
 21
293.799996
  0
LINE
  8
レイヤー 1
 10
770.449989
 20
319.399995
 11
783.799988
 21
282.799996
  0
LINE
  8
レイヤー 1
 10
789.749988
 20
308.399995
 11
802.649988
 21
271.549996
  0
LINE
  8
レイヤー 1
 10
809.199988
 20
297.199996
 11
821.699988
 21
260.549996
  0
LINE
  8
レイヤー 1
 10
828.249988
 20
286.199996
 11
840.299987
 21
249.549996
  0
LINE
  8
レイヤー 1
 10
847.299987
 20
274.949996
 11
858.549987
 21
239.799996
  0
LINE
  8
レイヤー 1
 10
866.349987
 20
263.749996
 11
873.749987
 21
239.799996
  0
LINE
  8
レイヤー 1
 10
885.399987
 20
252.749996
 11
889.449987
 21
239.799996
  0
ARC
  8
レイヤー 1
 10
888.059987
 20
279.039996
 40
91.499999
 50
106.872900
 51
114.466647
  0
ARC
  8
レイヤー 1
 10
875.914987
 20
306.904995
 40
61.109999
 50
114.923658
 51
119.955939
  0
LINE
  8
レイヤー 1
 10
892.399987
 20
370.399994
 11
889.649987
 21
370.399994
  0
ARC
  8
レイヤー 1
 10
889.504987
 20
270.384996
 40
100.014999
 50
89.915699
 51
106.258989
  0
ARC
  8
レイヤー 1
 10
891.919987
 20
273.144996
 40
97.254999
 50
71.828507
 51
89.834792
  0
ARC
  8
レイヤー 1
 10
896.554987
 20
289.989996
 40
79.619999
 50
61.330674
 51
71.170323
  0
ARC
  8
レイヤー 1
 10
916.979986
 20
325.244995
 40
38.799999
 50
45.351748
 51
57.133522
  0
ARC
  8
レイヤー 1
 10
907.044986
 20
310.909995
 40
56.239999
 50
56.556023
 51
60.485854
  0
ARC
  8
レイヤー 1
 10
922.194986
 20
328.074995
 40
33.170000
 50
32.404356
 51
48.324709
  0
ARC
  8
レイヤー 1
 10
953.514986
 20
332.994995
 40
0.250000
 50
277.618625
 51
350.881090
  0
ARC
  8
レイヤー 1
 10
951.764986
 20
333.349995
 40
2.035000
 50
348.888437
 51
1.438243
  0
ARC
  8
レイヤー 1
 10
929.614986
 20
333.284995
 40
24.185000
 50
0.272701
 51
30.751393
  0
ARC
  8
レイヤー 1
 10
930.749986
 20
333.959995
 40
22.825000
 50
329.429674
 51
357.469610
  0
ARC
  8
レイヤー 1
 10
920.044986
 20
341.174995
 40
35.824999
 50
312.939467
 51
327.920644
  0
ARC
  8
レイヤー 1
 10
914.199986
 20
345.734995
 40
43.159999
 50
299.041626
 51
314.500780
  0
LINE
  8
レイヤー 1
 10
935.149986
 20
307.999995
 11
934.949986
 21
307.749995
  0
ARC
  8
レイヤー 1
 10
902.189987
 20
363.589995
 40
64.524999
 50
284.778666
 51
300.510988
  0
ARC
  8
レイヤー 1
 10
891.784987
 20
336.079995
 40
38.889999
 50
264.041221
 51
268.692899
  0
ARC
  8
レイヤー 1
 10
890.694987
 20
396.884994
 40
99.684999
 50
270.118090
 51
286.286636
  0
ARC
  8
レイヤー 1
 10
889.799987
 20
400.129994
 40
102.944998
 50
251.949578
 51
268.971238
  0
ARC
  8
レイヤー 1
 10
878.929987
 20
365.804995
 40
66.754999
 50
239.647290
 51
251.634893
  0
ARC
  8
レイヤー 1
 10
865.049987
 20
344.259995
 40
41.334999
 50
225.155764
 51
241.301870
  0
ARC
  8
レイヤー 1
 10
860.619987
 20
340.919995
 40
35.849999
 50
211.191386
 51
226.410971
  0
LINE
  8
レイヤー 1
 10
826.799988
 20
335.299995
 11
826.799988
 21
334.199995
  0
ARC
  8
レイヤー 1
 10
850.904987
 20
334.264995
 40
24.105000
 50
180.153109
 51
209.619461
  0
ARC
  8
レイヤー 1
 10
849.854987
 20
333.804995
 40
22.890000
 50
149.419017
 51
176.879440
  0
ARC
  8
レイヤー 1
 10
856.859987
 20
329.469995
 40
31.400000
 50
131.876372
 51
148.983699
  0
ARC
  8
レイヤー 1
 10
866.059987
 20
322.454995
 40
42.819999
 50
119.156566
 51
134.780093
  0
ARC
  8
レイヤー 1
 10
870.379987
 20
315.849995
 40
50.869999
 50
119.671501
 51
132.675729
  0
ARC
  8
レイヤー 1
 10
859.139987
 20
329.259995
 40
33.400000
 50
134.087062
 51
150.216562
  0
ARC
  8
レイヤー 1
 10
850.469987
 20
334.289995
 40
23.675000
 50
150.080509
 51
181.190329
  0
LINE
  8
レイヤー 1
 10
826.799988
 20
333.799995
 11
826.799988
 21
333.149995
  0
ARC
  8
レイヤー 1
 10
851.729987
 20
334.604995
 40
24.770000
 50
183.362570
 51
208.455130
  0
ARC
  8
レイヤー 1
 10
858.504987
 20
338.539995
 40
32.705000
 50
209.173859
 51
225.665427
  0
ARC
  8
レイヤー 1
 10
890.579987
 20
378.584994
 40
83.724999
 50
228.997154
 51
233.770206
  0
ARC
  8
レイヤー 1
 10
865.864987
 20
344.909995
 40
41.954999
 50
233.816605
 51
240.488552
  0
ARC
  8
レイヤー 1
 10
884.999987
 20
380.754994
 40
82.579999
 50
241.186427
 51
253.321408
  0
ARC
  8
レイヤー 1
 10
889.929987
 20
395.934994
 40
98.534999
 50
253.108522
 51
269.720502
  0
ARC
  8
レイヤー 1
 10
889.024987
 20
322.244995
 40
24.850000
 50
270.979427
 51
277.339877
  0
ARC
  8
レイヤー 1
 10
891.824987
 20
394.189994
 40
96.589999
 50
270.072709
 51
288.234049
  0
ARC
  8
レイヤー 1
 10
900.994987
 20
366.614995
 40
67.294999
 50
288.234813
 51
300.108090
  0
ARC
  8
レイヤー 1
 10
885.469987
 20
287.839996
 40
82.754999
 50
106.835865
 51
118.958636
  0
LINE
  8
レイヤー 1
 10
892.399987
 20
370.849994
 11
889.649987
 21
370.849994
  0
ARC
  8
レイヤー 1
 10
889.564987
 20
271.584996
 40
99.264999
 50
89.951118
 51
106.423029
  0
ARC
  8
レイヤー 1
 10
891.644987
 20
272.849996
 40
98.004999
 50
71.802534
 51
89.674986
  0
ARC
  8
レイヤー 1
 10
899.874987
 20
297.939996
 40
71.404999
 50
60.763064
 51
71.737932
  0
ARC
  8
レイヤー 1
 10
920.209986
 20
329.454995
 40
33.824999
 50
44.706587
 51
57.243210
  0
ARC
  8
レイヤー 1
 10
907.249986
 20
310.114995
 40
57.104999
 50
56.806435
 51
60.981305
  0
ARC
  8
レイヤー 1
 10
916.454986
 20
324.069995
 40
40.299999
 50
33.139332
 51
46.392936
  0
ARC
  8
レイヤー 1
 10
953.504986
 20
333.399995
 40
0.255000
 50
279.626221
 51
351.175915
  0
ARC
  8
レイヤー 1
 10
951.884986
 20
333.759995
 40
1.915000
 50
348.071800
 51
1.260167
  0
ARC
  8
レイヤー 1
 10
929.534986
 20
333.714995
 40
24.265000
 50
0.206032
 51
30.697986
  0
ARC
  8
レイヤー 1
 10
931.264986
 20
334.254995
 40
22.300000
 50
329.093692
 51
357.805592
  0
ARC
  8
レイヤー 1
 10
921.849986
 20
340.134995
 40
33.500000
 50
312.416965
 51
328.443145
  0
ARC
  8
レイヤー 1
 10
914.289986
 20
345.794995
 40
42.819999
 50
299.156586
 51
314.780113
  0
ARC
  8
レイヤー 1
 10
924.974986
 20
332.549995
 40
26.055000
 50
12.640087
 51
38.028460
  0
ARC
  8
レイヤー 1
 10
929.979986
 20
334.489995
 40
20.825000
 50
331.335490
 51
359.206465
  0
ARC
  8
レイヤー 1
 10
927.024986
 20
333.894995
 40
23.775000
 50
0.730655
 51
10.550442
  0
ARC
  8
レイヤー 1
 10
923.479986
 20
336.834995
 40
27.580000
 50
314.315163
 51
332.970450
  0
ARC
  8
レイヤー 1
 10
905.784987
 20
355.409995
 40
53.264999
 50
300.788643
 51
314.320719
  0
ARC
  8
レイヤー 1
 10
900.924987
 20
364.279995
 40
63.419999
 50
283.844281
 51
300.172026
  0
ARC
  8
レイヤー 1
 10
890.214987
 20
396.244994
 40
97.144999
 50
249.503062
 51
270.049955
  0
ARC
  8
レイヤー 1
 10
890.214987
 20
392.514994
 40
93.414999
 50
270.051287
 51
285.958189
  0
ARC
  8
レイヤー 1
 10
867.344987
 20
342.164995
 40
38.369999
 50
238.506987
 51
244.608437
  0
ARC
  8
レイヤー 1
 10
882.829987
 20
375.329994
 40
74.969999
 50
244.782613
 51
249.192031
  0
ARC
  8
レイヤー 1
 10
872.299987
 20
352.394995
 40
49.694999
 50
226.667873
 51
239.794105
  0
ARC
  8
レイヤー 1
 10
858.399987
 20
337.554995
 40
29.220000
 50
208.409130
 51
226.802884
  0
ARC
  8
レイヤー 1
 10
852.279987
 20
334.554995
 40
22.330000
 50
142.338723
 51
180.914204
  0
ARC
  8
レイヤー 1
 10
853.209987
 20
334.239995
 40
23.260000
 50
180.096712
 51
207.079583
  0
ARC
  8
レイヤー 1
 10
895.109987
 20
352.599995
 40
31.465000
 50
281.346802
 51
299.073752
  0
ARC
  8
レイヤー 1
 10
890.869987
 20
366.074995
 40
45.624999
 50
249.107038
 51
270.035927
  0
ARC
  8
レイヤー 1
 10
890.789987
 20
363.594995
 40
43.144999
 50
270.148952
 51
284.101099
  0
ARC
  8
レイヤー 1
 10
877.189987
 20
333.579995
 40
10.265000
 50
231.490700
 51
255.379223
  0
ARC
  8
レイヤー 1
 10
882.029987
 20
344.619995
 40
22.520000
 50
220.486561
 51
240.093630
  0
ARC
  8
レイヤー 1
 10
872.754987
 20
336.394995
 40
10.005000
 50
180.271120
 51
218.267504
  0
ARC
  8
レイヤー 1
 10
871.089987
 20
337.104995
 40
8.560000
 50
143.061003
 51
183.725040
  0
LINE
  8
レイヤー 1
 10
862.549987
 20
336.549995
 11
862.549987
 21
336.349995
  0
ARC
  8
レイヤー 1
 10
878.929987
 20
332.604995
 40
17.565000
 50
126.623656
 51
146.687287
  0
ARC
  8
レイヤー 1
 10
877.904987
 20
334.279995
 40
15.450000
 50
117.373572
 51
127.726408
  0
ARC
  8
レイヤー 1
 10
888.759987
 20
315.909995
 40
36.774999
 50
103.937786
 51
119.230128
  0
ARC
  8
レイヤー 1
 10
891.254987
 20
308.679995
 40
44.169999
 50
69.670698
 51
90.459089
  0
ARC
  8
レイヤー 1
 10
890.784987
 20
304.854995
 40
47.994999
 50
89.860118
 51
103.106008
  0
LINE
  8
レイヤー 1
 10
910.399986
 20
348.199995
 11
906.599986
 21
350.099995
  0
ARC
  8
レイヤー 1
 10
900.354987
 20
330.819995
 40
20.245000
 50
38.955326
 51
60.257259
  0
ARC
  8
レイヤー 1
 10
905.854987
 20
336.034995
 40
12.870000
 50
6.091748
 51
35.733343
  0
ARC
  8
レイヤー 1
 10
909.224986
 20
336.994995
 40
9.630000
 50
323.353219
 51
358.531376
  0
ARC
  8
レイヤー 1
 10
918.124986
 20
336.879995
 40
0.740000
 50
349.710372
 51
44.495082
  0
ARC
  8
レイヤー 1
 10
901.704987
 20
341.619995
 40
18.605000
 50
307.191038
 51
326.119944
  0
LINE
  8
レイヤー 1
 10
910.399986
 20
325.349995
 11
912.699986
 21
326.799995
  0
ARC
  8
レイヤー 1
 10
883.834987
 20
340.799995
 40
20.000000
 50
212.679774
 51
224.421187
  0
ARC
  8
レイヤー 1
 10
875.729987
 20
331.954995
 40
8.045000
 50
219.838960
 51
247.890314
  0
ARC
  8
レイヤー 1
 10
880.819987
 20
336.784995
 40
14.895000
 50
236.949171
 51
255.724573
  0
ARC
  8
レイヤー 1
 10
887.934987
 20
360.029995
 40
39.139999
 50
254.308790
 51
264.082444
  0
ARC
  8
レイヤー 1
 10
890.764987
 20
372.944994
 40
52.494999
 50
262.487072
 51
269.711961
  0
ARC
  8
レイヤー 1
 10
890.094987
 20
367.609995
 40
47.159999
 50
270.493970
 51
284.497764
  0
ARC
  8
レイヤー 1
 10
898.519987
 20
340.834995
 40
19.185000
 50
280.145475
 51
300.471424
  0
ARC
  8
レイヤー 1
 10
921.714986
 20
332.509995
 40
6.130000
 50
161.557255
 51
171.657713
  0
ARC
  8
レイヤー 1
 10
907.524986
 20
334.439995
 40
8.375000
 50
0.052619
 51
37.157308
  0
ARC
  8
レイヤー 1
 10
906.609986
 20
334.559995
 40
9.195000
 50
34.368615
 51
56.765908
  0
ARC
  8
レイヤー 1
 10
906.509986
 20
338.079995
 40
6.465000
 50
40.158474
 51
54.627985
  0
ARC
  8
レイヤー 1
 10
872.694987
 20
288.629996
 40
66.369999
 50
55.535611
 51
57.810119
  0
ARC
  8
レイヤー 1
 10
894.779987
 20
322.044995
 40
26.270000
 50
59.160051
 51
78.098689
  0
ARC
  8
レイヤー 1
 10
892.289987
 20
320.124995
 40
28.680000
 50
74.408022
 51
88.154170
  0
ARC
  8
レイヤー 1
 10
890.724987
 20
296.779996
 40
52.069999
 50
87.260977
 51
90.029668
  0
ARC
  8
レイヤー 1
 10
890.529987
 20
306.154995
 40
42.694999
 50
89.770292
 51
108.261784
  0
ARC
  8
レイヤー 1
 10
886.559987
 20
320.109995
 40
28.140000
 50
109.102764
 51
119.506309
  0
ARC
  8
レイヤー 1
 10
887.064987
 20
321.134995
 40
27.685000
 50
121.258997
 51
131.558524
  0
ARC
  8
レイヤー 1
 10
877.929987
 20
332.189995
 40
13.220000
 50
134.301406
 51
157.726227
  0
ARC
  8
レイヤー 1
 10
869.209987
 20
335.504995
 40
3.675000
 50
152.549363
 51
172.523078
  0
ARC
  8
レイヤー 1
 10
876.559987
 20
334.729995
 40
11.065000
 50
173.502443
 51
181.461022
  0
LINE
  8
レイヤー 1
 10
865.499987
 20
334.449995
 11
865.499987
 21
333.999995
  0
ARC
  8
レイヤー 1
 10
898.604987
 20
341.919995
 40
20.085000
 50
298.704324
 51
318.086017
  0
ARC
  8
レイヤー 1
 10
880.649987
 20
333.364995
 40
8.850000
 50
114.733332
 51
141.264105
  0
ARC
  8
レイヤー 1
 10
881.579987
 20
332.709995
 40
10.265000
 50
141.490671
 51
165.379193
  0
LINE
  8
レイヤー 1
 10
871.849987
 20
335.299995
 11
871.849987
 21
334.199995
  0
ARC
  8
レイヤー 1
 10
878.334987
 20
334.279995
 40
6.485000
 50
180.715987
 51
195.428392
  0
ARC
  8
レイヤー 1
 10
884.764987
 20
336.129995
 40
13.175000
 50
195.736729
 51
205.772416
  0
ARC
  8
レイヤー 1
 10
887.939987
 20
342.304995
 40
19.180000
 50
218.361719
 51
227.777137
  0
ARC
  8
レイヤー 1
 10
881.704987
 20
335.289995
 40
9.720000
 50
229.939585
 51
243.379027
  0
ARC
  8
レイヤー 1
 10
888.494987
 20
347.509995
 40
23.790000
 50
241.517618
 51
260.455057
  0
ARC
  8
レイヤー 1
 10
889.754987
 20
344.759995
 40
21.115000
 50
255.723633
 51
270.796276
  0
ARC
  8
レイヤー 1
 10
889.774987
 20
353.874995
 40
30.225000
 50
270.516882
 51
291.490217
  0
LINE
  8
レイヤー 1
 10
901.299987
 20
325.949995
 11
903.199987
 21
326.799995
  0
ARC
  8
レイヤー 1
 10
897.764987
 20
336.594995
 40
11.105000
 50
298.128462
 51
320.636388
  0
ARC
  8
レイヤー 1
 10
901.499987
 20
334.094995
 40
6.790000
 50
315.631883
 51
329.949647
  0
ARC
  8
レイヤー 1
 10
897.109987
 20
336.564995
 40
11.820000
 50
330.249447
 51
344.479960
  0
ARC
  8
レイヤー 1
 10
937.554986
 20
326.559995
 40
29.850000
 50
165.172326
 51
166.755151
  0
ARC
  8
レイヤー 1
 10
901.429987
 20
334.024995
 40
7.275000
 50
1.390342
 51
37.489724
  0
ARC
  8
レイヤー 1
 10
901.569987
 20
334.719995
 40
6.715000
 50
29.732748
 51
60.267242
  0
LINE
  8
レイヤー 1
 10
904.899987
 20
340.799995
 11
902.749987
 21
342.049995
  0
ARC
  8
レイヤー 1
 10
900.509987
 20
336.569995
 40
6.105000
 50
333.016633
 51
356.060935
  0
ARC
  8
レイヤー 1
 10
900.159987
 20
336.014995
 40
6.445000
 50
1.193497
 51
39.918589
  0
ARC
  8
レイヤー 1
 10
897.479987
 20
334.829995
 40
9.015000
 50
34.597595
 51
63.509502
  0
ARC
  8
レイヤー 1
 10
891.784987
 20
326.149995
 40
19.265000
 50
60.392533
 51
82.492176
  0
ARC
  8
レイヤー 1
 10
891.074987
 20
320.864995
 40
24.600000
 50
82.468294
 51
91.806876
  0
ARC
  8
レイヤー 1
 10
890.209987
 20
314.959995
 40
30.490000
 50
89.827673
 51
106.792860
  0
ARC
  8
レイヤー 1
 10
883.774987
 20
334.129995
 40
10.060000
 50
102.483447
 51
119.312060
  0
LINE
  8
レイヤー 1
 10
878.649987
 20
342.899995
 11
875.449987
 21
340.349995
  0
ARC
  8
レイヤー 1
 10
880.944987
 20
336.044995
 40
6.980000
 50
141.917788
 51
174.205216
  0
LINE
  8
レイヤー 1
 10
873.999987
 20
336.749995
 11
873.999987
 21
336.149995
  0
LINE
  8
レイヤー 1
 10
873.999987
 20
336.149995
 11
873.999987
 21
334.849995
  0
LINE
  8
レイヤー 1
 10
877.149987
 20
330.649995
 11
878.849987
 21
329.349995
  0
ARC
  8
レイヤー 1
 10
889.924987
 20
351.449995
 40
24.540000
 50
243.177221
 51
260.444712
  0
ARC
  8
レイヤー 1
 10
890.634987
 20
352.144995
 40
25.545000
 50
259.203565
 51
269.247804
  0
ARC
  8
レイヤー 1
 10
890.019987
 20
351.249995
 40
24.650000
 50
270.651573
 51
285.458567
  0
ARC
  8
レイヤー 1
 10
885.434987
 20
371.139994
 40
45.054999
 50
284.338741
 51
287.193371
  0
LINE
  8
レイヤー 1
 10
898.749987
 20
328.099995
 11
901.499987
 21
329.349995
  0
ARC
  8
レイヤー 1
 10
901.874987
 20
329.614995
 40
0.185000
 50
82.469006
 51
200.211387
  0
ARC
  8
レイヤー 1
 10
894.279987
 20
338.004995
 40
6.030000
 50
295.234977
 51
323.884370
  0
ARC
  8
レイヤー 1
 10
896.629987
 20
336.374995
 40
3.170000
 50
322.647017
 51
359.580812
  0
ARC
  8
レイヤー 1
 10
896.289987
 20
336.219995
 40
3.510000
 50
2.113776
 51
55.107137
  0
LINE
  8
レイヤー 1
 10
898.549987
 20
339.299995
 11
896.649987
 21
340.549995
  0
ARC
  8
レイヤー 1
 10
891.134987
 20
330.719995
 40
11.100000
 50
60.215490
 51
80.074066
  0
ARC
  8
レイヤー 1
 10
890.824987
 20
330.029995
 40
11.830000
 50
79.148667
 51
92.532029
  0
ARC
  8
レイヤー 1
 10
889.959987
 20
327.009995
 40
14.845000
 50
88.694660
 51
109.528032
  0
LINE
  8
レイヤー 1
 10
884.999987
 20
340.999995
 11
883.499987
 21
340.349995
  0
ARC
  8
レイヤー 1
 10
886.299987
 20
334.484995
 40
6.500000
 50
115.511962
 51
142.399825
  0
ARC
  8
レイヤー 1
 10
883.734987
 20
336.694995
 40
2.805000
 50
146.315963
 51
187.034977
  0
ARC
  8
レイヤー 1
 10
884.379987
 20
336.269995
 40
3.430000
 50
178.670550
 51
226.089715
  0
ARC
  8
レイヤー 1
 10
885.184987
 20
336.534995
 40
4.225000
 50
216.840691
 51
243.548195
  0
ARC
  8
レイヤー 1
 10
888.299987
 20
340.754995
 40
9.610000
 50
238.656776
 51
261.632820
  0
ARC
  8
レイヤー 1
 10
890.509987
 20
345.534995
 40
14.685000
 50
256.571640
 51
269.178348
  0
ARC
  8
レイヤー 1
 10
890.279987
 20
344.389995
 40
13.540000
 50
270.076473
 51
299.022810
  0
LINE
  8
レイヤー 1
 10
888.799987
 20
336.349995
 11
886.449987
 21
334.849995
  0
ARC
  8
レイヤー 1
 10
886.289987
 20
334.609995
 40
0.445000
 50
95.398655
 51
174.601316
  0
ARC
  8
レイヤー 1
 10
885.939987
 20
333.834995
 40
0.625000
 50
35.882676
 51
80.106545
  0
LINE
  8
レイヤー 1
 10
886.449987
 20
334.649995
 11
886.449987
 21
334.449995
  0
ARC
  8
レイヤー 1
 10
886.824987
 20
334.374995
 40
0.380000
 50
168.574492
 51
281.425498
  0
ARC
  8
レイヤー 1
 10
889.154987
 20
330.114995
 40
4.320000
 50
108.961677
 51
121.440545
  0
LINE
  8
レイヤー 1
 10
887.949987
 20
334.199995
 11
890.299987
 21
335.499995
  0
LINE
  8
レイヤー 1
 10
890.299987
 20
335.499995
 11
892.799987
 21
334.199995
  0
ARC
  8
レイヤー 1
 10
893.379987
 20
334.744995
 40
0.835000
 50
200.784219
 51
245.649088
  0
ARC
  8
レイヤー 1
 10
894.284987
 20
336.219995
 40
2.560000
 50
240.804121
 51
250.955133
  0
ARC
  8
レイヤー 1
 10
893.649987
 20
333.999995
 40
0.200000
 50
179.280127
 51
270.719863
  0
ARC
  8
レイヤー 1
 10
893.414987
 20
334.684995
 40
0.915000
 50
284.786872
 51
345.213138
  0
ARC
  8
レイヤー 1
 10
894.099987
 20
334.449995
 40
0.200000
 50
0.576348
 51
89.423642
  0
ARC
  8
レイヤー 1
 10
894.264987
 20
334.379995
 40
0.180000
 50
156.449247
 51
280.870361
  0
ARC
  8
レイヤー 1
 10
894.219987
 20
334.674995
 40
0.480000
 50
279.724497
 51
357.008433
  0
LINE
  8
レイヤー 1
 10
894.699987
 20
334.449995
 11
894.699987
 21
334.649995
  0
ARC
  8
レイヤー 1
 10
898.664987
 20
347.739995
 40
13.485000
 50
250.221487
 51
252.908639
  0
LINE
  8
レイヤー 1
 10
894.299987
 20
334.849995
 11
891.949987
 21
336.349995
  0
LINE
  8
レイヤー 1
 10
891.949987
 20
336.349995
 11
894.299987
 21
337.799995
  0
ARC
  8
レイヤー 1
 10
894.319987
 20
338.019995
 40
0.220000
 50
171.907396
 51
265.412212
  0
ARC
  8
レイヤー 1
 10
894.019987
 20
338.729995
 40
0.970000
 50
286.669075
 51
343.330935
  0
ARC
  8
レイヤー 1
 10
894.719987
 20
338.419995
 40
0.230000
 50
7.582062
 51
95.098310
  0
LINE
  8
レイヤー 1
 10
894.699987
 20
338.249995
 11
894.699987
 21
338.449995
  0
LINE
  8
レイヤー 1
 10
894.299987
 20
338.449995
 11
894.099987
 21
338.449995
  0
LINE
  8
レイヤー 1
 10
894.099987
 20
338.449995
 11
893.849987
 21
338.449995
  0
ARC
  8
レイヤー 1
 10
893.494987
 20
338.534995
 40
0.365000
 50
346.414786
 51
96.852284
  0
LINE
  8
レイヤー 1
 10
893.449987
 20
338.899995
 11
893.249987
 21
338.899995
  0
ARC
  8
レイヤー 1
 10
893.144987
 20
338.199995
 40
0.705000
 50
81.542975
 51
140.532022
  0
LINE
  8
レイヤー 1
 10
892.799987
 20
338.649995
 11
890.299987
 21
337.199995
  0
LINE
  8
レイヤー 1
 10
890.299987
 20
337.199995
 11
887.949987
 21
338.649995
  0
LINE
  8
レイヤー 1
 10
887.499987
 20
339.099995
 11
887.099987
 21
339.099995
  0
LINE
  8
レイヤー 1
 10
887.099987
 20
339.099995
 11
886.899987
 21
339.099995
  0
ARC
  8
レイヤー 1
 10
886.949987
 20
338.599995
 40
0.500000
 50
95.516873
 51
174.483097
  0
ARC
  8
レイヤー 1
 10
886.119987
 20
338.214995
 40
0.270000
 50
60.744798
 51
172.385279
  0
LINE
  8
レイヤー 1
 10
886.049987
 20
338.249995
 11
886.049987
 21
338.049995
  0
ARC
  8
レイヤー 1
 10
883.029987
 20
335.229995
 40
4.125000
 50
38.599173
 51
51.400818
  0
LINE
  8
レイヤー 1
 10
886.449987
 20
337.799995
 11
888.799987
 21
336.349995
  0
LINE
  8
レイヤー 1
 10
888.799987
 20
336.149995
 11
886.449987
 21
334.649995
  0
ARC
  8
レイヤー 1
 10
886.499987
 20
334.199995
 40
0.450000
 50
96.554424
 51
180.178506
  0
LINE
  8
レイヤー 1
 10
886.049987
 20
334.199995
 11
886.049987
 21
333.999995
  0
LINE
  8
レイヤー 1
 10
886.049987
 20
333.999995
 11
886.449987
 21
333.999995
  0
ARC
  8
レイヤー 1
 10
886.924987
 20
334.079995
 40
0.480000
 50
189.724507
 51
267.008443
  0
ARC
  8
レイヤー 1
 10
889.154987
 20
329.914995
 40
4.320000
 50
108.961677
 51
121.440545
  0
LINE
  8
レイヤー 1
 10
887.949987
 20
333.799995
 11
890.299987
 21
335.049995
  0
LINE
  8
レイヤー 1
 10
890.299987
 20
335.049995
 11
893.049987
 21
333.799995
  0
ARC
  8
レイヤー 1
 10
893.274987
 20
334.959995
 40
1.170000
 50
234.879684
 51
278.639299
  0
ARC
  8
レイヤー 1
 10
893.684987
 20
334.169995
 40
0.570000
 50
220.311043
 51
266.558880
  0
ARC
  8
レイヤー 1
 10
893.609987
 20
334.099995
 40
0.500000
 50
274.641986
 51
348.625104
  0
ARC
  8
レイヤー 1
 10
893.299987
 20
333.849995
 40
0.815000
 50
10.672005
 51
47.437197
  0
ARC
  8
レイヤー 1
 10
894.034987
 20
333.974995
 40
0.185000
 50
172.468996
 51
290.211377
  0
ARC
  8
レイヤー 1
 10
893.894987
 20
334.754995
 40
0.980000
 50
282.065847
 51
325.314301
  0
LINE
  8
レイヤー 1
 10
894.699987
 20
333.999995
 11
894.699987
 21
334.199995
  0
ARC
  8
レイヤー 1
 10
894.184987
 20
333.909995
 40
0.745000
 50
46.480755
 51
96.649331
  0
LINE
  8
レイヤー 1
 10
894.499987
 20
334.649995
 11
891.949987
 21
336.149995
  0
LINE
  8
レイヤー 1
 10
891.949987
 20
336.149995
 11
894.499987
 21
337.399995
  0
ARC
  8
レイヤー 1
 10
894.299987
 20
337.599995
 40
0.200000
 50
179.280127
 51
270.719863
  0
ARC
  8
レイヤー 1
 10
894.064987
 20
338.284995
 40
0.915000
 50
284.786872
 51
345.213138
  0
ARC
  8
レイヤー 1
 10
894.719987
 20
338.019995
 40
0.230000
 50
7.582062
 51
95.098310
  0
LINE
  8
レイヤー 1
 10
894.699987
 20
337.799995
 11
894.699987
 21
338.049995
  0
LINE
  8
レイヤー 1
 10
894.299987
 20
338.249995
 11
893.849987
 21
338.249995
  0
LINE
  8
レイヤー 1
 10
893.849987
 20
338.249995
 11
893.649987
 21
338.249995
  0
LINE
  8
レイヤー 1
 10
894.099987
 20
338.649995
 11
893.649987
 21
338.649995
  0
LINE
  8
レイヤー 1
 10
893.649987
 20
338.649995
 11
893.449987
 21
338.649995
  0
ARC
  8
レイヤー 1
 10
893.364987
 20
337.559995
 40
0.890000
 50
84.686937
 51
129.518497
  0
LINE
  8
レイヤー 1
 10
893.049987
 20
338.249995
 11
890.499987
 21
336.999995
  0
LINE
  8
レイヤー 1
 10
890.499987
 20
336.999995
 11
887.949987
 21
338.249995
  0
LINE
  8
レイヤー 1
 10
887.499987
 20
338.449995
 11
887.099987
 21
338.449995
  0
LINE
  8
レイヤー 1
 10
887.099987
 20
338.449995
 11
886.899987
 21
338.449995
  0
ARC
  8
レイヤー 1
 10
886.744987
 20
338.389995
 40
0.305000
 50
59.758154
 51
168.166799
  0
ARC
  8
レイヤー 1
 10
886.319987
 20
338.014995
 40
0.270000
 50
60.744798
 51
172.385279
  0
LINE
  8
レイヤー 1
 10
886.049987
 20
338.049995
 11
886.049987
 21
337.799995
  0
LINE
  8
レイヤー 1
 10
885.849987
 20
338.049995
 11
886.249987
 21
337.599995
  0
LINE
  8
レイヤー 1
 10
886.449987
 20
337.399995
 11
888.799987
 21
336.149995
  0
ENDSEC
  0
EOF
