  0
SECTION
  2
HEADER
  9
$ACADVER
  1
AC1009
  9
$INSBASE
 10
0
 20
0
 30
0
  9
$EXTMIN
 10
0
 20
0
  9
$EXTMAX
 10
840
 20
594
  9
$LIMMIN
 10
0
 20
0
  9
$LIMMAX
 10
840
 20
594
  9
$LTSCALE
 40
2
  0
ENDSEC
  0
SECTION
  2
TABLES
  0
TABLE
  2
LTYPE
 70
     9
  0
LTYPE
  2
CONTINUOUS
 70
    64
  3
実線
 72
    65
 73
     0
 40
0.0
  0
LTYPE
  2
DASHED1
 70
    64
  3
--  --  --  --  --  --  --  --  
 72
    65
 73
     2
 40
2.5
 49
1.25
 49
-1.25
  0
LTYPE
  2
DASHED2
 70
    64
  3
----    ----    ----    ----    
 72
    65
 73
     2
 40
5.0
 49
2.5
 49
-2.5
  0
LTYPE
  2
DASHED3
 70
    64
  3
------  ------  ------  ------  
 72
    65
 73
     2
 40
5.0
 49
3.75
 49
-1.25
  0
LTYPE
  2
CENTER1
 70
    64
  3
----- - ----- - ----- - ----- - 
 72
    65
 73
     4
 40
10.0
 49
6.25
 49
-1.25
 49
1.25
 49
-1.25
  0
LTYPE
  2
CENTER2
 70
    64
  3
----------  --  ----------  --  
 72
    65
 73
     4
 40
20.0
 49
12.5
 49
-2.5
 49
2.5
 49
-2.5
  0
LTYPE
  2
PHANTOM1
 70
    64
  3
--- - - --- - - --- - - --- - - 
 72
    65
 73
     6
 40
10.0
 49
3.25
 49
-1.25
 49
1.25
 49
-1.25
 49
1.25
 49
-1.25
  0
LTYPE
  2
PHANTOM2
 70
    64
  3
--------  -  -  --------  -  -  
 72
    65
 73
     6
 40
20.0
 49
10.0
 49
-2.5
 49
1.25
 49
-2.5
 49
1.25
 49
-2.5
  0
LTYPE
  2
DOT
 70
    64
  3
-   -   -   -   -   -   -   -   
 72
    65
 73
     2
 40
2.5
 49
0.625
 49
-1.875
  0
LTYPE
  2
DUMMY
 70
    64
  3
ダミー
 72
    65
 73
     0
 40
0.0
  0
LTYPE
  2
RAND1
 70
    64
  3
ランダム線1
 72
    65
 73
     4
 40
10.0
 49
1.0
 49
-2.0
 49
3.0
 49
-4.0
  0
LTYPE
  2
RAND2
 70
    64
  3
ランダム線2
 72
    65
 73
     4
 40
14.0
 49
2.0
 49
-3.0
 49
4.0
 49
-5.0
  0
LTYPE
  2
RAND3
 70
    64
  3
ランダム線3
 72
    65
 73
     4
 40
18.0
 49
3.0
 49
-4.0
 49
5.0
 49
-6.0
  0
LTYPE
  2
RAND4
 70
    64
  3
ランダム線4
 72
    65
 73
     4
 40
22.0
 49
4.0
 49
-5.0
 49
6.0
 49
-7.0
  0
LTYPE
  2
RAND5
 70
    64
  3
ランダム線5
 72
    65
 73
     4
 40
26.0
 49
5.0
 49
-6.0
 49
7.0
 49
-8.0
  0
LTYPE
  2
LONG1
 70
    64
  3
----------  --  ----------  --  
 72
    65
 73
     4
 40
40.0
 49
32.5
 49
-2.5
 49
2.5
 49
-2.5
  0
LTYPE
  2
LONG2
 70
    64
  3
--------  -  -  --------  -  -  
 72
    65
 73
     6
 40
40.0
 49
30.0
 49
-2.5
 49
1.25
 49
-2.5
 49
1.25
 49
-2.5
  0
LTYPE
  2
LONG3
 70
    64
  3
+++++++++++++++..+++++++++++++++
 72
    65
 73
     2
 40
40.0
 49
37.5
 49
-2.5
  0
LTYPE
  2
LONG4
 70
    64
  3
+++++++++++++++..+++++++++++++++
 72
    65
 73
     2
 40
80.0
 49
75.0
 49
-5.0
  0
LTYPE
  2
LONG5
 70
    64
  3
----------  --  ----------  --  
 72
    65
 73
     4
 40
60.0
 49
37.5
 49
-7.5
 49
7.5
 49
-7.5
  0
LTYPE
  2
dashed
 70
   64
  3
-------   -------------   ------
 72
   65
 73
    2
 40
7.5
 49
6
 49
-1.5
  0
LTYPE
  2
dashed_spaced
 70
   64
  3
----        --------        ----
 72
   65
 73
    2
 40
12
 49
6
 49
-6
  0
LTYPE
  2
long_dashed_dotted
 70
   64
  3
------------- --- --------------
 72
   65
 73
    4
 40
15.25
 49
12
 49
-1.5
 49
0.25
 49
-1.5
  0
LTYPE
  2
long_dashed_double-dotted
 70
   64
  3
----------- --- --- ------------
 72
   65
 73
    6
 40
17
 49
12
 49
-1.5
 49
0.25
 49
-1.5
 49
0.25
 49
-1.5
  0
LTYPE
  2
long_dashed_triplicate-dotted
 70
   64
  3
--------- --- --- --- ----------
 72
   65
 73
    8
 40
18.75
 49
12
 49
-1.5
 49
0.25
 49
-1.5
 49
0.25
 49
-1.5
 49
0.25
 49
-1.5
  0
LTYPE
  2
dotted
 70
   64
  3
   -       -       -       -    
 72
   65
 73
    2
 40
1.75
 49
0.25
 49
-1.5
  0
LTYPE
  2
chain
 70
   64
  3
-------------- -- --------------
 72
   65
 73
    4
 40
18.5
 49
12
 49
-1.5
 49
3.5
 49
-1.5
  0
LTYPE
  2
chain_double_dash
 70
   64
  3
------------ -- -- -------------
 72
   65
 73
    6
 40
23.5
 49
12
 49
-1.5
 49
3.5
 49
-1.5
 49
3.5
 49
-1.5
  0
LTYPE
  2
dashed_dotted
 70
   64
  3
-----------     -     ----------
 72
   65
 73
    4
 40
9.25
 49
6
 49
-1.5
 49
0.25
 49
-1.5
  0
LTYPE
  2
double-dashed_dotted
 70
   64
  3
------   -----------   -   -----
 72
   65
 73
    6
 40
16.75
 49
6
 49
-1.5
 49
6
 49
-1.5
 49
0.25
 49
-1.5
  0
LTYPE
  2
dashed_double-dotted
 70
   64
  3
---------    -    -    ---------
 72
   65
 73
    6
 40
11
 49
6
 49
-1.5
 49
0.25
 49
-1.5
 49
0.25
 49
-1.5
  0
LTYPE
  2
double-dashed_double-dotted
 70
   64
  3
-----   ---------   -   -   ----
 72
   65
 73
    8
 40
18.5
 49
6
 49
-1.5
 49
6
 49
-1.5
 49
0.25
 49
-1.5
 49
0.25
 49
-1.5
  0
LTYPE
  2
dashed_triplicate-dotted
 70
   64
  3
-------    -    -    -    ------
 72
   65
 73
    8
 40
12.75
 49
6
 49
-1.5
 49
0.25
 49
-1.5
 49
0.25
 49
-1.5
 49
0.25
 49
-1.5
  0
LTYPE
  2
double-dashed_triplicate-dotted
 70
   64
  3
-----  ---------  -  -  -  -----
 72
   65
 73
   10
 40
20.25
 49
6
 49
-1.5
 49
6
 49
-1.5
 49
0.25
 49
-1.5
 49
0.25
 49
-1.5
 49
0.25
 49
-1.5
  0
LTYPE
  2
undefined
 70
   64
  3
--------------------------------
 72
   65
 73
    0
 40
0
  0
ENDTAB
  0
TABLE
  2
STYLE
  5
3
100
AcDbSymbolTable
 70
     1
  0
STYLE
  5
10
100
AcDbSymbolTableRecord
100
AcDbTextStyleTableRecord
  2
STANDARD
 70
     0
 40
0.0
 41
1.0
 50
0.0
 71
     0
 42
0.2
  3
txt
  4
bigfont.shx
  0
STYLE
  5
26
100
AcDbSymbolTableRecord
100
AcDbTextStyleTableRecord
  2
TATEGAKI
 70
    68
 40
0.0
 41
1.0
 50
0.0
 71
     0
 42
1.0
  3
txt
  4
bigfont.shx
  0
ENDTAB
  0
TABLE
  2
LAYER
 70
    2
  0
LAYER
  2
_0-0_レイヤ___1
 70
   64
 62
    7
  6
CONTINUOUS
  0
LAYER
  2
ADD_LINE
 70
   64
 62
    7
  6
CONTINUOUS
  0
ENDTAB
  0
ENDSEC
  0
SECTION
  2
BLOCKS
  0
ENDSEC
  0
SECTION
  2
ENTITIES
  0
LINE
  8
_0-0_レイヤ___1
  6
CONTINUOUS
 62
    7
 10
598.18999749999989
 20
-31.817494499999952
 11
533.83999850000009
 21
6.2825045000000159
  0
LINE
  8
_0-0_レイヤ___1
  6
CONTINUOUS
 62
    7
 10
549.28999849999991
 20
-14.467495499999984
 11
591.43999749999989
 21
-39.217494499999987
  0
LINE
  8
_0-0_レイヤ___1
  6
CONTINUOUS
 62
    7
 10
599.03999750000003
 20
-29.067494499999952
 11
556.28999849999991
 21
-3.8674954999999613
  0
LINE
  8
_0-0_レイヤ___1
  6
CONTINUOUS
 62
    7
 10
992.0899915
 20
107.23250350000001
 11
1067.4399905
 21
63.83250350000003
  0
LINE
  8
_0-0_レイヤ___1
  6
CONTINUOUS
 62
    7
 10
1067.4399905
 20
63.83250350000003
 11
1050.5399905000002
 21
54.532503500000018
  0
LINE
  8
_0-0_レイヤ___1
  6
CONTINUOUS
 62
    7
 10
1067.4399905
 20
63.83250350000003
 11
1057.0899905000001
 21
66.58250350000003
  0
LINE
  8
_0-0_レイヤ___1
  6
CONTINUOUS
 62
    7
 10
1067.4399905
 20
63.83250350000003
 11
1061.9399905
 21
69.33250350000003
  0
LINE
  8
_0-0_レイヤ___1
  6
CONTINUOUS
 62
    7
 10
992.0899915
 20
107.23250350000001
 11
1002.6899915000001
 21
104.28250350000002
  0
LINE
  8
_0-0_レイヤ___1
  6
CONTINUOUS
 62
    7
 10
992.0899915
 20
107.23250350000001
 11
997.5899915
 21
101.73250350000001
  0
LINE
  8
_0-0_レイヤ___1
  6
CONTINUOUS
 62
    7
 10
992.0899915
 20
107.23250350000001
 11
975.18999150000013
 21
97.732503500000007
  0
LINE
  8
_0-0_レイヤ___1
  6
CONTINUOUS
 62
    7
 10
975.18999150000013
 20
97.732503500000007
 11
972.63999149999995
 21
96.432503500000053
  0
LINE
  8
_0-0_レイヤ___1
  6
CONTINUOUS
 62
    7
 10
967.53999150000004
 20
93.682503500000053
 11
962.48999249999997
 21
90.732503500000007
  0
LINE
  8
_0-0_レイヤ___1
  6
CONTINUOUS
 62
    7
 10
957.38999250000006
 20
87.982503500000007
 11
952.28999250000015
 21
85.232503500000007
  0
LINE
  8
_0-0_レイヤ___1
  6
CONTINUOUS
 62
    7
 10
947.23999249999997
 20
82.482503500000007
 11
942.13999250000006
 21
79.732503500000007
  0
LINE
  8
_0-0_レイヤ___1
  6
CONTINUOUS
 62
    7
 10
937.08999249999988
 20
76.782503500000018
 11
931.98999249999997
 21
73.982503500000007
  0
LINE
  8
_0-0_レイヤ___1
  6
CONTINUOUS
 62
    7
 10
926.88999250000006
 20
71.232503500000007
 11
921.83999249999988
 21
68.482503500000007
  0
LINE
  8
_0-0_レイヤ___1
  6
CONTINUOUS
 62
    7
 10
916.73999249999997
 20
65.732503500000007
 11
911.68999250000002
 21
62.782503500000018
  0
LINE
  8
_0-0_レイヤ___1
  6
CONTINUOUS
 62
    7
 10
906.58999249999988
 20
60.032503500000018
 11
904.03999249999993
 21
58.532503500000018
  0
LINE
  8
_0-0_レイヤ___1
  6
CONTINUOUS
 62
    7
 10
684.53999649999992
 20
278.28250050000008
 11
684.53999649999992
 21
281.63250049999999
  0
LINE
  8
_0-0_レイヤ___1
  6
CONTINUOUS
 62
    7
 10
684.53999649999992
 20
281.63250049999999
 11
684.53999649999992
 21
287.98250050000001
  0
LINE
  8
_0-0_レイヤ___1
  6
CONTINUOUS
 62
    7
 10
684.53999649999992
 20
287.98250050000001
 11
684.53999649999992
 21
290.53250050000008
  0
LINE
  8
_0-0_レイヤ___1
  6
CONTINUOUS
 62
    7
 10
684.53999649999992
 20
290.53250050000008
 11
684.53999649999992
 21
332.23249950000002
  0
LINE
  8
_0-0_レイヤ___1
  6
CONTINUOUS
 62
    7
 10
642.43999650000001
 20
253.28250050000008
 11
643.03999649999992
 21
252.03250050000008
  0
ARC
  8
_0-0_レイヤ___1
  6
CONTINUOUS
 62
    7
 10
655.3399965000001
 20
258.46250050000003
 40
14.06
 50
207.22670999999997
 51
230.71826099999998
  0
ARC
  8
_0-0_レイヤ___1
  6
CONTINUOUS
 62
    7
 10
656.91999650000002
 20
259.89750049999998
 40
16.02
 50
229.14510100000001
 51
247.638993
  0
ARC
  8
_0-0_レイヤ___1
  6
CONTINUOUS
 62
    7
 10
662.65499649999992
 20
272.28250050000008
 40
29.66
 50
246.48892799999999
 51
250.15902799999998
  0
ARC
  8
_0-0_レイヤ___1
  6
CONTINUOUS
 62
    7
 10
662.66999650000002
 20
278.46750050000003
 40
35.544998999999997
 50
253.52992099999997
 51
268.74637199999995
  0
ARC
  8
_0-0_レイヤ___1
  6
CONTINUOUS
 62
    7
 10
662.11499649999996
 20
243.03250150000008
 40
0.245
 50
203.79700199999999
 51
24.127991000000019
  0
LINE
  8
_0-0_レイヤ___1
  6
CONTINUOUS
 62
    7
 10
662.73999649999996
 20
243.13250149999999
 11
662.93999650000001
 21
243.13250149999999
  0
ARC
  8
_0-0_レイヤ___1
  6
CONTINUOUS
 62
    7
 10
663.02499650000004
 20
278.08250050000004
 40
34.954999000000001
 50
269.85941000000003
 51
285.37003199999998
  0
ARC
  8
_0-0_レイヤ___1
  6
CONTINUOUS
 62
    7
 10
665.91999650000002
 20
268.7475005
 40
25.184999999999999
 50
284.65154200000001
 51
308.47857399999998
  0
ARC
  8
_0-0_レイヤ___1
  6
CONTINUOUS
 62
    7
 10
669.4649965000001
 20
262.57250050000005
 40
17.879999999999999
 50
310.77175599999998
 51
328.69512900000001
  0
LINE
  8
_0-0_レイヤ___1
  6
CONTINUOUS
 62
    7
 10
684.98999649999996
 20
253.28250050000008
 11
684.98999649999996
 21
256.48250050000001
  0
ARC
  8
_0-0_レイヤ___1
  6
CONTINUOUS
 62
    7
 10
667.60999650000008
 20
222.32250150000004
 40
38.304999000000002
 50
51.339686999999998
 51
63.770893999999998
  0
ARC
  8
_0-0_レイヤ___1
  6
CONTINUOUS
 62
    7
 10
685.24499650000007
 20
244.82250050000005
 40
9.5700000000000003
 50
26.087710000000001
 51
48.864640999999992
  0
ARC
  8
_0-0_レイヤ___1
  6
CONTINUOUS
 62
    7
 10
685.6849964999999
 20
244.55750050000006
 40
9.3049999999999997
 50
5.6941170000000003
 51
28.738026000000001
  0
ARC
  8
_0-0_レイヤ___1
  6
CONTINUOUS
 62
    7
 10
686.28499650000003
 20
246.03750050000008
 40
8.6600000000000001
 50
334.29246999999998
 51
357.63504599999999
  0
LINE
  8
_0-0_レイヤ___1
  6
CONTINUOUS
 62
    7
 10
694.93999650000001
 20
245.68250050000006
 11
694.93999650000001
 21
245.88250049999999
  0
ARC
  8
_0-0_レイヤ___1
  6
CONTINUOUS
 62
    7
 10
680.28499650000003
 20
248.24250050000001
 40
15.145
 50
314.45436999999998
 51
337.64344799999998
  0
ARC
  8
_0-0_レイヤ___1
  6
CONTINUOUS
 62
    7
 10
676.88499649999994
 20
250.46750050000003
 40
18.984999999999999
 50
294.43441100000001
 51
316.64095600000002
  0
ARC
  8
_0-0_レイヤ___1
  6
CONTINUOUS
 62
    7
 10
668.09499649999998
 20
267.82750050000004
 40
38.434998999999998
 50
282.003444
 51
295.65947699999998
  0
ARC
  8
_0-0_レイヤ___1
  6
CONTINUOUS
 62
    7
 10
666.38499649999994
 20
273.10250050000002
 40
43.759999000000001
 50
272.42663099999999
 51
282.81048099999998
  0
LINE
  8
_0-0_レイヤ___1
  6
CONTINUOUS
 62
    7
 10
668.68999650000001
 20
229.18250150000006
 11
662.73999649999996
 21
228.93250150000006
  0
ARC
  8
_0-0_レイヤ___1
  6
CONTINUOUS
 62
    7
 10
663.65499649999992
 20
292.8725005
 40
63.944999000000003
 50
257.52536699999996
 51
269.00263199999995
  0
ARC
  8
_0-0_レイヤ___1
  6
CONTINUOUS
 62
    7
 10
654.13499649999994
 20
255.3725005
 40
25.219999999999999
 50
240.68799799999999
 51
248.25940300000002
  0
ARC
  8
_0-0_レイヤ___1
  6
CONTINUOUS
 62
    7
 10
665.84499649999998
 20
285.58750050000003
 40
57.624999000000003
 50
248.575467
 51
253.87534200000002
  0
ARC
  8
_0-0_レイヤ___1
  6
CONTINUOUS
 62
    7
 10
649.42999650000002
 20
247.83250050000004
 40
16.440000000000001
 50
210.32171300000002
 51
241.51162500000004
  0
ARC
  8
_0-0_レイヤ___1
  6
CONTINUOUS
 62
    7
 10
643.33499649999999
 20
245.10750050000001
 40
9.9949999999999992
 50
180.43510900000001
 51
213.91673499999996
  0
ARC
  8
_0-0_レイヤ___1
  6
CONTINUOUS
 62
    7
 10
642.3099964999999
 20
245.11250050000001
 40
8.9700000000000006
 50
149.386211
 51
180.52100799999999
  0
ARC
  8
_0-0_レイヤ___1
  6
CONTINUOUS
 62
    7
 10
656.89499649999993
 20
232.98250150000001
 40
27.864999999999998
 50
135.14719500000001
 51
143.17205899999999
  0
ARC
  8
_0-0_レイヤ___1
  6
CONTINUOUS
 62
    7
 10
655.86499649999996
 20
230.76750149999998
 40
28.785
 50
117.79688199999998
 51
130.575335
  0
LINE
  8
_0-0_レイヤ___1
  6
CONTINUOUS
 62
    7
 10
642.63999650000005
 20
253.08250050000004
 11
642.63999650000005
 21
256.03250050000008
  0
ARC
  8
_0-0_レイヤ___1
  6
CONTINUOUS
 62
    7
 10
653.14499649999993
 20
253.23750050000001
 40
22.960000000000001
 50
231.461061
 51
253.021884
  0
ARC
  8
_0-0_レイヤ___1
  6
CONTINUOUS
 62
    7
 10
646.34499649999998
 20
246.13250049999999
 40
12.99
 50
197.250967
 51
234.70280600000001
  0
ARC
  8
_0-0_レイヤ___1
  6
CONTINUOUS
 62
    7
 10
647.47499650000009
 20
245.42250050000007
 40
13.94
 50
181.59287300000003
 51
193.85081700000003
  0
ARC
  8
_0-0_レイヤ___1
  6
CONTINUOUS
 62
    7
 10
642.3099964999999
 20
245.11250050000001
 40
8.9700000000000006
 50
149.386211
 51
180.52100799999999
  0
ARC
  8
_0-0_レイヤ___1
  6
CONTINUOUS
 62
    7
 10
656.89499649999993
 20
232.98250150000001
 40
27.864999999999998
 50
135.14719500000001
 51
143.17205899999999
  0
ARC
  8
_0-0_レイヤ___1
  6
CONTINUOUS
 62
    7
 10
655.86499649999996
 20
230.76750149999998
 40
28.785
 50
117.79688199999998
 51
130.575335
  0
LINE
  8
_0-0_レイヤ___1
  6
CONTINUOUS
 62
    7
 10
642.63999650000005
 20
253.08250050000004
 11
642.63999650000005
 21
256.03250050000008
  0
LINE
  8
_0-0_レイヤ___1
  6
CONTINUOUS
 62
    7
 10
642.23999649999996
 20
253.28250050000008
 11
642.8399965000001
 21
252.03250050000008
  0
ARC
  8
_0-0_レイヤ___1
  6
CONTINUOUS
 62
    7
 10
654.81499650000001
 20
257.8775005
 40
13.145
 50
206.39651999999998
 51
231.54844999999997
  0
ARC
  8
_0-0_レイヤ___1
  6
CONTINUOUS
 62
    7
 10
659.39999650000004
 20
264.7525005
 40
21.245000000000001
 50
233.92188000000002
 51
255.52270100000004
  0
LINE
  8
_0-0_レイヤ___1
  6
CONTINUOUS
 62
    7
 10
684.98999649999996
 20
253.28250050000008
 11
684.98999649999996
 21
256.48250050000001
  0
ARC
  8
_0-0_レイヤ___1
  6
CONTINUOUS
 62
    7
 10
667.60999650000008
 20
222.32250150000004
 40
38.304999000000002
 50
51.339686999999998
 51
63.770893999999998
  0
ARC
  8
_0-0_レイヤ___1
  6
CONTINUOUS
 62
    7
 10
685.24499650000007
 20
244.82250050000005
 40
9.5700000000000003
 50
26.087710000000001
 51
48.864640999999992
  0
ARC
  8
_0-0_レイヤ___1
  6
CONTINUOUS
 62
    7
 10
685.6849964999999
 20
244.55750050000006
 40
9.3049999999999997
 50
5.6941170000000003
 51
28.738026000000001
  0
ARC
  8
_0-0_レイヤ___1
  6
CONTINUOUS
 62
    7
 10
686.28499650000003
 20
246.03750050000008
 40
8.6600000000000001
 50
334.29246999999998
 51
357.63504599999999
  0
LINE
  8
_0-0_レイヤ___1
  6
CONTINUOUS
 62
    7
 10
694.93999650000001
 20
245.68250050000006
 11
694.93999650000001
 21
245.88250049999999
  0
ARC
  8
_0-0_レイヤ___1
  6
CONTINUOUS
 62
    7
 10
680.28499650000003
 20
248.24250050000001
 40
15.145
 50
314.45436999999998
 51
337.64344799999998
  0
ARC
  8
_0-0_レイヤ___1
  6
CONTINUOUS
 62
    7
 10
676.88499649999994
 20
250.46750050000003
 40
18.984999999999999
 50
294.43441100000001
 51
316.64095600000002
  0
ARC
  8
_0-0_レイヤ___1
  6
CONTINUOUS
 62
    7
 10
668.09499649999998
 20
267.82750050000004
 40
38.434998999999998
 50
282.003444
 51
295.65947699999998
  0
ARC
  8
_0-0_レイヤ___1
  6
CONTINUOUS
 62
    7
 10
666.38499649999994
 20
273.10250050000002
 40
43.759999000000001
 50
272.42663099999999
 51
282.81048099999998
  0
LINE
  8
_0-0_レイヤ___1
  6
CONTINUOUS
 62
    7
 10
668.68999650000001
 20
229.18250150000006
 11
662.73999649999996
 21
228.93250150000006
  0
ARC
  8
_0-0_レイヤ___1
  6
CONTINUOUS
 62
    7
 10
662.78499650000003
 20
282.17750050000006
 40
53.244999
 50
261.03817800000002
 51
269.95202899999998
  0
LINE
  8
_0-0_レイヤ___1
  6
CONTINUOUS
 62
    7
 10
658.48999649999996
 20
243.13250149999999
 11
662.73999649999996
 21
242.93250150000006
  0
LINE
  8
_0-0_レイヤ___1
  6
CONTINUOUS
 62
    7
 10
662.73999649999996
 20
243.13250149999999
 11
662.93999650000001
 21
243.13250149999999
  0
ARC
  8
_0-0_レイヤ___1
  6
CONTINUOUS
 62
    7
 10
663.02499650000004
 20
278.08250050000004
 40
34.954999000000001
 50
269.85941000000003
 51
285.37003199999998
  0
ARC
  8
_0-0_レイヤ___1
  6
CONTINUOUS
 62
    7
 10
668.14499649999993
 20
263.47250050000002
 40
19.535
 50
282.25037500000002
 51
306.67862100000002
  0
ARC
  8
_0-0_レイヤ___1
  6
CONTINUOUS
 62
    7
 10
663.3099964999999
 20
270.73250050000001
 40
28.25
 50
305.75049200000001
 51
313.18070299999999
  0
ARC
  8
_0-0_レイヤ___1
  6
CONTINUOUS
 62
    7
 10
651.88999650000005
 20
243.96250150000003
 40
16.649999999999999
 50
179.92887999999999
 51
202.34373700000003
  0
ARC
  8
_0-0_レイヤ___1
  6
CONTINUOUS
 62
    7
 10
649.68999650000001
 20
240.34750150000002
 40
11.300000000000001
 50
179.81167300000001
 51
207.751518
  0
ARC
  8
_0-0_レイヤ___1
  6
CONTINUOUS
 62
    7
 10
652.31999649999989
 20
238.00750149999999
 40
10.73
 50
179.874945
 51
207.93042600000001
  0
LINE
  8
_0-0_レイヤ___1
  6
CONTINUOUS
 62
    7
 10
687.48999649999996
 20
250.98250050000001
 11
687.28999649999992
 21
250.98250050000001
  0
ARC
  8
_0-0_レイヤ___1
  6
CONTINUOUS
 62
    7
 10
686.94499649999989
 20
240.42250150000007
 40
10.565
 50
88.130447999999987
 51
116.446175
  0
ARC
  8
_0-0_レイヤ___1
  6
CONTINUOUS
 62
    7
 10
683.95999649999999
 20
235.48750150000001
 40
12.949999999999999
 50
88.324973999999983
 51
113.291466
  0
ARC
  8
_0-0_レイヤ___1
  6
CONTINUOUS
 62
    7
 10
677.94499649999989
 20
237.4975015
 40
8.1950000000000003
 50
86.873157000000006
 51
103.066303
  0
LINE
  8
_0-0_レイヤ___1
  6
CONTINUOUS
 62
    7
 10
595.83999749999998
 20
-41.567494499999952
 11
661.03999649999992
 21
-80.067494499999952
  0
ARC
  8
_0-0_レイヤ___1
  6
CONTINUOUS
 62
    7
 10
662.83499649999999
 20
-73.297494499999971
 40
6.8650000000000002
 50
253.11387199999996
 51
260.40511099999998
  0
ARC
  8
_0-0_レイヤ___1
  6
CONTINUOUS
 62
    7
 10
661.86499649999996
 20
-81.66249449999998
 40
1.605
 50
56.944011000000003
 51
96.270977000000002
  0
ARC
  8
_0-0_レイヤ___1
  6
CONTINUOUS
 62
    7
 10
663.51999649999993
 20
-71.472494499999982
 40
8.8650000000000002
 50
266.23301199999997
 51
284.15586500000001
  0
LINE
  8
_0-0_レイヤ___1
  6
CONTINUOUS
 62
    7
 10
666.13999650000005
 20
-80.067494499999952
 11
893.48999350000008
 21
48.182503500000053
  0
LINE
  8
_0-0_レイヤ___1
  6
CONTINUOUS
 62
    7
 10
662.0899965000001
 20
-68.867494499999964
 11
640.0899965000001
 21
-55.967494499999987
  0
LINE
  8
_0-0_レイヤ___1
  6
CONTINUOUS
 62
    7
 10
640.0899965000001
 20
-55.967494499999987
 11
618.28999750000003
 21
-43.067494499999952
  0
LINE
  8
_0-0_レイヤ___1
  6
CONTINUOUS
 62
    7
 10
618.28999750000003
 20
-43.067494499999952
 11
601.13999749999994
 21
-32.867494499999964
  0
LINE
  8
_0-0_レイヤ___1
  6
CONTINUOUS
 62
    7
 10
886.88999349999995
 20
55.58250350000003
 11
854.73999350000008
 21
37.582504500000027
  0
LINE
  8
_0-0_レイヤ___1
  6
CONTINUOUS
 62
    7
 10
854.73999350000008
 20
37.582504500000027
 11
822.53999449999992
 21
19.632504500000039
  0
LINE
  8
_0-0_レイヤ___1
  6
CONTINUOUS
 62
    7
 10
822.53999449999992
 20
19.632504500000039
 11
790.38999450000006
 21
1.6325045000000387
  0
LINE
  8
_0-0_レイヤ___1
  6
CONTINUOUS
 62
    7
 10
790.38999450000006
 20
1.6325045000000387
 11
758.4399954999999
 21
-16.367495499999961
  0
LINE
  8
_0-0_レイヤ___1
  6
CONTINUOUS
 62
    7
 10
758.4399954999999
 20
-16.367495499999961
 11
726.23999550000008
 21
-34.367494499999964
  0
LINE
  8
_0-0_レイヤ___1
  6
CONTINUOUS
 62
    7
 10
726.23999550000008
 20
-34.367494499999964
 11
694.0899965000001
 21
-52.367494499999964
  0
LINE
  8
_0-0_レイヤ___1
  6
CONTINUOUS
 62
    7
 10
694.0899965000001
 20
-52.367494499999964
 11
665.48999649999996
 21
-68.667494499999975
  0
ARC
  8
_0-0_レイヤ___1
  6
CONTINUOUS
 62
    7
 10
436.54999950000001
 20
34.282504500000016
 40
2.9199999999999999
 50
83.335883999999993
 51
112.370721
  0
LINE
  8
_0-0_レイヤ___1
  6
CONTINUOUS
 62
    7
 10
435.1899995
 20
36.982504500000061
 11
433.9399995
 21
35.68250450000005
  0
LINE
  8
_0-0_レイヤ___1
  6
CONTINUOUS
 62
    7
 10
436.6899995
 20
35.93250450000005
 11
435.1899995
 21
37.18250450000005
  0
ARC
  8
_0-0_レイヤ___1
  6
CONTINUOUS
 62
    7
 10
434.16499949999996
 20
34.577504500000032
 40
2.6150000000000002
 50
66.895514000000006
 51
94.923914000000011
  0
LINE
  8
_0-0_レイヤ___1
  6
CONTINUOUS
 62
    7
 10
433.9399995
 20
37.18250450000005
 11
433.73999950000001
 21
37.18250450000005
  0
ARC
  8
_0-0_レイヤ___1
  6
CONTINUOUS
 62
    7
 10
434.5599995
 20
37.51750450000003
 40
4.1399999999999997
 50
232.49029300000001
 51
273.15792399999998
  0
ARC
  8
_0-0_レイヤ___1
  6
CONTINUOUS
 62
    7
 10
431.31999949999999
 20
23.387504500000034
 40
10.58
 50
67.076087999999999
 51
70.848873999999995
  0
ARC
  8
_0-0_レイヤ___1
  6
CONTINUOUS
 62
    7
 10
435.3149995
 20
38.467504500000018
 40
5.335
 50
271.36196000000007
 51
287.49010700000008
  0
ARC
  8
_0-0_レイヤ___1
  6
CONTINUOUS
 62
    7
 10
428.88000049999999
 20
58.222503500000016
 40
26.114999999999998
 50
287.92005
 51
291.82496099999997
  0
ARC
  8
_0-0_レイヤ___1
  6
CONTINUOUS
 62
    7
 10
437.94499949999999
 20
35.852504500000009
 40
1.98
 50
289.03633500000001
 51
343.21027999999995
  0
LINE
  8
_0-0_レイヤ___1
  6
CONTINUOUS
 62
    7
 10
440.08999950000003
 20
35.482504500000061
 11
440.28999949999996
 21
35.68250450000005
  0
ARC
  8
_0-0_レイヤ___1
  6
CONTINUOUS
 62
    7
 10
436.64999949999998
 20
35.272504500000025
 40
3.665
 50
6.3969470000000008
 51
20.08409
  0
ARC
  8
_0-0_レイヤ___1
  6
CONTINUOUS
 62
    7
 10
435.36499950000001
 20
32.912504500000011
 40
5.8849999999999998
 50
40.517454999999998
 51
56.78698
  0
ARC
  8
_0-0_レイヤ___1
  6
CONTINUOUS
 62
    7
 10
435.80499950000001
 20
31.672504500000059
 40
6.7599999999999998
 50
65.677412000000004
 51
89.706539000000006
  0
LINE
  8
_0-0_レイヤ___1
  6
CONTINUOUS
 62
    7
 10
435.83999949999998
 20
38.43250450000005
 11
435.63999949999999
 21
38.43250450000005
  0
LINE
  8
_0-0_レイヤ___1
  6
CONTINUOUS
 62
    7
 10
435.83999949999998
 20
38.68250450000005
 11
435.63999949999999
 21
38.68250450000005
  0
ARC
  8
_0-0_レイヤ___1
  6
CONTINUOUS
 62
    7
 10
435.61999950000001
 20
29.567504500000041
 40
9.1150000000000002
 50
89.876146000000006
 51
111.76985500000001
  0
ARC
  8
_0-0_レイヤ___1
  6
CONTINUOUS
 62
    7
 10
433.65999949999997
 20
35.577504500000032
 40
2.835
 50
120.059471
 51
160.32935599999999
  0
LINE
  8
_0-0_レイヤ___1
  6
CONTINUOUS
 62
    7
 10
430.98999950000001
 20
36.332504500000027
 11
430.98999950000001
 21
35.68250450000005
  0
ARC
  8
_0-0_レイヤ___1
  6
CONTINUOUS
 62
    7
 10
433.86499950000001
 20
35.912504500000011
 40
2.8849999999999998
 50
184.59253699999996
 51
210.89684199999996
  0
LINE
  8
_0-0_レイヤ___1
  6
CONTINUOUS
 62
    7
 10
431.38999949999999
 20
34.43250450000005
 11
431.83999949999998
 21
33.982504500000061
  0
ARC
  8
_0-0_レイヤ___1
  6
CONTINUOUS
 62
    7
 10
435.08999949999998
 20
38.197504500000036
 40
3.915
 50
239.262855
 51
258.28186699999998
  0
ARC
  8
_0-0_レイヤ___1
  6
CONTINUOUS
 62
    7
 10
435.58999949999998
 20
40.637504500000034
 40
6.4050000000000002
 50
258.34444300000001
 51
270.45689900000002
  0
ARC
  8
_0-0_レイヤ___1
  6
CONTINUOUS
 62
    7
 10
435.53499949999997
 20
38.577504500000032
 40
4.3449999999999998
 50
271.39592900000002
 51
300.49487900000003
  0
ARC
  8
_0-0_レイヤ___1
  6
CONTINUOUS
 62
    7
 10
436.71499949999998
 20
36.562504500000045
 40
2.2850000000000001
 50
302.39158200000008
 51
354.20556500000004
  0
LINE
  8
_0-0_レイヤ___1
  6
CONTINUOUS
 62
    7
 10
438.78999949999996
 20
36.132504500000039
 11
438.98999950000001
 21
36.132504500000039
  0
ARC
  8
_0-0_レイヤ___1
  6
CONTINUOUS
 62
    7
 10
437.76999949999998
 20
36.132504500000039
 40
1.22
 50
359.97743700000001
 51
59.512319000000012
  0
ARC
  8
_0-0_レイヤ___1
  6
CONTINUOUS
 62
    7
 10
437.98499950000001
 20
37.067504500000041
 40
0.4199999999999999
 50
16.166422999999998
 51
67.633725999999996
  0
ARC
  8
_0-0_レイヤ___1
  6
CONTINUOUS
 62
    7
 10
437.6899995
 20
36.722504500000014
 40
0.8599999999999999
 50
58.11219899999999
 51
86.788306999999989
  0
ARC
  8
_0-0_レイヤ___1
  6
CONTINUOUS
 62
    7
 10
436.3799995
 20
35.467504500000018
 40
2.73
 50
60.054916000000006
 51
82.370515999999995
  0
ARC
  8
_0-0_レイヤ___1
  6
CONTINUOUS
 62
    7
 10
435.77499949999998
 20
30.627504500000043
 40
7.6050000000000004
 50
82.725999999999999
 51
91.035056999999995
  0
ARC
  8
_0-0_レイヤ___1
  6
CONTINUOUS
 62
    7
 10
435.17999950000001
 20
32.842504500000018
 40
5.4100000000000001
 50
85.112637000000007
 51
112.717195
  0
ARC
  8
_0-0_レイヤ___1
  6
CONTINUOUS
 62
    7
 10
433.31999949999999
 20
36.15250450000002
 40
1.49
 50
106.78463499999998
 51
173.15481499999999
  0
LINE
  8
_0-0_レイヤ___1
  6
CONTINUOUS
 62
    7
 10
432.03999949999996
 20
36.532504500000016
 11
432.03999949999996
 21
36.132504500000039
  0
ARC
  8
_0-0_レイヤ___1
  6
CONTINUOUS
 62
    7
 10
432.80499950000001
 20
36.012504500000034
 40
0.775
 50
170.997105
 51
223.20835
  0
ARC
  8
_0-0_レイヤ___1
  6
CONTINUOUS
 62
    7
 10
433.0049995
 20
35.592504500000018
 40
0.5749999999999999
 50
191.11080100000001
 51
236.05166700000001
  0
ARC
  8
_0-0_レイヤ___1
  6
CONTINUOUS
 62
    7
 10
434.06999949999999
 20
36.672504500000059
 40
2.0800000000000001
 50
228.29725700000003
 51
241.962264
  0
ARC
  8
_0-0_レイヤ___1
  6
CONTINUOUS
 62
    7
 10
397.91000049999997
 20
51.897503500000028
 40
2.4399999999999999
 50
94.008360999999994
 51
125.58936799999999
  0
ARC
  8
_0-0_レイヤ___1
  6
CONTINUOUS
 62
    7
 10
408.41500049999996
 20
38.117504500000052
 40
19.920000000000002
 50
127.681969
 51
132.37852100000001
  0
ARC
  8
_0-0_レイヤ___1
  6
CONTINUOUS
 62
    7
 10
395.91500049999996
 20
51.462503500000025
 40
2.165
 50
32.647430999999997
 51
58.388731
  0
ARC
  8
_0-0_レイヤ___1
  6
CONTINUOUS
 62
    7
 10
505.64499849999999
 20
245.82750050000004
 40
221.034997
 50
240.27319700000001
 51
240.57482999999999
  0
ARC
  8
_0-0_レイヤ___1
  6
CONTINUOUS
 62
    7
 10
394.79500050000001
 20
52.892503500000032
 40
1.4399999999999999
 50
43.463338999999998
 51
90.139465999999999
  0
ARC
  8
_0-0_レイヤ___1
  6
CONTINUOUS
 62
    7
 10
395.8700005
 20
56.557503500000053
 40
6.2750000000000004
 50
243.68422099999998
 51
269.718661
  0
ARC
  8
_0-0_レイヤ___1
  6
CONTINUOUS
 62
    7
 10
392.3700005
 20
40.537504500000011
 40
10.58
 50
67.076087999999999
 51
70.848873999999995
  0
ARC
  8
_0-0_レイヤ___1
  6
CONTINUOUS
 62
    7
 10
396.36500050000001
 20
55.617503500000055
 40
5.335
 50
271.36196000000007
 51
287.49010700000008
  0
ARC
  8
_0-0_レイヤ___1
  6
CONTINUOUS
 62
    7
 10
389.93000050000001
 20
75.37250350000005
 40
26.114999999999998
 50
287.92005
 51
291.82496099999997
  0
ARC
  8
_0-0_レイヤ___1
  6
CONTINUOUS
 62
    7
 10
399.07000049999999
 20
52.592503500000021
 40
1.7549999999999999
 50
288.88363900000002
 51
316.82438000000002
  0
ARC
  8
_0-0_レイヤ___1
  6
CONTINUOUS
 62
    7
 10
394.8150005
 20
56.407503500000018
 40
7.4699999999999998
 50
317.83591300000001
 51
327.86187699999994
  0
LINE
  8
_0-0_レイヤ___1
  6
CONTINUOUS
 62
    7
 10
400.6900005
 20
52.632503500000041
 11
400.89000049999999
 21
52.83250350000003
  0
ARC
  8
_0-0_レイヤ___1
  6
CONTINUOUS
 62
    7
 10
398.86000050000001
 20
52.752503500000046
 40
2.0350000000000001
 50
2.2639450000000001
 51
61.138907000000003
  0
ARC
  8
_0-0_レイヤ___1
  6
CONTINUOUS
 62
    7
 10
399.58500049999998
 20
54.167503500000009
 40
0.535
 50
17.978059999999999
 51
62.749380000000009
  0
ARC
  8
_0-0_レイヤ___1
  6
CONTINUOUS
 62
    7
 10
394.90000049999998
 20
48.482503500000007
 40
7.8899999999999997
 50
51.339226999999994
 51
54.855451000000002
  0
ARC
  8
_0-0_レイヤ___1
  6
CONTINUOUS
 62
    7
 10
396.82500049999999
 20
50.017503500000032
 40
5.5650000000000004
 50
61.996577000000002
 51
91.406265000000005
  0
LINE
  8
_0-0_レイヤ___1
  6
CONTINUOUS
 62
    7
 10
396.6900005
 20
55.58250350000003
 11
396.49000050000001
 21
55.58250350000003
  0
ARC
  8
_0-0_レイヤ___1
  6
CONTINUOUS
 62
    7
 10
396.34000049999997
 20
47.137503500000037
 40
8.4450000000000003
 50
88.996639000000002
 51
112.64936100000001
  0
ARC
  8
_0-0_レイヤ___1
  6
CONTINUOUS
 62
    7
 10
393.78000049999997
 20
52.992503500000055
 40
1.8100000000000001
 50
105.726877
 51
164.27309399999999
  0
LINE
  8
_0-0_レイヤ___1
  6
CONTINUOUS
 62
    7
 10
391.79000049999996
 20
53.482503500000007
 11
391.79000049999996
 21
52.83250350000003
  0
LINE
  8
_0-0_レイヤ___1
  6
CONTINUOUS
 62
    7
 10
391.79000049999996
 20
52.83250350000003
 11
391.79000049999996
 21
52.432503500000053
  0
ARC
  8
_0-0_レイヤ___1
  6
CONTINUOUS
 62
    7
 10
395.95500049999998
 20
54.522503500000028
 40
4.4400000000000004
 50
208.07620199999999
 51
229.77891700000004
  0
ARC
  8
_0-0_レイヤ___1
  6
CONTINUOUS
 62
    7
 10
396.7450005
 20
56.83250350000003
 40
5.7050000000000001
 50
238.212514
 51
267.43570299999999
  0
ARC
  8
_0-0_レイヤ___1
  6
CONTINUOUS
 62
    7
 10
396.40000049999998
 20
54.307503500000053
 40
3.1749999999999998
 50
271.64611200000002
 51
292.35088500000006
  0
ARC
  8
_0-0_レイヤ___1
  6
CONTINUOUS
 62
    7
 10
385.22500049999996
 20
88.792503500000009
 40
39.414999000000002
 50
288.31051400000001
 51
290.133264
  0
ARC
  8
_0-0_レイヤ___1
  6
CONTINUOUS
 62
    7
 10
397.67500050000001
 20
53.647503500000028
 40
2.1749999999999998
 50
300.93259399999999
 51
355.66455300000001
  0
LINE
  8
_0-0_レイヤ___1
  6
CONTINUOUS
 62
    7
 10
399.64000049999999
 20
53.282503500000018
 11
399.84000049999997
 21
53.282503500000018
  0
ARC
  8
_0-0_レイヤ___1
  6
CONTINUOUS
 62
    7
 10
398.6200005
 20
53.282503500000018
 40
1.22
 50
359.97743700000001
 51
59.512319000000012
  0
ARC
  8
_0-0_レイヤ___1
  6
CONTINUOUS
 62
    7
 10
398.83500049999998
 20
54.217503500000021
 40
0.4199999999999999
 50
16.166422999999998
 51
67.633725999999996
  0
ARC
  8
_0-0_レイヤ___1
  6
CONTINUOUS
 62
    7
 10
398.54000049999996
 20
53.87250350000005
 40
0.8599999999999999
 50
58.11219899999999
 51
86.788306999999989
  0
ARC
  8
_0-0_レイヤ___1
  6
CONTINUOUS
 62
    7
 10
397.22000049999997
 20
52.642503500000032
 40
2.5
 50
56.728875000000002
 51
80.651178999999999
  0
ARC
  8
_0-0_レイヤ___1
  6
CONTINUOUS
 62
    7
 10
396.65000049999998
 20
48.842503500000021
 40
6.3399999999999999
 50
81.144728999999998
 51
91.435395
  0
ARC
  8
_0-0_レイヤ___1
  6
CONTINUOUS
 62
    7
 10
396.04500050000001
 20
50.257503500000041
 40
4.9450000000000003
 50
84.824731999999997
 51
115.191205
  0
ARC
  8
_0-0_レイヤ___1
  6
CONTINUOUS
 62
    7
 10
394.08000049999998
 20
53.447503500000039
 40
1.3300000000000001
 50
104.76506399999998
 51
140.34549299999998
  0
ARC
  8
_0-0_レイヤ___1
  6
CONTINUOUS
 62
    7
 10
395.35000049999996
 20
52.607503500000007
 40
2.8500000000000001
 50
143.71232599999999
 51
162.15581500000002
  0
LINE
  8
_0-0_レイヤ___1
  6
CONTINUOUS
 62
    7
 10
392.89000049999999
 20
53.682503500000053
 11
392.89000049999999
 21
53.282503500000018
  0
ARC
  8
_0-0_レイヤ___1
  6
CONTINUOUS
 62
    7
 10
393.61500050000001
 20
53.152503500000023
 40
0.7399999999999999
 50
169.71033399999999
 51
224.49512100000001
  0
ARC
  8
_0-0_レイヤ___1
  6
CONTINUOUS
 62
    7
 10
393.88000049999999
 20
52.712503500000025
 40
0.5949999999999999
 50
187.61592800000003
 51
233.22742099999999
  0
ARC
  8
_0-0_レイヤ___1
  6
CONTINUOUS
 62
    7
 10
394.67500050000001
 20
53.672503500000062
 40
1.8400000000000001
 50
231.27403000000001
 51
246.43997100000001
  0
ARC
  8
_0-0_レイヤ___1
  6
CONTINUOUS
 62
    7
 10
641.84499649999998
 20
246.41250050000008
 40
12.32
 50
330.68481100000002
 51
353.55779999999999
  0
LINE
  8
_0-0_レイヤ___1
  6
CONTINUOUS
 62
    7
 10
665.93999650000001
 20
127.98250250000001
 11
885.63999349999995
 21
255.18250050000006
  0
LINE
  8
_0-0_レイヤ___1
  6
CONTINUOUS
 62
    7
 10
661.28999649999992
 20
127.98250250000001
 11
441.78999949999996
 21
254.98250050000001
  0
LINE
  8
_0-0_レイヤ___1
  6
CONTINUOUS
 62
    7
 10
441.78999949999996
 20
254.98250050000001
 11
607.68999749999989
 21
350.88249949999999
  0
LINE
  8
_0-0_レイヤ___1
  6
CONTINUOUS
 62
    7
 10
663.78999649999992
 20
-61.867494499999964
 11
663.78999649999992
 21
123.13250249999999
  0
LINE
  8
_0-0_レイヤ___1
  6
CONTINUOUS
 62
    7
 10
441.53999949999996
 20
53.682503500000053
 11
441.53999949999996
 21
254.78250050000008
  0
LINE
  8
_0-0_レイヤ___1
  6
CONTINUOUS
 62
    7
 10
607.68999749999989
 20
350.88249949999999
 11
606.23999750000007
 21
350.03249950000009
  0
LINE
  8
_0-0_レイヤ___1
  6
CONTINUOUS
 62
    7
 10
606.23999750000007
 20
350.03249950000009
 11
608.33999749999998
 21
353.18249950000006
  0
LINE
  8
_0-0_レイヤ___1
  6
CONTINUOUS
 62
    7
 10
683.88999650000005
 20
373.93249950000006
 11
886.48999350000008
 21
256.88250049999999
  0
ARC
  8
_0-0_レイヤ___1
  6
CONTINUOUS
 62
    7
 10
906.00999249999995
 20
294.69750050000005
 40
42.764999000000003
 50
242.16158800000002
 51
244.70833500000003
  0
ARC
  8
_0-0_レイヤ___1
  6
CONTINUOUS
 62
    7
 10
883.87499350000007
 20
251.31750050000005
 40
6.375
 50
39.591361999999997
 51
50.408628
  0
ARC
  8
_0-0_レイヤ___1
  6
CONTINUOUS
 62
    7
 10
889.72499349999998
 20
252.98750050000001
 40
0.6899999999999999
 50
134.583079
 51
172.28678500000001
  0
ARC
  8
_0-0_レイヤ___1
  6
CONTINUOUS
 62
    7
 10
886.56999350000001
 20
253.4975005
 40
2.6699999999999999
 50
359.66022400000003
 51
33.738261000000037
  0
LINE
  8
_0-0_レイヤ___1
  6
CONTINUOUS
 62
    7
 10
889.23999350000008
 20
252.88250049999999
 11
888.38999349999995
 21
98.782503500000018
  0
LINE
  8
_0-0_レイヤ___1
  6
CONTINUOUS
 62
    7
 10
888.38999349999995
 20
98.782503500000018
 11
888.38999349999995
 21
92.83250350000003
  0
LINE
  8
_0-0_レイヤ___1
  6
CONTINUOUS
 62
    7
 10
888.38999349999995
 20
92.83250350000003
 11
888.1899934999999
 21
59.382503500000041
  0
LINE
  8
_0-0_レイヤ___1
  6
CONTINUOUS
 62
    7
 10
888.1899934999999
 20
59.382503500000041
 11
888.1899934999999
 21
59.182503500000053
  0
ARC
  8
_0-0_レイヤ___1
  6
CONTINUOUS
 62
    7
 10
890.43499350000002
 20
58.812503500000048
 40
2.2749999999999999
 50
170.64962499999999
 51
215.831412
  0
ARC
  8
_0-0_レイヤ___1
  6
CONTINUOUS
 62
    7
 10
890.50999350000006
 20
58.327503500000034
 40
2.1850000000000001
 50
208.57903400000001
 51
253.56590700000001
  0
ARC
  8
_0-0_レイヤ___1
  6
CONTINUOUS
 62
    7
 10
886.12999349999996
 20
49.237503500000059
 40
8.1449999999999996
 50
36.954659000000007
 51
52.179105
  0
ARC
  8
_0-0_レイヤ___1
  6
CONTINUOUS
 62
    7
 10
888.22499349999998
 20
51.847503500000016
 40
4.7999999999999998
 50
52.810365000000004
 51
72.850521000000015
  0
ARC
  8
_0-0_レイヤ___1
  6
CONTINUOUS
 62
    7
 10
882.56999350000001
 20
47.922503500000062
 40
11.619999999999999
 50
7.466527000000001
 51
32.303798999999998
  0
ARC
  8
_0-0_レイヤ___1
  6
CONTINUOUS
 62
    7
 10
895.03999350000004
 20
49.782503500000018
 40
0.9549999999999999
 50
186.07404500000001
 51
275.94399499999997
  0
LINE
  8
_0-0_レイヤ___1
  6
CONTINUOUS
 62
    7
 10
608.33999749999998
 20
353.18249950000006
 11
641.5899965000001
 21
372.03249950000009
  0
LINE
  8
_0-0_レイヤ___1
  6
CONTINUOUS
 62
    7
 10
642.43999650000001
 20
253.48250050000001
 11
642.43999650000001
 21
442.93249850000007
  0
LINE
  8
_0-0_レイヤ___1
  6
CONTINUOUS
 62
    7
 10
885.63999349999995
 20
253.73250050000001
 11
723.48999550000008
 21
161.23250250000001
  0
LINE
  8
_0-0_レイヤ___1
  6
CONTINUOUS
 62
    7
 10
684.53999649999992
 20
332.23249950000002
 11
684.53999649999992
 21
290.53250050000008
  0
LINE
  8
_0-0_レイヤ___1
  6
CONTINUOUS
 62
    7
 10
684.53999649999992
 20
287.98250050000001
 11
684.53999649999992
 21
290.53250050000008
  0
LINE
  8
_0-0_レイヤ___1
  6
CONTINUOUS
 62
    7
 10
684.53999649999992
 20
287.98250050000001
 11
684.53999649999992
 21
281.63250049999999
  0
LINE
  8
_0-0_レイヤ___1
  6
CONTINUOUS
 62
    7
 10
684.53999649999992
 20
278.68250050000006
 11
684.53999649999992
 21
281.63250049999999
  0
LINE
  8
_0-0_レイヤ___1
  6
CONTINUOUS
 62
    7
 10
684.53999649999992
 20
278.68250050000006
 11
684.98999649999996
 21
256.48250050000001
  0
LINE
  8
_0-0_レイヤ___1
  6
CONTINUOUS
 62
    7
 10
1044.7899905000002
 20
51.382503500000041
 11
664.03999649999992
 21
-167.5174925
  0
LINE
  8
_0-0_レイヤ___1
  6
CONTINUOUS
 62
    7
 10
664.03999649999992
 20
-170.06749249999996
 11
664.03999649999992
 21
-167.5174925
  0
LINE
  8
_0-0_レイヤ___1
  6
CONTINUOUS
 62
    7
 10
664.03999649999992
 20
-170.06749249999996
 11
1044.7899905000002
 21
48.83250350000003
  0
LINE
  8
_0-0_レイヤ___1
  6
CONTINUOUS
 62
    7
 10
1044.7899905000002
 20
48.83250350000003
 11
1044.7899905000002
 21
51.382503500000041
  0
LINE
  8
_0-0_レイヤ___1
  6
CONTINUOUS
 62
    7
 10
516.48999849999996
 20
-83.467494499999987
 11
663.78999649999992
 21
-167.5174925
  0
LINE
  8
_0-0_レイヤ___1
  6
CONTINUOUS
 62
    7
 10
663.78999649999992
 20
-170.06749249999996
 11
663.78999649999992
 21
-167.5174925
  0
LINE
  8
_0-0_レイヤ___1
  6
CONTINUOUS
 62
    7
 10
663.78999649999992
 20
-170.06749249999996
 11
516.48999849999996
 21
-85.817494499999952
  0
LINE
  8
_0-0_レイヤ___1
  6
CONTINUOUS
 62
    7
 10
516.48999849999996
 20
-85.817494499999952
 11
516.48999849999996
 21
-83.467494499999987
  0
LINE
  8
_0-0_レイヤ___1
  6
CONTINUOUS
 62
    7
 10
1045.4399905
 20
51.382503500000041
 11
890.08999349999999
 21
140.28250250000008
  0
LINE
  8
_0-0_レイヤ___1
  6
CONTINUOUS
 62
    7
 10
888.38999349999995
 20
88.182503500000053
 11
948.48999249999997
 21
56.232503500000007
  0
LINE
  8
_0-0_レイヤ___1
  6
CONTINUOUS
 62
    7
 10
952.08999250000011
 20
51.132503500000041
 11
667.18999650000001
 21
-113.11749349999997
  0
LINE
  8
_0-0_レイヤ___1
  6
CONTINUOUS
 62
    7
 10
441.53999949999996
 20
95.182503500000053
 11
372.14000049999999
 21
53.682503500000053
  0
LINE
  8
_0-0_レイヤ___1
  6
CONTINUOUS
 62
    7
 10
372.14000049999999
 20
53.682503500000053
 11
373.1900005
 21
53.482503500000007
  0
LINE
  8
_0-0_レイヤ___1
  6
CONTINUOUS
 62
    7
 10
373.1900005
 20
53.482503500000007
 11
402.39000049999999
 21
36.532504500000016
  0
LINE
  8
_0-0_レイヤ___1
  6
CONTINUOUS
 62
    7
 10
410.04000049999996
 20
24.482504500000061
 11
413.1900005
 21
26.582504500000027
  0
LINE
  8
_0-0_レイヤ___1
  6
CONTINUOUS
 62
    7
 10
413.1900005
 20
26.582504500000027
 11
417.64000049999999
 21
31.232504500000061
  0
LINE
  8
_0-0_レイヤ___1
  6
CONTINUOUS
 62
    7
 10
417.64000049999999
 20
31.232504500000061
 11
447.03999949999996
 21
48.83250350000003
  0
LINE
  8
_0-0_レイヤ___1
  6
CONTINUOUS
 62
    7
 10
447.03999949999996
 20
48.83250350000003
 11
433.9399995
 21
56.232503500000007
  0
LINE
  8
_0-0_レイヤ___1
  6
CONTINUOUS
 62
    7
 10
433.9399995
 20
56.232503500000007
 11
404.29000049999996
 21
38.68250450000005
  0
LINE
  8
_0-0_レイヤ___1
  6
CONTINUOUS
 62
    7
 10
404.29000049999996
 20
38.68250450000005
 11
400.09000049999997
 21
34.43250450000005
  0
LINE
  8
_0-0_レイヤ___1
  6
CONTINUOUS
 62
    7
 10
400.09000049999997
 20
34.43250450000005
 11
397.09000049999997
 21
32.082504500000027
  0
LINE
  8
_0-0_レイヤ___1
  6
CONTINUOUS
 62
    7
 10
397.09000049999997
 20
32.082504500000027
 11
410.04000049999996
 21
24.482504500000061
  0
LINE
  8
_0-0_レイヤ___1
  6
CONTINUOUS
 62
    7
 10
401.74000050000001
 20
34.632504500000039
 11
406.1900005
 21
31.232504500000061
  0
ARC
  8
_0-0_レイヤ___1
  6
CONTINUOUS
 62
    7
 10
401.38500049999999
 20
15.117504500000052
 40
16.760000000000002
 50
71.734797
 51
74.059729000000004
  0
ARC
  8
_0-0_レイヤ___1
  6
CONTINUOUS
 62
    7
 10
406.61000050000001
 20
31.407504500000016
 40
0.375
 50
274.466725
 51
335.051939
  0
ARC
  8
_0-0_レイヤ___1
  6
CONTINUOUS
 62
    7
 10
406.0600005
 20
31.657504500000016
 40
0.9799999999999999
 50
335.39625599999999
 51
1.5066699999999991
  0
ARC
  8
_0-0_レイヤ___1
  6
CONTINUOUS
 62
    7
 10
406.67000050000001
 20
32.117504500000052
 40
0.5699999999999999
 50
310.31103299999995
 51
356.55886999999996
  0
LINE
  8
_0-0_レイヤ___1
  6
CONTINUOUS
 62
    7
 10
407.24000050000001
 20
32.082504500000027
 11
407.24000050000001
 21
32.332504500000027
  0
ARC
  8
_0-0_レイヤ___1
  6
CONTINUOUS
 62
    7
 10
403.82500049999999
 20
31.697504500000036
 40
3.4750000000000001
 50
10.569654999999999
 51
41.163053000000005
  0
ARC
  8
_0-0_レイヤ___1
  6
CONTINUOUS
 62
    7
 10
407.9350005
 20
40.242504500000052
 40
6.1950000000000003
 50
249.75095399999998
 51
256.043611
  0
LINE
  8
_0-0_レイヤ___1
  6
CONTINUOUS
 62
    7
 10
406.1900005
 20
34.43250450000005
 11
402.39000049999999
 21
36.532504500000016
  0
LINE
  8
_0-0_レイヤ___1
  6
CONTINUOUS
 62
    7
 10
402.39000049999999
 20
36.532504500000016
 11
389.49000050000001
 21
43.932503500000053
  0
LINE
  8
_0-0_レイヤ___1
  6
CONTINUOUS
 62
    7
 10
389.49000050000001
 20
43.932503500000053
 11
372.99000050000001
 21
53.482503500000007
  0
ARC
  8
_0-0_レイヤ___1
  6
CONTINUOUS
 62
    7
 10
372.39500049999998
 20
53.112503500000059
 40
0.5899999999999999
 50
75.985945000000001
 51
140.88392899999997
  0
LINE
  8
_0-0_レイヤ___1
  6
CONTINUOUS
 62
    7
 10
371.9400005
 20
53.482503500000007
 11
371.9400005
 21
52.83250350000003
  0
LINE
  8
_0-0_レイヤ___1
  6
CONTINUOUS
 62
    7
 10
371.9400005
 20
52.83250350000003
 11
371.9400005
 21
52.632503500000041
  0
ARC
  8
_0-0_レイヤ___1
  6
CONTINUOUS
 62
    7
 10
373.98000050000002
 20
52.37250350000005
 40
2.0550000000000002
 50
172.754197
 51
217.10863399999997
  0
ARC
  8
_0-0_レイヤ___1
  6
CONTINUOUS
 62
    7
 10
375.5600005
 20
53.952503500000034
 40
4.125
 50
218.59919199999999
 51
231.400837
  0
LINE
  8
_0-0_レイヤ___1
  6
CONTINUOUS
 62
    7
 10
372.99000050000001
 20
50.532503500000018
 11
377.64000049999999
 21
48.58250350000003
  0
LINE
  8
_0-0_レイヤ___1
  6
CONTINUOUS
 62
    7
 10
377.64000049999999
 20
48.58250350000003
 11
377.64000049999999
 21
49.682503500000053
  0
LINE
  8
_0-0_レイヤ___1
  6
CONTINUOUS
 62
    7
 10
377.64000049999999
 20
49.682503500000053
 11
372.99000050000001
 21
51.58250350000003
  0
LINE
  8
_0-0_レイヤ___1
  6
CONTINUOUS
 62
    7
 10
372.74000050000001
 20
52.182503500000053
 11
372.74000050000001
 21
51.982503500000007
  0
LINE
  8
_0-0_レイヤ___1
  6
CONTINUOUS
 62
    7
 10
372.74000050000001
 20
51.982503500000007
 11
372.74000050000001
 21
51.782503500000018
  0
LINE
  8
_0-0_レイヤ___1
  6
CONTINUOUS
 62
    7
 10
372.54000049999996
 20
52.432503500000053
 11
372.54000049999996
 21
52.182503500000053
  0
LINE
  8
_0-0_レイヤ___1
  6
CONTINUOUS
 62
    7
 10
372.54000049999996
 20
52.182503500000053
 11
372.99000050000001
 21
52.432503500000053
  0
LINE
  8
_0-0_レイヤ___1
  6
CONTINUOUS
 62
    7
 10
372.99000050000001
 20
52.432503500000053
 11
389.49000050000001
 21
42.882503500000041
  0
LINE
  8
_0-0_レイヤ___1
  6
CONTINUOUS
 62
    7
 10
389.49000050000001
 20
42.882503500000041
 11
401.14000049999999
 21
36.132504500000039
  0
LINE
  8
_0-0_レイヤ___1
  6
CONTINUOUS
 62
    7
 10
440.93999949999994
 20
51.782503500000018
 11
443.88999949999999
 21
51.982503500000007
  0
LINE
  8
_0-0_レイヤ___1
  6
CONTINUOUS
 62
    7
 10
409.39000049999999
 20
33.582504500000027
 11
429.6900005
 21
45.432503500000053
  0
LINE
  8
_0-0_レイヤ___1
  6
CONTINUOUS
 62
    7
 10
429.6900005
 20
45.432503500000053
 11
440.93999949999994
 21
51.782503500000018
  0
LINE
  8
_0-0_レイヤ___1
  6
CONTINUOUS
 62
    7
 10
413.39000049999999
 20
27.032504500000016
 11
407.6900005
 21
30.382504500000039
  0
LINE
  8
_0-0_レイヤ___1
  6
CONTINUOUS
 62
    7
 10
407.04000049999996
 20
31.882504500000039
 11
407.04000049999996
 21
31.68250450000005
  0
ARC
  8
_0-0_レイヤ___1
  6
CONTINUOUS
 62
    7
 10
407.94500049999999
 20
31.447504500000036
 40
0.935
 50
165.52548100000001
 51
240.87169499999999
  0
ARC
  8
_0-0_レイヤ___1
  6
CONTINUOUS
 62
    7
 10
408.18000050000001
 20
31.817504500000041
 40
1.1499999999999999
 50
104.717388
 51
186.85121599999999
  0
LINE
  8
_0-0_レイヤ___1
  6
CONTINUOUS
 62
    7
 10
407.89000049999999
 20
32.732504500000061
 11
409.39000049999999
 21
33.582504500000027
  0
LINE
  8
_0-0_レイヤ___1
  6
CONTINUOUS
 62
    7
 10
516.03999849999991
 20
-83.917494499999975
 11
532.58999850000009
 21
-74.567494499999952
  0
LINE
  8
_0-0_レイヤ___1
  6
CONTINUOUS
 62
    7
 10
532.58999850000009
 20
-74.567494499999952
 11
548.88999850000005
 21
-65.067494499999952
  0
LINE
  8
_0-0_レイヤ___1
  6
CONTINUOUS
 62
    7
 10
548.88999850000005
 20
-65.067494499999952
 11
565.18999749999989
 21
-55.767494499999941
  0
LINE
  8
_0-0_レイヤ___1
  6
CONTINUOUS
 62
    7
 10
565.18999749999989
 20
-55.767494499999941
 11
581.48999750000007
 21
-46.217494499999987
  0
LINE
  8
_0-0_レイヤ___1
  6
CONTINUOUS
 62
    7
 10
581.48999750000007
 20
-46.217494499999987
 11
591.83999749999998
 21
-40.067494499999952
  0
ARC
  8
_0-0_レイヤ___1
  6
CONTINUOUS
 62
    7
 10
605.0549974999999
 20
-49.497494499999959
 40
16.234999999999999
 50
140.70593400000001
 51
144.48332099999996
  0
ARC
  8
_0-0_レイヤ___1
  6
CONTINUOUS
 62
    7
 10
591.29499749999991
 20
-38.347494499999982
 40
1.2849999999999999
 50
317.34337399999998
 51
347.00786499999998
  0
ARC
  8
_0-0_レイヤ___1
  6
CONTINUOUS
 62
    7
 10
594.79499749999991
 20
-39.66249449999998
 40
2.4700000000000002
 50
148.42464200000001
 51
155.46426500000001
  0
ARC
  8
_0-0_レイヤ___1
  6
CONTINUOUS
 62
    7
 10
605.37999749999994
 20
-42.332494499999939
 40
13.484999999999999
 50
160.22145699999999
 51
162.90860900000001
  0
ARC
  8
_0-0_レイヤ___1
  6
CONTINUOUS
 62
    7
 10
598.81499749999989
 20
-37.207494499999939
 40
5.915
 50
149.060832
 51
164.41644700000001
  0
ARC
  8
_0-0_レイヤ___1
  6
CONTINUOUS
 62
    7
 10
608.95499749999999
 20
-39.872494499999959
 40
16.399999999999999
 50
164.96151800000001
 51
172.616669
  0
ARC
  8
_0-0_レイヤ___1
  6
CONTINUOUS
 62
    7
 10
598.10999749999996
 20
-36.767494499999941
 40
4.8150000000000004
 50
99.223132000000007
 51
150.07947300000001
  0
ARC
  8
_0-0_レイヤ___1
  6
CONTINUOUS
 62
    7
 10
613.89999749999993
 20
-82.857494499999973
 40
53.594999000000001
 50
107.043086
 51
108.44623300000001
  0
ARC
  8
_0-0_レイヤ___1
  6
CONTINUOUS
 62
    7
 10
598.08999749999998
 20
-30.712494499999991
 40
0.9499999999999999
 50
288.37937199999999
 51
356.80992300000003
  0
ARC
  8
_0-0_レイヤ___1
  6
CONTINUOUS
 62
    7
 10
598.87999749999994
 20
-30.727494499999978
 40
0.165
 50
345.68200100000001
 51
104.31798900000001
  0
LINE
  8
_0-0_レイヤ___1
  6
CONTINUOUS
 62
    7
 10
599.03999750000003
 20
-30.967494499999987
 11
599.03999750000003
 21
160.38250249999999
  0
ARC
  8
_0-0_レイヤ___1
  6
CONTINUOUS
 62
    7
 10
607.25499749999994
 20
161.72750250000001
 40
8.1899999999999995
 50
162.55274199999999
 51
175.98952199999999
  0
ARC
  8
_0-0_レイヤ___1
  6
CONTINUOUS
 62
    7
 10
624.03499749999992
 20
160.81250250000005
 40
24.995000000000001
 50
176.58666099999999
 51
180.525226
  0
ARC
  8
_0-0_レイヤ___1
  6
CONTINUOUS
 62
    7
 10
604.38499750000005
 20
163.39250250000009
 40
4.7999999999999998
 50
135.88763299999999
 51
168.09397999999999
  0
LINE
  8
_0-0_レイヤ___1
  6
CONTINUOUS
 62
    7
 10
600.93999749999989
 20
166.73250250000001
 11
613.23999750000007
 21
183.88250149999999
  0
LINE
  8
_0-0_レイヤ___1
  6
CONTINUOUS
 62
    7
 10
613.23999750000007
 20
183.88250149999999
 11
625.28999750000003
 21
201.03250150000008
  0
LINE
  8
_0-0_レイヤ___1
  6
CONTINUOUS
 62
    7
 10
625.28999750000003
 20
201.03250150000008
 11
637.3399965000001
 21
218.38250149999999
  0
LINE
  8
_0-0_レイヤ___1
  6
CONTINUOUS
 62
    7
 10
637.3399965000001
 20
218.38250149999999
 11
649.38999650000005
 21
235.73250150000001
  0
LINE
  8
_0-0_レイヤ___1
  6
CONTINUOUS
 62
    7
 10
649.38999650000005
 20
235.73250150000001
 11
652.78999649999992
 21
240.38250149999999
  0
LINE
  8
_0-0_レイヤ___1
  6
CONTINUOUS
 62
    7
 10
654.0899965000001
 20
244.83250050000004
 11
654.0899965000001
 21
320.38249949999999
  0
ARC
  8
_0-0_レイヤ___1
  6
CONTINUOUS
 62
    7
 10
677.88999650000005
 20
331.06249950000006
 40
6
 50
316.45459499999998
 51
359.212718
  0
LINE
  8
_0-0_レイヤ___1
  6
CONTINUOUS
 62
    7
 10
683.88999650000005
 20
330.98249950000002
 11
683.88999650000005
 21
331.18249950000006
  0
ARC
  8
_0-0_レイヤ___1
  6
CONTINUOUS
 62
    7
 10
674.82999649999988
 20
331.93749950000006
 40
8.9399999999999995
 50
302.91362500000002
 51
325.95185200000003
  0
ARC
  8
_0-0_レイヤ___1
  6
CONTINUOUS
 62
    7
 10
670.4499965
 20
338.30749950000006
 40
16.989999999999998
 50
289.38163900000001
 51
303.74847799999998
  0
ARC
  8
_0-0_レイヤ___1
  6
CONTINUOUS
 62
    7
 10
665.75999649999994
 20
346.09749950000003
 40
25.785
 50
274.18585400000001
 51
292.53460000000001
  0
LINE
  8
_0-0_レイヤ___1
  6
CONTINUOUS
 62
    7
 10
663.5899965000001
 20
320.18249950000006
 11
663.78999649999992
 21
320.18249950000006
  0
ARC
  8
_0-0_レイヤ___1
  6
CONTINUOUS
 62
    7
 10
663.22499650000009
 20
346.61249950000001
 40
26.434999999999999
 50
271.22607499999992
 51
280.05504299999996
  0
ARC
  8
_0-0_レイヤ___1
  6
CONTINUOUS
 62
    7
 10
661.5749965
 20
343.21249950000004
 40
22.960000000000001
 50
253.20815199999998
 51
261.14876500000003
  0
ARC
  8
_0-0_レイヤ___1
  6
CONTINUOUS
 62
    7
 10
666.14499649999993
 20
374.60249950000002
 40
54.679999000000002
 50
261.47467399999999
 51
267.32021700000001
  0
LINE
  8
_0-0_レイヤ___1
  6
CONTINUOUS
 62
    7
 10
654.93999650000001
 20
321.03249950000009
 11
654.28999649999992
 21
320.38249949999999
  0
ARC
  8
_0-0_レイヤ___1
  6
CONTINUOUS
 62
    7
 10
663.13499649999994
 20
352.71749950000003
 40
33.384999999999998
 50
254.27802000000003
 51
260.77865900000006
  0
ARC
  8
_0-0_レイヤ___1
  6
CONTINUOUS
 62
    7
 10
666.79499650000002
 20
375.50749949999999
 40
56.464998999999999
 50
260.81732899999997
 51
266.74378999999999
  0
LINE
  8
_0-0_レイヤ___1
  6
CONTINUOUS
 62
    7
 10
663.5899965000001
 20
319.13249949999999
 11
663.78999649999992
 21
319.13249949999999
  0
ARC
  8
_0-0_レイヤ___1
  6
CONTINUOUS
 62
    7
 10
663.59999650000009
 20
353.11749950000001
 40
33.984999000000002
 50
270.32202499999994
 51
291.20306699999998
  0
ARC
  8
_0-0_レイヤ___1
  6
CONTINUOUS
 62
    7
 10
668.27999649999992
 20
341.29249950000008
 40
21.27
 50
290.96221200000002
 51
310.13294400000001
  0
ARC
  8
_0-0_レイヤ___1
  6
CONTINUOUS
 62
    7
 10
675.99499650000007
 20
331.66749950000008
 40
8.6799999999999997
 50
310.14160800000002
 51
344.04791399999999
  0
ARC
  8
_0-0_レイヤ___1
  6
CONTINUOUS
 62
    7
 10
680.66999650000002
 20
330.84249950000003
 40
4.0700000000000003
 50
334.37075499999997
 51
359.14820800000001
  0
LINE
  8
_0-0_レイヤ___1
  6
CONTINUOUS
 62
    7
 10
684.73999649999996
 20
330.78249950000009
 11
684.73999649999996
 21
330.98249950000002
  0
LINE
  8
_0-0_レイヤ___1
  6
CONTINUOUS
 62
    7
 10
561.58999850000009
 20
-56.367494499999964
 11
526.4399985
 21
-36.267494499999941
  0
LINE
  8
_0-0_レイヤ___1
  6
CONTINUOUS
 62
    7
 10
661.03999649999992
 20
-113.11749349999997
 11
566.43999749999989
 21
-59.367494499999964
  0
LINE
  8
_0-0_レイヤ___1
  6
CONTINUOUS
 62
    7
 10
586.13999749999994
 20
-30.367494499999964
 11
617.88999749999994
 21
23.18250450000005
  0
LINE
  8
_0-0_レイヤ___1
  6
CONTINUOUS
 62
    7
 10
617.88999749999994
 20
23.18250450000005
 11
635.03999649999992
 21
23.18250450000005
  0
LINE
  8
_0-0_レイヤ___1
  6
CONTINUOUS
 62
    7
 10
764.13999549999994
 20
91.58250350000003
 11
797.38999450000006
 21
149.58250250000003
  0
LINE
  8
_0-0_レイヤ___1
  6
CONTINUOUS
 62
    7
 10
797.38999450000006
 20
149.58250250000003
 11
814.48999449999997
 21
149.58250250000003
  0
LINE
  8
_0-0_レイヤ___1
  6
CONTINUOUS
 62
    7
 10
755.23999550000008
 20
252.43250050000006
 11
788.48999449999997
 21
310.63250049999999
  0
LINE
  8
_0-0_レイヤ___1
  6
CONTINUOUS
 62
    7
 10
788.48999449999997
 20
310.63250049999999
 11
804.78999449999992
 21
310.63250049999999
  0
LINE
  8
_0-0_レイヤ___1
  6
CONTINUOUS
 62
    7
 10
677.78999649999992
 20
292.03250050000008
 11
710.98999550000008
 21
350.23249950000002
  0
LINE
  8
_0-0_レイヤ___1
  6
CONTINUOUS
 62
    7
 10
710.98999550000008
 20
350.23249950000002
 11
727.28999550000003
 21
350.23249950000002
  0
LINE
  8
_0-0_レイヤ___1
  6
CONTINUOUS
 62
    7
 10
424.84000049999997
 20
47.132503500000041
 11
460.58999950000003
 21
107.88250350000004
  0
LINE
  8
_0-0_レイヤ___1
  6
CONTINUOUS
 62
    7
 10
460.58999950000003
 20
107.88250350000004
 11
479.43999949999994
 21
107.88250350000004
  0
LINE
  8
_0-0_レイヤ___1
  6
CONTINUOUS
 62
    7
 10
639.43999650000001
 20
246.93250050000006
 11
600.53999750000003
 21
313.63249949999999
  0
LINE
  8
_0-0_レイヤ___1
  6
CONTINUOUS
 62
    7
 10
579.13999749999994
 20
313.63249949999999
 11
600.53999750000003
 21
313.63249949999999
  0
LINE
  8
_0-0_レイヤ___1
  6
CONTINUOUS
 62
    7
 10
608.33999749999998
 20
353.18249950000006
 11
642.43999650000001
 21
294.13250049999999
  0
LINE
  8
_0-0_レイヤ___1
  6
CONTINUOUS
 62
    7
 10
642.43999650000001
 20
290.73250050000001
 11
607.68999749999989
 21
350.88249949999999
  0
LINE
  8
_0-0_レイヤ___1
  6
CONTINUOUS
 62
    7
 10
477.73999950000001
 20
-12.56749549999995
 11
478.58999950000003
 21
-11.717495499999984
  0
ARC
  8
_0-0_レイヤ___1
  6
CONTINUOUS
 62
    7
 10
471.07499950000005
 20
-5.0274954999999864
 40
9.9149999999999991
 50
317.56440400000002
 51
329.78195199999999
  0
ARC
  8
_0-0_レイヤ___1
  6
CONTINUOUS
 62
    7
 10
478.09999950000002
 20
-7.8474954999999795
 40
2.73
 50
310.44923699999998
 51
331.09623199999999
  0
ARC
  8
_0-0_レイヤ___1
  6
CONTINUOUS
 62
    7
 10
482.94499949999994
 20
-12.592495499999984
 40
4.0700000000000003
 50
139.00159600000001
 51
144.25518700000001
  0
ARC
  8
_0-0_レイヤ___1
  6
CONTINUOUS
 62
    7
 10
487.21999950000003
 20
-14.69249549999995
 40
8.5549999999999997
 50
122.38310199999999
 51
139.780371
  0
LINE
  8
_0-0_レイヤ___1
  6
CONTINUOUS
 62
    7
 10
482.83999950000003
 20
-7.4674954999999841
 11
517.33999850000009
 21
12.632504500000039
  0
LINE
  8
_0-0_レイヤ___1
  6
CONTINUOUS
 62
    7
 10
517.33999850000009
 20
12.632504500000039
 11
529.83999850000009
 21
5.43250450000005
  0
LINE
  8
_0-0_レイヤ___1
  6
CONTINUOUS
 62
    7
 10
514.98999849999996
 20
11.132504500000039
 11
440.93999949999994
 21
53.882503500000041
  0
LINE
  8
_0-0_レイヤ___1
  6
CONTINUOUS
 62
    7
 10
515.23999849999996
 20
11.332504500000027
 11
441.98999950000001
 21
53.482503500000007
  0
LINE
  8
_0-0_レイヤ___1
  6
CONTINUOUS
 62
    7
 10
443.88999949999999
 20
51.982503500000007
 11
514.98999849999996
 21
11.332504500000027
  0
LINE
  8
_0-0_レイヤ___1
  6
CONTINUOUS
 62
    7
 10
480.93999949999994
 20
-9.1674954999999727
 11
415.09000049999997
 21
28.282504500000016
  0
LINE
  8
_0-0_レイヤ___1
  6
CONTINUOUS
 62
    7
 10
479.63999949999999
 20
-10.667495499999973
 11
413.39000049999999
 21
27.032504500000016
  0
LINE
  8
_0-0_レイヤ___1
  6
CONTINUOUS
 62
    7
 10
603.48999750000007
 20
207.78250150000008
 11
622.53999750000003
 21
207.78250150000008
  0
LINE
  8
_0-0_レイヤ___1
  6
CONTINUOUS
 62
    7
 10
590.33999749999998
 20
185.53250150000008
 11
603.48999750000007
 21
207.78250150000008
  0
LINE
  8
_0-0_レイヤ___1
  6
CONTINUOUS
 62
    7
 10
521.58999850000009
 20
-59.117494499999964
 11
480.28999949999996
 21
-131.71749349999999
  0
LINE
  8
_0-0_レイヤ___1
  6
CONTINUOUS
 62
    7
 10
457.63999949999999
 20
-131.71749349999999
 11
480.28999949999996
 21
-131.71749349999999
  0
ARC
  8
_0-0_レイヤ___1
  6
CONTINUOUS
 62
    7
 10
674.66499649999992
 20
329.77249949999998
 40
10.145
 50
6.839944
 51
29.577021000000002
  0
ARC
  8
_0-0_レイヤ___1
  6
CONTINUOUS
 62
    7
 10
686.29499650000002
 20
332.00749949999999
 40
2.6150000000000002
 50
175.07603599999999
 51
203.10451499999999
  0
LINE
  8
_0-0_レイヤ___1
  6
CONTINUOUS
 62
    7
 10
683.68999650000001
 20
329.28249950000009
 11
683.68999650000001
 21
443.1324985
  0
ARC
  8
_0-0_レイヤ___1
  6
CONTINUOUS
 62
    7
 10
532.55999849999989
 20
3.7975045000000591
 40
2.895
 50
68.125788999999997
 51
94.381868999999995
  0
ARC
  8
_0-0_レイヤ___1
  6
CONTINUOUS
 62
    7
 10
532.30999849999989
 20
3.0975045000000136
 40
3.585
 50
89.514251999999999
 51
139.37363300000001
  0
ARC
  8
_0-0_レイヤ___1
  6
CONTINUOUS
 62
    7
 10
531.32499849999999
 20
4.0625045000000455
 40
2.335
 50
137.86932400000001
 51
183.25061099999996
  0
LINE
  8
_0-0_レイヤ___1
  6
CONTINUOUS
 62
    7
 10
529.1899985
 20
3.7325045000000614
 11
529.1899985
 21
3.5325045000000159
  0
ARC
  8
_0-0_レイヤ___1
  6
CONTINUOUS
 62
    7
 10
532.85499849999997
 20
3.5425045000000068
 40
3.665
 50
180.11958200000001
 51
228.76836100000003
  0
LINE
  8
_0-0_レイヤ___1
  6
CONTINUOUS
 62
    7
 10
530.6899985
 20
0.5825045000000272
 11
593.08999749999998
 21
-36.267494499999941
  0
LINE
  8
_0-0_レイヤ___1
  6
CONTINUOUS
 62
    7
 10
362.59000149999997
 20
139.83250250000003
 11
383.99000050000001
 21
139.83250250000003
  0
LINE
  8
_0-0_レイヤ___1
  6
CONTINUOUS
 62
    7
 10
423.14000049999999
 20
73.182503500000053
 11
383.99000050000001
 21
139.83250250000003
  0
LINE
  8
_0-0_レイヤ___1
  6
CONTINUOUS
 62
    7
 10
406.84000049999997
 20
-81.367494499999964
 11
429.49000050000001
 21
-81.367494499999964
  0
LINE
  8
_0-0_レイヤ___1
  6
CONTINUOUS
 62
    7
 10
446.18999949999994
 20
-51.917494499999975
 11
429.49000050000001
 21
-81.367494499999964
  0
LINE
  8
_0-0_レイヤ___1
  6
CONTINUOUS
 62
    7
 10
395.1900005
 20
-60.617494499999964
 11
477.73999950000001
 21
-12.767495499999939
  0
LINE
  8
_0-0_レイヤ___1
  6
CONTINUOUS
 62
    7
 10
818.53999449999992
 20
-53.617494499999964
 11
860.03999350000004
 21
-126.01749349999994
  0
LINE
  8
_0-0_レイヤ___1
  6
CONTINUOUS
 62
    7
 10
860.03999350000004
 20
-126.01749349999994
 11
882.4399934999999
 21
-126.01749349999994
  0
LINE
  8
_0-0_レイヤ___1
  6
CONTINUOUS
 62
    7
 10
569.18999749999989
 20
328.43249950000006
 11
607.48999750000007
 21
261.98250050000001
  0
LINE
  8
_0-0_レイヤ___1
  6
CONTINUOUS
 62
    7
 10
561.58999850000009
 20
-56.367494499999964
 11
526.4399985
 21
-36.267494499999941
  0
LINE
  8
_0-0_レイヤ___1
  6
CONTINUOUS
 62
    7
 10
518.1899985
 20
-30.567494499999952
 11
483.23999950000001
 21
-10.467495499999984
  0
LINE
  8
_0-0_レイヤ___1
  6
CONTINUOUS
 62
    7
 10
528.53999849999991
 20
-76.717494499999987
 11
484.93999949999994
 21
-51.717494499999987
  0
ARC
  8
_0-0_レイヤ___1
  6
CONTINUOUS
 62
    7
 10
564.5849975000001
 20
187.34250150000003
 40
8.0700000000000003
 50
162.41264000000001
 51
175.90935899999999
  0
ARC
  8
_0-0_レイヤ___1
  6
CONTINUOUS
 62
    7
 10
581.76999750000004
 20
186.42250150000007
 40
25.280000000000001
 50
176.60287900000003
 51
180.541562
  0
ARC
  8
_0-0_レイヤ___1
  6
CONTINUOUS
 62
    7
 10
561.97999849999997
 20
188.70250150000004
 40
5.25
 50
136.224807
 51
165.87316899999999
  0
LINE
  8
_0-0_レイヤ___1
  6
CONTINUOUS
 62
    7
 10
558.38999850000005
 20
192.13250149999999
 11
570.43999749999989
 21
209.28250150000008
  0
LINE
  8
_0-0_レイヤ___1
  6
CONTINUOUS
 62
    7
 10
570.43999749999989
 20
209.28250150000008
 11
582.73999750000007
 21
226.63250149999999
  0
LINE
  8
_0-0_レイヤ___1
  6
CONTINUOUS
 62
    7
 10
582.73999750000007
 20
226.63250149999999
 11
594.78999750000003
 21
243.78250150000008
  0
LINE
  8
_0-0_レイヤ___1
  6
CONTINUOUS
 62
    7
 10
594.78999750000003
 20
243.78250150000008
 11
606.88999749999994
 21
261.13250049999999
  0
LINE
  8
_0-0_レイヤ___1
  6
CONTINUOUS
 62
    7
 10
606.88999749999994
 20
261.13250049999999
 11
607.48999750000007
 21
261.98250050000001
  0
LINE
  8
_0-0_レイヤ___1
  6
CONTINUOUS
 62
    7
 10
484.93999949999994
 20
-51.717494499999987
 11
501.23999850000001
 21
-42.417494499999975
  0
LINE
  8
_0-0_レイヤ___1
  6
CONTINUOUS
 62
    7
 10
501.23999850000001
 20
-42.417494499999975
 11
517.53999849999991
 21
-32.867494499999964
  0
LINE
  8
_0-0_レイヤ___1
  6
CONTINUOUS
 62
    7
 10
517.53999849999991
 20
-32.867494499999964
 11
533.83999850000009
 21
-23.56749549999995
  0
LINE
  8
_0-0_レイヤ___1
  6
CONTINUOUS
 62
    7
 10
533.83999850000009
 20
-23.56749549999995
 11
549.28999849999991
 21
-14.467495499999984
  0
LINE
  8
_0-0_レイヤ___1
  6
CONTINUOUS
 62
    7
 10
556.28999849999991
 20
-3.8674954999999613
 11
556.28999849999991
 21
185.78250150000008
  0
TEXT
  8
_0-0_レイヤ___1
 62
    7
 10
694.28999649999992
 20
511.94749750000005
 40
16
 41
1
 50
0
  1
架台廻り納まりイメージ 1
  0
TEXT
  8
_0-0_レイヤ___1
 62
    7
 10
463.56448763250887
 20
305.84275618374556
 40
16
 41
1
 50
0
  1
ウレタンシール
  0
TEXT
  8
_0-0_レイヤ___1
 62
    7
 10
727.29999550000002
 20
343.03749950000008
 40
16
 41
1
 50
0
  1
アクシスコート（クロス補強）
  0
TEXT
  8
_0-0_レイヤ___1
 62
    7
 10
804.77999449999993
 20
303.45750050000004
 40
16
 41
1
 50
0
  1
アクシスコート（クロス補強）
  0
TEXT
  8
_0-0_レイヤ___1
 62
    7
 10
622.52499749999993
 20
200.58250150000003
 40
16
 41
1
 50
0
  1
ＡＸプライマー
  0
TEXT
  8
_0-0_レイヤ___1
 62
    7
 10
295.11925795052997
 20
131.21378091872791
 40
16
 41
1
 50
0
  1
ＦＬ鋼板
  0
TEXT
  8
_0-0_レイヤ___1
 62
    7
 10
479.44499949999994
 20
100.67750350000006
 40
16
 41
1
 50
0
  1
ＦＬテープ
  0
TEXT
  8
_0-0_レイヤ___1
 62
    7
 10
289.9249116607773
 20
-90.41166077738518
 40
16
 41
1
 50
0
  1
リベットルーフ
  0
TEXT
  8
_0-0_レイヤ___1
 62
    7
 10
297.34540636042391
 20
-139.386925795053
 40
16
 41
1
 50
0
  1
ＡＸプライマー塩ビ用
  0
TEXT
  8
_0-0_レイヤ___1
 62
    7
 10
636.44140164899886
 20
16.23733804475853
 40
16
 41
1
 50
0
  1
ウレタンシール
  0
TEXT
  8
_0-0_レイヤ___1
 62
    7
 10
884.77909741307872
 20
-133.64673035815559
 40
16
 41
1
 50
0
  1
アクシスコート（クロス補強）
  0
TEXT
  8
_0-0_レイヤ___1
 62
    7
 10
1031.0315512803736
 20
92.558118483619154
 40
16
 41
1
 50
0
  1
100mm程度
  0
TEXT
  8
_0-0_レイヤ___1
 62
    7
 10
817.81600357719344
 20
139.55458491471455
 40
16
 41
1
 50
0
  1
アクシスコート（クロス補強）
  0
TEXT
  8
_0-0_レイヤ___1
 62
    7
 10
730.7049955
 20
-266.7774915
 40
16
 41
1
 50
0
  1
※ 各下地に適合したプライマー塗布が必要です。
  0
TEXT
  8
_0-0_レイヤ___1
 62
    7
 10
730.68499550000001
 20
-294.93249049999997
 40
16
 41
1
 50
0
  1
※ 入隅部にコーナー用補強布が必要です。
  0
ENDSEC
  0
EOF
