  0
SECTION
  2
HEADER
  9
$ACADVER
  1
AC1009
  9
$INSBASE
 10
0
 20
0
 30
0
  9
$EXTMIN
 10
0
 20
0
  9
$EXTMAX
 10
840
 20
594
  9
$LIMMIN
 10
0
 20
0
  9
$LIMMAX
 10
840
 20
594
  9
$LTSCALE
 40
2
  0
ENDSEC
  0
SECTION
  2
TABLES
  0
TABLE
  2
LTYPE
 70
     9
  0
LTYPE
  2
CONTINUOUS
 70
    64
  3
実線
 72
    65
 73
     0
 40
0.0
  0
LTYPE
  2
DASHED1
 70
    64
  3
--  --  --  --  --  --  --  --  
 72
    65
 73
     2
 40
2.5
 49
1.25
 49
-1.25
  0
LTYPE
  2
DASHED2
 70
    64
  3
----    ----    ----    ----    
 72
    65
 73
     2
 40
5.0
 49
2.5
 49
-2.5
  0
LTYPE
  2
DASHED3
 70
    64
  3
------  ------  ------  ------  
 72
    65
 73
     2
 40
5.0
 49
3.75
 49
-1.25
  0
LTYPE
  2
CENTER1
 70
    64
  3
----- - ----- - ----- - ----- - 
 72
    65
 73
     4
 40
10.0
 49
6.25
 49
-1.25
 49
1.25
 49
-1.25
  0
LTYPE
  2
CENTER2
 70
    64
  3
----------  --  ----------  --  
 72
    65
 73
     4
 40
20.0
 49
12.5
 49
-2.5
 49
2.5
 49
-2.5
  0
LTYPE
  2
PHANTOM1
 70
    64
  3
--- - - --- - - --- - - --- - - 
 72
    65
 73
     6
 40
10.0
 49
3.25
 49
-1.25
 49
1.25
 49
-1.25
 49
1.25
 49
-1.25
  0
LTYPE
  2
PHANTOM2
 70
    64
  3
--------  -  -  --------  -  -  
 72
    65
 73
     6
 40
20.0
 49
10.0
 49
-2.5
 49
1.25
 49
-2.5
 49
1.25
 49
-2.5
  0
LTYPE
  2
DOT
 70
    64
  3
-   -   -   -   -   -   -   -   
 72
    65
 73
     2
 40
2.5
 49
0.625
 49
-1.875
  0
LTYPE
  2
DUMMY
 70
    64
  3
ダミー
 72
    65
 73
     0
 40
0.0
  0
LTYPE
  2
RAND1
 70
    64
  3
ランダム線1
 72
    65
 73
     4
 40
10.0
 49
1.0
 49
-2.0
 49
3.0
 49
-4.0
  0
LTYPE
  2
RAND2
 70
    64
  3
ランダム線2
 72
    65
 73
     4
 40
14.0
 49
2.0
 49
-3.0
 49
4.0
 49
-5.0
  0
LTYPE
  2
RAND3
 70
    64
  3
ランダム線3
 72
    65
 73
     4
 40
18.0
 49
3.0
 49
-4.0
 49
5.0
 49
-6.0
  0
LTYPE
  2
RAND4
 70
    64
  3
ランダム線4
 72
    65
 73
     4
 40
22.0
 49
4.0
 49
-5.0
 49
6.0
 49
-7.0
  0
LTYPE
  2
RAND5
 70
    64
  3
ランダム線5
 72
    65
 73
     4
 40
26.0
 49
5.0
 49
-6.0
 49
7.0
 49
-8.0
  0
LTYPE
  2
LONG1
 70
    64
  3
----------  --  ----------  --  
 72
    65
 73
     4
 40
40.0
 49
32.5
 49
-2.5
 49
2.5
 49
-2.5
  0
LTYPE
  2
LONG2
 70
    64
  3
--------  -  -  --------  -  -  
 72
    65
 73
     6
 40
40.0
 49
30.0
 49
-2.5
 49
1.25
 49
-2.5
 49
1.25
 49
-2.5
  0
LTYPE
  2
LONG3
 70
    64
  3
+++++++++++++++..+++++++++++++++
 72
    65
 73
     2
 40
40.0
 49
37.5
 49
-2.5
  0
LTYPE
  2
LONG4
 70
    64
  3
+++++++++++++++..+++++++++++++++
 72
    65
 73
     2
 40
80.0
 49
75.0
 49
-5.0
  0
LTYPE
  2
LONG5
 70
    64
  3
----------  --  ----------  --  
 72
    65
 73
     4
 40
60.0
 49
37.5
 49
-7.5
 49
7.5
 49
-7.5
  0
LTYPE
  2
dashed
 70
   64
  3
-------   -------------   ------
 72
   65
 73
    2
 40
7.5
 49
6
 49
-1.5
  0
LTYPE
  2
dashed_spaced
 70
   64
  3
----        --------        ----
 72
   65
 73
    2
 40
12
 49
6
 49
-6
  0
LTYPE
  2
long_dashed_dotted
 70
   64
  3
------------- --- --------------
 72
   65
 73
    4
 40
15.25
 49
12
 49
-1.5
 49
0.25
 49
-1.5
  0
LTYPE
  2
long_dashed_double-dotted
 70
   64
  3
----------- --- --- ------------
 72
   65
 73
    6
 40
17
 49
12
 49
-1.5
 49
0.25
 49
-1.5
 49
0.25
 49
-1.5
  0
LTYPE
  2
long_dashed_triplicate-dotted
 70
   64
  3
--------- --- --- --- ----------
 72
   65
 73
    8
 40
18.75
 49
12
 49
-1.5
 49
0.25
 49
-1.5
 49
0.25
 49
-1.5
 49
0.25
 49
-1.5
  0
LTYPE
  2
dotted
 70
   64
  3
   -       -       -       -    
 72
   65
 73
    2
 40
1.75
 49
0.25
 49
-1.5
  0
LTYPE
  2
chain
 70
   64
  3
-------------- -- --------------
 72
   65
 73
    4
 40
18.5
 49
12
 49
-1.5
 49
3.5
 49
-1.5
  0
LTYPE
  2
chain_double_dash
 70
   64
  3
------------ -- -- -------------
 72
   65
 73
    6
 40
23.5
 49
12
 49
-1.5
 49
3.5
 49
-1.5
 49
3.5
 49
-1.5
  0
LTYPE
  2
dashed_dotted
 70
   64
  3
-----------     -     ----------
 72
   65
 73
    4
 40
9.25
 49
6
 49
-1.5
 49
0.25
 49
-1.5
  0
LTYPE
  2
double-dashed_dotted
 70
   64
  3
------   -----------   -   -----
 72
   65
 73
    6
 40
16.75
 49
6
 49
-1.5
 49
6
 49
-1.5
 49
0.25
 49
-1.5
  0
LTYPE
  2
dashed_double-dotted
 70
   64
  3
---------    -    -    ---------
 72
   65
 73
    6
 40
11
 49
6
 49
-1.5
 49
0.25
 49
-1.5
 49
0.25
 49
-1.5
  0
LTYPE
  2
double-dashed_double-dotted
 70
   64
  3
-----   ---------   -   -   ----
 72
   65
 73
    8
 40
18.5
 49
6
 49
-1.5
 49
6
 49
-1.5
 49
0.25
 49
-1.5
 49
0.25
 49
-1.5
  0
LTYPE
  2
dashed_triplicate-dotted
 70
   64
  3
-------    -    -    -    ------
 72
   65
 73
    8
 40
12.75
 49
6
 49
-1.5
 49
0.25
 49
-1.5
 49
0.25
 49
-1.5
 49
0.25
 49
-1.5
  0
LTYPE
  2
double-dashed_triplicate-dotted
 70
   64
  3
-----  ---------  -  -  -  -----
 72
   65
 73
   10
 40
20.25
 49
6
 49
-1.5
 49
6
 49
-1.5
 49
0.25
 49
-1.5
 49
0.25
 49
-1.5
 49
0.25
 49
-1.5
  0
LTYPE
  2
undefined
 70
   64
  3
--------------------------------
 72
   65
 73
    0
 40
0
  0
ENDTAB
  0
TABLE
  2
STYLE
  5
3
100
AcDbSymbolTable
 70
     1
  0
STYLE
  5
10
100
AcDbSymbolTableRecord
100
AcDbTextStyleTableRecord
  2
STANDARD
 70
     0
 40
0.0
 41
1.0
 50
0.0
 71
     0
 42
0.2
  3
txt
  4
bigfont.shx
  0
STYLE
  5
26
100
AcDbSymbolTableRecord
100
AcDbTextStyleTableRecord
  2
TATEGAKI
 70
    68
 40
0.0
 41
1.0
 50
0.0
 71
     0
 42
1.0
  3
txt
  4
bigfont.shx
  0
ENDTAB
  0
TABLE
  2
LAYER
 70
    2
  0
LAYER
  2
_0-0_レイヤ___1
 70
   64
 62
    7
  6
CONTINUOUS
  0
LAYER
  2
ADD_LINE
 70
   64
 62
    7
  6
CONTINUOUS
  0
ENDTAB
  0
ENDSEC
  0
SECTION
  2
BLOCKS
  0
ENDSEC
  0
SECTION
  2
ENTITIES
  0
LINE
  8
_0-0_レイヤ___1
  6
CONTINUOUS
 62
    7
 10
428.84000049999997
 20
162.28250250000008
 11
437.08999949999998
 21
143.88250249999999
  0
LINE
  8
_0-0_レイヤ___1
  6
CONTINUOUS
 62
    7
 10
436.23999950000001
 20
167.98250250000001
 11
448.33999950000003
 21
138.13250249999999
  0
ARC
  8
_0-0_レイヤ___1
  6
CONTINUOUS
 62
    7
 10
121.37500449999999
 20
29.887504500000034
 40
353.99999500000001
 50
16.728784999999998
 51
24.268046000000002
  0
ARC
  8
_0-0_レイヤ___1
  6
CONTINUOUS
 62
    7
 10
71.15000550000002
 20
20.862504500000057
 40
415.74999400000002
 50
14.119448
 51
22.324003999999999
  0
LINE
  8
_0-0_レイヤ___1
  6
CONTINUOUS
 62
    7
 10
467.98999950000001
 20
186.38250149999999
 11
470.13999949999999
 21
180.88250149999999
  0
LINE
  8
_0-0_レイヤ___1
  6
CONTINUOUS
 62
    7
 10
470.13999949999999
 20
180.88250149999999
 11
472.03999949999996
 21
175.38250249999999
  0
LINE
  8
_0-0_レイヤ___1
  6
CONTINUOUS
 62
    7
 10
472.03999949999996
 20
175.38250249999999
 11
473.93999949999994
 21
169.68250250000006
  0
LINE
  8
_0-0_レイヤ___1
  6
CONTINUOUS
 62
    7
 10
473.93999949999994
 20
169.68250250000006
 11
475.83999950000003
 21
164.18250250000006
  0
LINE
  8
_0-0_レイヤ___1
  6
CONTINUOUS
 62
    7
 10
475.83999950000003
 20
164.18250250000006
 11
477.53999949999996
 21
158.68250250000006
  0
LINE
  8
_0-0_レイヤ___1
  6
CONTINUOUS
 62
    7
 10
477.53999949999996
 20
158.68250250000006
 11
479.43999949999994
 21
152.98250250000001
  0
LINE
  8
_0-0_レイヤ___1
  6
CONTINUOUS
 62
    7
 10
479.43999949999994
 20
152.98250250000001
 11
481.13999949999999
 21
147.43250250000006
  0
LINE
  8
_0-0_レイヤ___1
  6
CONTINUOUS
 62
    7
 10
481.13999949999999
 20
147.43250250000006
 11
482.63999949999999
 21
141.73250250000001
  0
LINE
  8
_0-0_レイヤ___1
  6
CONTINUOUS
 62
    7
 10
482.63999949999999
 20
141.73250250000001
 11
484.28999949999996
 21
136.03250250000008
  0
LINE
  8
_0-0_レイヤ___1
  6
CONTINUOUS
 62
    7
 10
484.28999949999996
 20
136.03250250000008
 11
485.78999949999996
 21
130.73250250000001
  0
LINE
  8
_0-0_レイヤ___1
  6
CONTINUOUS
 62
    7
 10
485.78999949999996
 20
130.73250250000001
 11
487.28999949999996
 21
125.03250250000008
  0
LINE
  8
_0-0_レイヤ___1
  6
CONTINUOUS
 62
    7
 10
487.28999949999996
 20
125.03250250000008
 11
488.73999950000001
 21
119.28250250000008
  0
LINE
  8
_0-0_レイヤ___1
  6
CONTINUOUS
 62
    7
 10
488.73999950000001
 20
119.28250250000008
 11
490.23999950000001
 21
113.58250250000003
  0
LINE
  8
_0-0_レイヤ___1
  6
CONTINUOUS
 62
    7
 10
482.63999949999999
 20
193.58250150000003
 11
484.93999949999994
 21
186.38250149999999
  0
LINE
  8
_0-0_レイヤ___1
  6
CONTINUOUS
 62
    7
 10
484.93999949999994
 20
186.38250149999999
 11
487.28999949999996
 21
179.18250150000006
  0
LINE
  8
_0-0_レイヤ___1
  6
CONTINUOUS
 62
    7
 10
487.28999949999996
 20
179.18250150000006
 11
489.58999950000003
 21
171.78250250000008
  0
LINE
  8
_0-0_レイヤ___1
  6
CONTINUOUS
 62
    7
 10
489.58999950000003
 20
171.78250250000008
 11
491.93999949999994
 21
164.38250249999999
  0
LINE
  8
_0-0_レイヤ___1
  6
CONTINUOUS
 62
    7
 10
491.93999949999994
 20
164.38250249999999
 11
494.03999949999996
 21
157.18250250000006
  0
LINE
  8
_0-0_レイヤ___1
  6
CONTINUOUS
 62
    7
 10
494.03999949999996
 20
157.18250250000006
 11
496.18999949999994
 21
149.78250250000008
  0
LINE
  8
_0-0_レイヤ___1
  6
CONTINUOUS
 62
    7
 10
496.18999949999994
 20
149.78250250000008
 11
498.08999850000004
 21
142.38250249999999
  0
LINE
  8
_0-0_レイヤ___1
  6
CONTINUOUS
 62
    7
 10
498.08999850000004
 20
142.38250249999999
 11
499.98999850000001
 21
134.98250250000001
  0
LINE
  8
_0-0_レイヤ___1
  6
CONTINUOUS
 62
    7
 10
499.98999850000001
 20
134.98250250000001
 11
501.88999849999999
 21
127.78250250000008
  0
LINE
  8
_0-0_レイヤ___1
  6
CONTINUOUS
 62
    7
 10
501.88999849999999
 20
127.78250250000008
 11
503.78999849999997
 21
120.13250249999999
  0
LINE
  8
_0-0_レイヤ___1
  6
CONTINUOUS
 62
    7
 10
503.78999849999997
 20
120.13250249999999
 11
505.48999850000001
 21
112.73250250000001
  0
LINE
  8
_0-0_レイヤ___1
  6
CONTINUOUS
 62
    7
 10
505.48999850000001
 20
112.73250250000001
 11
507.18999849999994
 21
105.53250350000002
  0
LINE
  8
_0-0_レイヤ___1
  6
CONTINUOUS
 62
    7
 10
498.93999849999994
 20
203.13250149999999
 11
501.88999849999999
 21
193.58250150000003
  0
LINE
  8
_0-0_レイヤ___1
  6
CONTINUOUS
 62
    7
 10
501.88999849999999
 20
193.58250150000003
 11
504.63999849999999
 21
184.28250150000008
  0
LINE
  8
_0-0_レイヤ___1
  6
CONTINUOUS
 62
    7
 10
504.63999849999999
 20
184.28250150000008
 11
507.18999849999994
 21
174.98250250000001
  0
LINE
  8
_0-0_レイヤ___1
  6
CONTINUOUS
 62
    7
 10
507.18999849999994
 20
174.98250250000001
 11
509.93999849999994
 21
165.43250250000006
  0
LINE
  8
_0-0_レイヤ___1
  6
CONTINUOUS
 62
    7
 10
509.93999849999994
 20
165.43250250000006
 11
512.4399985
 21
155.93250250000006
  0
LINE
  8
_0-0_レイヤ___1
  6
CONTINUOUS
 62
    7
 10
512.4399985
 20
155.93250250000006
 11
514.78999849999991
 21
146.38250249999999
  0
LINE
  8
_0-0_レイヤ___1
  6
CONTINUOUS
 62
    7
 10
514.78999849999991
 20
146.38250249999999
 11
517.13999850000005
 21
136.88250249999999
  0
LINE
  8
_0-0_レイヤ___1
  6
CONTINUOUS
 62
    7
 10
517.13999850000005
 20
136.88250249999999
 11
519.4399985
 21
127.58250250000003
  0
LINE
  8
_0-0_レイヤ___1
  6
CONTINUOUS
 62
    7
 10
519.4399985
 20
127.58250250000003
 11
521.78999849999991
 21
118.03250250000002
  0
LINE
  8
_0-0_レイヤ___1
  6
CONTINUOUS
 62
    7
 10
521.78999849999991
 20
118.03250250000002
 11
523.88999850000005
 21
108.53250350000002
  0
LINE
  8
_0-0_レイヤ___1
  6
CONTINUOUS
 62
    7
 10
523.88999850000005
 20
108.53250350000002
 11
525.78999849999991
 21
98.982503500000007
  0
LINE
  8
_0-0_レイヤ___1
  6
CONTINUOUS
 62
    7
 10
525.78999849999991
 20
98.982503500000007
 11
527.28999849999991
 21
91.782503500000018
  0
LINE
  8
_0-0_レイヤ___1
  6
CONTINUOUS
 62
    7
 10
517.73999849999996
 20
213.93250150000006
 11
521.33999850000009
 21
201.43250150000006
  0
LINE
  8
_0-0_レイヤ___1
  6
CONTINUOUS
 62
    7
 10
521.33999850000009
 20
201.43250150000006
 11
524.73999849999996
 21
188.93250150000006
  0
LINE
  8
_0-0_レイヤ___1
  6
CONTINUOUS
 62
    7
 10
524.73999849999996
 20
188.93250150000006
 11
527.9399985
 21
176.43250250000006
  0
LINE
  8
_0-0_レイヤ___1
  6
CONTINUOUS
 62
    7
 10
527.9399985
 20
176.43250250000006
 11
531.08999850000009
 21
163.73250250000001
  0
LINE
  8
_0-0_レイヤ___1
  6
CONTINUOUS
 62
    7
 10
531.08999850000009
 20
163.73250250000001
 11
534.28999849999991
 21
151.28250250000008
  0
LINE
  8
_0-0_レイヤ___1
  6
CONTINUOUS
 62
    7
 10
534.28999849999991
 20
151.28250250000008
 11
537.23999849999996
 21
138.58250250000003
  0
LINE
  8
_0-0_レイヤ___1
  6
CONTINUOUS
 62
    7
 10
537.23999849999996
 20
138.58250250000003
 11
539.98999849999996
 21
126.28250250000008
  0
LINE
  8
_0-0_レイヤ___1
  6
CONTINUOUS
 62
    7
 10
539.98999849999996
 20
126.28250250000008
 11
542.73999849999996
 21
113.58250250000003
  0
LINE
  8
_0-0_レイヤ___1
  6
CONTINUOUS
 62
    7
 10
542.73999849999996
 20
113.58250250000003
 11
545.28999849999991
 21
100.88250350000004
  0
LINE
  8
_0-0_レイヤ___1
  6
CONTINUOUS
 62
    7
 10
545.28999849999991
 20
100.88250350000004
 11
547.78999849999991
 21
88.182503500000053
  0
LINE
  8
_0-0_レイヤ___1
  6
CONTINUOUS
 62
    7
 10
547.78999849999991
 20
88.182503500000053
 11
549.73999849999996
 21
78.432503500000053
  0
LINE
  8
_0-0_レイヤ___1
  6
CONTINUOUS
 62
    7
 10
590.98999750000007
 20
238.68250150000006
 11
570.88999749999994
 21
245.23250050000001
  0
ARC
  8
_0-0_レイヤ___1
  6
CONTINUOUS
 62
    7
 10
653.27499650000004
 20
475.73749750000002
 40
250.354996
 50
248.82481999999999
 51
255.84256199999999
  0
LINE
  8
_0-0_レイヤ___1
  6
CONTINUOUS
 62
    7
 10
598.83999749999998
 20
224.73250150000001
 11
596.08999749999998
 21
225.58250150000003
  0
ARC
  8
_0-0_レイヤ___1
  6
CONTINUOUS
 62
    7
 10
652.96999649999998
 20
476.85249750000003
 40
257.68499600000001
 50
248.059732
 51
257.19058200000001
  0
LINE
  8
_0-0_レイヤ___1
  6
CONTINUOUS
 62
    7
 10
601.33999749999998
 20
217.28250150000008
 11
594.38999749999994
 21
218.98250150000001
  0
ARC
  8
_0-0_レイヤ___1
  6
CONTINUOUS
 62
    7
 10
662.69499649999989
 20
513.68749650000007
 40
302.31499500000001
 50
248.10140199999998
 51
256.90326599999992
  0
LINE
  8
_0-0_レイヤ___1
  6
CONTINUOUS
 62
    7
 10
606.43999749999989
 20
208.63250149999999
 11
592.48999750000007
 21
211.78250150000008
  0
ARC
  8
_0-0_レイヤ___1
  6
CONTINUOUS
 62
    7
 10
665.7149965000001
 20
533.51749649999999
 40
329.77499499999999
 50
247.551286
 51
257.125946
  0
LINE
  8
_0-0_レイヤ___1
  6
CONTINUOUS
 62
    7
 10
611.73999750000007
 20
199.33250150000003
 11
590.58999749999998
 21
203.78250150000008
  0
ARC
  8
_0-0_レイヤ___1
  6
CONTINUOUS
 62
    7
 10
676.92499649999991
 20
575.81749650000006
 40
382.02499399999999
 50
247.28225199999997
 51
256.86946499999999
  0
LINE
  8
_0-0_レイヤ___1
  6
CONTINUOUS
 62
    7
 10
616.58999749999998
 20
189.38250149999999
 11
588.23999750000007
 21
195.08250150000003
  0
ARC
  8
_0-0_レイヤ___1
  6
CONTINUOUS
 62
    7
 10
683.23499650000008
 20
610.91749550000009
 40
426.394994
 50
247.533579
 51
257.09988600000003
  0
LINE
  8
_0-0_レイヤ___1
  6
CONTINUOUS
 62
    7
 10
616.58999749999998
 20
179.18250150000006
 11
609.18999749999989
 21
180.48250150000001
  0
LINE
  8
_0-0_レイヤ___1
  6
CONTINUOUS
 62
    7
 10
609.18999749999989
 20
180.48250150000001
 11
601.78999750000003
 21
181.93250150000006
  0
LINE
  8
_0-0_レイヤ___1
  6
CONTINUOUS
 62
    7
 10
601.78999750000003
 20
181.93250150000006
 11
594.58999749999998
 21
183.43250150000006
  0
LINE
  8
_0-0_レイヤ___1
  6
CONTINUOUS
 62
    7
 10
594.58999749999998
 20
183.43250150000006
 11
587.18999749999989
 21
185.13250149999999
  0
LINE
  8
_0-0_レイヤ___1
  6
CONTINUOUS
 62
    7
 10
587.18999749999989
 20
185.13250149999999
 11
585.88999749999994
 21
185.53250150000008
  0
LINE
  8
_0-0_レイヤ___1
  6
CONTINUOUS
 62
    7
 10
585.88999749999994
 20
185.53250150000008
 11
579.78999750000003
 21
187.03250150000008
  0
LINE
  8
_0-0_レイヤ___1
  6
CONTINUOUS
 62
    7
 10
579.78999750000003
 20
187.03250150000008
 11
573.63999749999994
 21
188.53250150000008
  0
LINE
  8
_0-0_レイヤ___1
  6
CONTINUOUS
 62
    7
 10
573.63999749999994
 20
188.53250150000008
 11
567.68999749999989
 21
190.23250150000001
  0
LINE
  8
_0-0_レイヤ___1
  6
CONTINUOUS
 62
    7
 10
567.68999749999989
 20
190.23250150000001
 11
561.58999850000009
 21
191.88250149999999
  0
LINE
  8
_0-0_レイヤ___1
  6
CONTINUOUS
 62
    7
 10
561.58999850000009
 20
191.88250149999999
 11
555.63999850000005
 21
193.58250150000003
  0
LINE
  8
_0-0_レイヤ___1
  6
CONTINUOUS
 62
    7
 10
555.63999850000005
 20
193.58250150000003
 11
549.48999849999996
 21
195.48250150000001
  0
LINE
  8
_0-0_レイヤ___1
  6
CONTINUOUS
 62
    7
 10
549.48999849999996
 20
195.48250150000001
 11
543.58999850000009
 21
197.43250150000006
  0
LINE
  8
_0-0_レイヤ___1
  6
CONTINUOUS
 62
    7
 10
543.58999850000009
 20
197.43250150000006
 11
537.63999850000005
 21
199.53250150000008
  0
LINE
  8
_0-0_レイヤ___1
  6
CONTINUOUS
 62
    7
 10
537.63999850000005
 20
199.53250150000008
 11
531.73999849999996
 21
201.43250150000006
  0
LINE
  8
_0-0_レイヤ___1
  6
CONTINUOUS
 62
    7
 10
531.73999849999996
 20
201.43250150000006
 11
525.78999849999991
 21
203.78250150000008
  0
LINE
  8
_0-0_レイヤ___1
  6
CONTINUOUS
 62
    7
 10
525.78999849999991
 20
203.78250150000008
 11
520.08999850000009
 21
205.88250149999999
  0
LINE
  8
_0-0_レイヤ___1
  6
CONTINUOUS
 62
    7
 10
615.13999749999994
 20
168.18250250000006
 11
609.63999749999994
 21
169.28250250000008
  0
LINE
  8
_0-0_レイヤ___1
  6
CONTINUOUS
 62
    7
 10
609.63999749999994
 20
169.28250250000008
 11
603.88999749999994
 21
170.33250250000003
  0
LINE
  8
_0-0_レイヤ___1
  6
CONTINUOUS
 62
    7
 10
603.88999749999994
 20
170.33250250000003
 11
598.38999749999994
 21
171.58250250000003
  0
LINE
  8
_0-0_レイヤ___1
  6
CONTINUOUS
 62
    7
 10
598.38999749999994
 20
171.58250250000003
 11
592.88999749999994
 21
172.63250249999999
  0
LINE
  8
_0-0_レイヤ___1
  6
CONTINUOUS
 62
    7
 10
592.88999749999994
 20
172.63250249999999
 11
587.38999749999994
 21
173.93250250000006
  0
LINE
  8
_0-0_レイヤ___1
  6
CONTINUOUS
 62
    7
 10
587.38999749999994
 20
173.93250250000006
 11
583.13999749999994
 21
174.98250250000001
  0
LINE
  8
_0-0_レイヤ___1
  6
CONTINUOUS
 62
    7
 10
583.13999749999994
 20
174.98250250000001
 11
575.73999750000007
 21
176.68250250000006
  0
LINE
  8
_0-0_レイヤ___1
  6
CONTINUOUS
 62
    7
 10
575.73999750000007
 20
176.68250250000006
 11
568.33999749999998
 21
178.58250150000003
  0
LINE
  8
_0-0_レイヤ___1
  6
CONTINUOUS
 62
    7
 10
568.33999749999998
 20
178.58250150000003
 11
560.9399985
 21
180.68250150000006
  0
LINE
  8
_0-0_レイヤ___1
  6
CONTINUOUS
 62
    7
 10
560.9399985
 20
180.68250150000006
 11
553.53999849999991
 21
182.78250150000008
  0
LINE
  8
_0-0_レイヤ___1
  6
CONTINUOUS
 62
    7
 10
553.53999849999991
 20
182.78250150000008
 11
546.13999850000005
 21
185.13250149999999
  0
LINE
  8
_0-0_レイヤ___1
  6
CONTINUOUS
 62
    7
 10
546.13999850000005
 20
185.13250149999999
 11
538.6899985
 21
187.23250150000001
  0
LINE
  8
_0-0_レイヤ___1
  6
CONTINUOUS
 62
    7
 10
538.6899985
 20
187.23250150000001
 11
531.28999849999991
 21
189.78250150000008
  0
LINE
  8
_0-0_レイヤ___1
  6
CONTINUOUS
 62
    7
 10
531.28999849999991
 20
189.78250150000008
 11
524.08999850000009
 21
192.33250150000003
  0
LINE
  8
_0-0_レイヤ___1
  6
CONTINUOUS
 62
    7
 10
524.08999850000009
 20
192.33250150000003
 11
523.6899985
 21
192.33250150000003
  0
LINE
  8
_0-0_レイヤ___1
  6
CONTINUOUS
 62
    7
 10
610.03999750000003
 20
156.98250250000001
 11
602.43999749999989
 21
158.48250250000001
  0
LINE
  8
_0-0_レイヤ___1
  6
CONTINUOUS
 62
    7
 10
602.43999749999989
 20
158.48250250000001
 11
594.78999750000003
 21
160.13250249999999
  0
LINE
  8
_0-0_レイヤ___1
  6
CONTINUOUS
 62
    7
 10
594.78999750000003
 20
160.13250249999999
 11
587.18999749999989
 21
161.63250249999999
  0
LINE
  8
_0-0_レイヤ___1
  6
CONTINUOUS
 62
    7
 10
587.18999749999989
 20
161.63250249999999
 11
580.18999749999989
 21
163.33250250000003
  0
LINE
  8
_0-0_レイヤ___1
  6
CONTINUOUS
 62
    7
 10
580.18999749999989
 20
163.33250250000003
 11
574.88999749999994
 21
164.58250250000003
  0
LINE
  8
_0-0_レイヤ___1
  6
CONTINUOUS
 62
    7
 10
574.88999749999994
 20
164.58250250000003
 11
569.38999749999994
 21
165.88250249999999
  0
LINE
  8
_0-0_レイヤ___1
  6
CONTINUOUS
 62
    7
 10
569.38999749999994
 20
165.88250249999999
 11
564.08999850000009
 21
167.33250250000003
  0
LINE
  8
_0-0_レイヤ___1
  6
CONTINUOUS
 62
    7
 10
564.08999850000009
 20
167.33250250000003
 11
558.58999850000009
 21
168.83250250000003
  0
LINE
  8
_0-0_レイヤ___1
  6
CONTINUOUS
 62
    7
 10
558.58999850000009
 20
168.83250250000003
 11
553.33999850000009
 21
170.33250250000003
  0
LINE
  8
_0-0_レイヤ___1
  6
CONTINUOUS
 62
    7
 10
553.33999850000009
 20
170.33250250000003
 11
547.78999849999991
 21
171.78250250000008
  0
LINE
  8
_0-0_レイヤ___1
  6
CONTINUOUS
 62
    7
 10
547.78999849999991
 20
171.78250250000008
 11
542.53999849999991
 21
173.28250250000008
  0
LINE
  8
_0-0_レイヤ___1
  6
CONTINUOUS
 62
    7
 10
542.53999849999991
 20
173.28250250000008
 11
537.23999849999996
 21
174.98250250000001
  0
LINE
  8
_0-0_レイヤ___1
  6
CONTINUOUS
 62
    7
 10
537.23999849999996
 20
174.98250250000001
 11
531.9399985
 21
176.68250250000006
  0
LINE
  8
_0-0_レイヤ___1
  6
CONTINUOUS
 62
    7
 10
531.9399985
 20
176.68250250000006
 11
526.63999850000005
 21
178.38250149999999
  0
LINE
  8
_0-0_レイヤ___1
  6
CONTINUOUS
 62
    7
 10
526.63999850000005
 20
178.38250149999999
 11
525.98999849999996
 21
178.58250150000003
  0
LINE
  8
_0-0_レイヤ___1
  6
CONTINUOUS
 62
    7
 10
582.08999749999998
 20
149.38250249999999
 11
577.03999750000003
 21
150.43250250000006
  0
LINE
  8
_0-0_レイヤ___1
  6
CONTINUOUS
 62
    7
 10
577.03999750000003
 20
150.43250250000006
 11
570.88999749999994
 21
151.88250249999999
  0
LINE
  8
_0-0_レイヤ___1
  6
CONTINUOUS
 62
    7
 10
570.88999749999994
 20
151.88250249999999
 11
564.93999749999989
 21
153.38250249999999
  0
LINE
  8
_0-0_レイヤ___1
  6
CONTINUOUS
 62
    7
 10
564.93999749999989
 20
153.38250249999999
 11
558.83999850000009
 21
155.08250250000003
  0
LINE
  8
_0-0_レイヤ___1
  6
CONTINUOUS
 62
    7
 10
558.83999850000009
 20
155.08250250000003
 11
552.88999850000005
 21
156.53250250000008
  0
LINE
  8
_0-0_レイヤ___1
  6
CONTINUOUS
 62
    7
 10
552.88999850000005
 20
156.53250250000008
 11
546.98999849999996
 21
158.23250250000001
  0
LINE
  8
_0-0_レイヤ___1
  6
CONTINUOUS
 62
    7
 10
546.98999849999996
 20
158.23250250000001
 11
540.83999850000009
 21
159.93250250000006
  0
LINE
  8
_0-0_レイヤ___1
  6
CONTINUOUS
 62
    7
 10
540.83999850000009
 20
159.93250250000006
 11
534.88999850000005
 21
161.83250250000003
  0
LINE
  8
_0-0_レイヤ___1
  6
CONTINUOUS
 62
    7
 10
534.88999850000005
 20
161.83250250000003
 11
531.28999849999991
 21
162.93250250000006
  0
LINE
  8
_0-0_レイヤ___1
  6
CONTINUOUS
 62
    7
 10
555.63999850000005
 20
140.68250250000006
 11
548.63999850000005
 21
142.58250250000003
  0
LINE
  8
_0-0_レイヤ___1
  6
CONTINUOUS
 62
    7
 10
548.63999850000005
 20
142.58250250000003
 11
541.6899985
 21
144.48250250000001
  0
LINE
  8
_0-0_レイヤ___1
  6
CONTINUOUS
 62
    7
 10
541.6899985
 20
144.48250250000001
 11
535.33999850000009
 21
146.18250250000006
  0
LINE
  8
_0-0_レイヤ___1
  6
CONTINUOUS
 62
    7
 10
565.18999749999989
 20
71.882503500000041
 11
572.13999749999994
 21
74.432503500000053
  0
LINE
  8
_0-0_レイヤ___1
  6
CONTINUOUS
 62
    7
 10
572.13999749999994
 20
74.432503500000053
 11
572.38999749999994
 21
74.432503500000053
  0
LINE
  8
_0-0_レイヤ___1
  6
CONTINUOUS
 62
    7
 10
549.73999849999996
 20
77.83250350000003
 11
583.38999749999994
 21
89.682503500000053
  0
ARC
  8
_0-0_レイヤ___1
  6
CONTINUOUS
 62
    7
 10
693.65499649999992
 20
-281.06749149999996
 40
399.18999400000001
 50
104.42824299999999
 51
111.52491799999999
  0
ARC
  8
_0-0_レイヤ___1
  6
CONTINUOUS
 62
    7
 10
685.3249965
 20
-250.35249149999993
 40
381.02999399999999
 50
102.04797600000001
 51
109.42355299999998
  0
ARC
  8
_0-0_レイヤ___1
  6
CONTINUOUS
 62
    7
 10
722.71499549999999
 20
-364.0274895
 40
500.67499299999997
 50
109.133201
 51
110.859065
  0
ARC
  8
_0-0_レイヤ___1
  6
CONTINUOUS
 62
    7
 10
705.00499549999995
 20
-310.01749050000001
 40
458.83999299999999
 50
100.81130199999998
 51
110.88408499999998
  0
LINE
  8
_0-0_レイヤ___1
  6
CONTINUOUS
 62
    7
 10
619.33999749999998
 20
140.68250250000006
 11
619.13999749999994
 21
140.68250250000006
  0
ARC
  8
_0-0_レイヤ___1
  6
CONTINUOUS
 62
    7
 10
716.76499549999994
 20
-344.20749049999995
 40
511.84999199999999
 50
101.23509799999999
 51
110.305655
  0
LINE
  8
_0-0_レイヤ___1
  6
CONTINUOUS
 62
    7
 10
567.93999749999989
 20
58.33250350000003
 11
564.33999850000009
 21
70.182503500000053
  0
ARC
  8
_0-0_レイヤ___1
  6
CONTINUOUS
 62
    7
 10
923.31499250000002
 20
175.44750250000004
 40
384.54999400000003
 50
194.86670899999999
 51
202.363574
  0
ARC
  8
_0-0_レイヤ___1
  6
CONTINUOUS
 62
    7
 10
998.36499150000009
 20
205.78250150000008
 40
476.21499299999999
 50
194.557996
 51
205.33160599999999
  0
LINE
  8
_0-0_レイヤ___1
  6
CONTINUOUS
 62
    7
 10
567.93999749999989
 20
-24.417495499999973
 11
564.33999850000009
 21
-17.217495499999984
  0
ARC
  8
_0-0_レイヤ___1
  6
CONTINUOUS
 62
    7
 10
1049.5099905
 20
228.39250149999998
 40
544.019992
 50
197.41956300000004
 51
206.83836500000004
  0
LINE
  8
_0-0_レイヤ___1
  6
CONTINUOUS
 62
    7
 10
530.4399985
 20
65.33250350000003
 11
521.98999849999996
 21
95.382503500000041
  0
LINE
  8
_0-0_レイヤ___1
  6
CONTINUOUS
 62
    7
 10
568.13999749999994
 20
-51.717494499999987
 11
552.88999850000005
 21
-22.917495499999973
  0
ARC
  8
_0-0_レイヤ___1
  6
CONTINUOUS
 62
    7
 10
1079.1749905000001
 20
244.90750050000008
 40
590.86499100000003
 50
195.552379
 51
206.953722
  0
LINE
  8
_0-0_レイヤ___1
  6
CONTINUOUS
 62
    7
 10
510.13999849999999
 20
86.482503500000007
 11
505.28999849999997
 21
104.68250350000005
  0
ARC
  8
_0-0_レイヤ___1
  6
CONTINUOUS
 62
    7
 10
1092.5999905000001
 20
257.73250050000001
 40
622.31999099999996
 50
194.23702
 51
203.27927300000002
  0
LINE
  8
_0-0_レイヤ___1
  6
CONTINUOUS
 62
    7
 10
489.58999950000003
 20
104.68250350000005
 11
486.83999950000003
 21
115.48250250000001
  0
ARC
  8
_0-0_レイヤ___1
  6
CONTINUOUS
 62
    7
 10
420.76000049999999
 20
72.992503500000055
 40
1.03
 50
74.354934
 51
292.21400999999992
  0
ARC
  8
_0-0_レイヤ___1
  6
CONTINUOUS
 62
    7
 10
399.15000049999998
 20
74.197503500000039
 40
22.105
 50
354.38687199999998
 51
2.2923390000000352
  0
ARC
  8
_0-0_レイヤ___1
  6
CONTINUOUS
 62
    7
 10
192.81500349999999
 20
75.132503500000041
 40
228.42499699999999
 50
359.98724300000003
 51
12.130073000000017
  0
ARC
  8
_0-0_レイヤ___1
  6
CONTINUOUS
 62
    7
 10
184.27500349999997
 20
73.572503500000039
 40
236.764996
 50
348.87389400000001
 51
0.0029149999999741
  0
LINE
  8
_0-0_レイヤ___1
  6
CONTINUOUS
 62
    7
 10
421.04000049999996
 20
73.58250350000003
 11
421.04000049999996
 21
73.782503500000018
  0
ARC
  8
_0-0_レイヤ___1
  6
CONTINUOUS
 62
    7
 10
213.44000349999999
 20
82.152503500000023
 40
210.71999700000001
 50
4.4040920000000003
 51
15.406488999999999
  0
LINE
  8
_0-0_レイヤ___1
  6
CONTINUOUS
 62
    7
 10
423.79000049999996
 20
98.33250350000003
 11
424.84000049999997
 21
73.58250350000003
  0
ARC
  8
_0-0_レイヤ___1
  6
CONTINUOUS
 62
    7
 10
175.62500349999999
 20
72.962503500000025
 40
249.414996
 50
348.39300300000008
 51
0.0961290000000499
  0
LINE
  8
_0-0_レイヤ___1
  6
CONTINUOUS
 62
    7
 10
425.04000049999996
 20
73.382503500000041
 11
425.04000049999996
 21
73.58250350000003
  0
LINE
  8
_0-0_レイヤ___1
  6
CONTINUOUS
 62
    7
 10
419.9400005
 20
22.582504500000027
 11
416.79000049999996
 21
8.5825045000000273
  0
ARC
  8
_0-0_レイヤ___1
  6
CONTINUOUS
 62
    7
 10
256.63000249999999
 20
95.677503500000057
 40
170.23499699999999
 50
9.2810100000000002
 51
19.814188000000001
  0
ARC
  8
_0-0_レイヤ___1
  6
CONTINUOUS
 62
    7
 10
428.30500050000001
 20
72.687503500000048
 40
1.145
 50
72.942909999999998
 51
292.88358199999999
  0
ARC
  8
_0-0_レイヤ___1
  6
CONTINUOUS
 62
    7
 10
400.26500049999999
 20
74.107503500000007
 40
28.594999999999999
 50
355.03577400000006
 51
1.9535550000000266
  0
ARC
  8
_0-0_レイヤ___1
  6
CONTINUOUS
 62
    7
 10
169.6750035
 20
75.312503500000048
 40
259.16499599999997
 50
359.94929999999999
 51
10.633050000000015
  0
ARC
  8
_0-0_レイヤ___1
  6
CONTINUOUS
 62
    7
 10
153.69500449999998
 20
73.187503500000048
 40
275.39499599999999
 50
348.95619900000003
 51
0.040596999999998
  0
LINE
  8
_0-0_レイヤ___1
  6
CONTINUOUS
 62
    7
 10
429.09000049999997
 20
73.382503500000041
 11
429.09000049999997
 21
73.58250350000003
  0
ARC
  8
_0-0_レイヤ___1
  6
CONTINUOUS
 62
    7
 10
252.45000249999998
 20
51.792503500000009
 40
174.18499700000001
 50
340.250024
 51
349.62794700000001
  0
ARC
  8
_0-0_レイヤ___1
  6
CONTINUOUS
 62
    7
 10
209.08500349999997
 20
86.74750350000005
 40
222.98999699999999
 50
8.3893339999999998
 51
17.211791000000002
  0
ARC
  8
_0-0_レイヤ___1
  6
CONTINUOUS
 62
    7
 10
432.70499949999999
 20
72.83250350000003
 40
1.2150000000000001
 50
71.579223999999996
 51
298.49525499999993
  0
ARC
  8
_0-0_レイヤ___1
  6
CONTINUOUS
 62
    7
 10
195.4250035
 20
73.567503500000043
 40
237.86499599999999
 50
359.56564800000001
 51
0.2566069999999832
  0
ARC
  8
_0-0_レイヤ___1
  6
CONTINUOUS
 62
    7
 10
150.9300045
 20
74.587503500000025
 40
282.35999600000002
 50
0.009064
 51
9.159065
  0
ARC
  8
_0-0_レイヤ___1
  6
CONTINUOUS
 62
    7
 10
146.26500450000003
 20
72.592503500000021
 40
287.02499599999999
 50
349.23513600000001
 51
0.157628999999985
  0
LINE
  8
_0-0_レイヤ___1
  6
CONTINUOUS
 62
    7
 10
433.28999949999996
 20
73.382503500000041
 11
433.28999949999996
 21
73.58250350000003
  0
ARC
  8
_0-0_レイヤ___1
  6
CONTINUOUS
 62
    7
 10
236.16500250000001
 20
52.237503500000059
 40
194.89999700000001
 50
337.78018300000002
 51
350.23597100000001
  0
ARC
  8
_0-0_レイヤ___1
  6
CONTINUOUS
 62
    7
 10
160.15000450000002
 20
79.422503500000062
 40
277.29499600000003
 50
4.7500289999999996
 51
14.475168
  0
LINE
  8
_0-0_レイヤ___1
  6
CONTINUOUS
 62
    7
 10
436.48999950000001
 20
102.18250350000005
 11
437.73999950000001
 21
73.58250350000003
  0
ARC
  8
_0-0_レイヤ___1
  6
CONTINUOUS
 62
    7
 10
113.72500449999995
 20
74.407503500000018
 40
324.014995
 50
349.62109500000003
 51
359.81892199999999
  0
LINE
  8
_0-0_レイヤ___1
  6
CONTINUOUS
 62
    7
 10
437.73999950000001
 20
73.382503500000041
 11
437.73999950000001
 21
73.58250350000003
  0
ARC
  8
_0-0_レイヤ___1
  6
CONTINUOUS
 62
    7
 10
218.77000349999997
 20
53.792503500000009
 40
216.944997
 50
341.076232
 51
350.03073599999999
  0
ARC
  8
_0-0_レイヤ___1
  6
CONTINUOUS
 62
    7
 10
245.28000249999997
 20
41.852504500000009
 40
188.01499699999999
 50
335.51639699999998
 51
341.89754599999998
  0
ARC
  8
_0-0_レイヤ___1
  6
CONTINUOUS
 62
    7
 10
161.49500449999999
 20
81.867503500000055
 40
280.759996
 50
1.247547
 51
13.06396
  0
LINE
  8
_0-0_レイヤ___1
  6
CONTINUOUS
 62
    7
 10
442.38999949999999
 20
87.782503500000018
 11
442.58999950000003
 21
73.58250350000003
  0
ARC
  8
_0-0_レイヤ___1
  6
CONTINUOUS
 62
    7
 10
112.8600045
 20
73.257503500000041
 40
329.72999499999997
 50
349.52036900000002
 51
0.0220129999999988
  0
LINE
  8
_0-0_レイヤ___1
  6
CONTINUOUS
 62
    7
 10
442.58999950000003
 20
73.382503500000041
 11
442.58999950000003
 21
73.58250350000003
  0
ARC
  8
_0-0_レイヤ___1
  6
CONTINUOUS
 62
    7
 10
220.4850035
 20
48.722503500000016
 40
219.51499699999999
 50
339.83068100000003
 51
347.01108499999998
  0
ARC
  8
_0-0_レイヤ___1
  6
CONTINUOUS
 62
    7
 10
147.23000449999995
 20
66.927503500000057
 40
294.98999600000002
 50
346.76337799999999
 51
349.56192199999998
  0
LINE
  8
_0-0_レイヤ___1
  6
CONTINUOUS
 62
    7
 10
426.74000050000001
 20
-27.367494499999964
 11
419.54000049999996
 21
-44.517494499999941
  0
ARC
  8
_0-0_レイヤ___1
  6
CONTINUOUS
 62
    7
 10
447.23499950000001
 20
72.637503500000037
 40
1.4199999999999999
 50
71.188785999999993
 51
293.24061399999994
  0
ARC
  8
_0-0_レイヤ___1
  6
CONTINUOUS
 62
    7
 10
403.07500049999999
 20
74.587503500000025
 40
44.834999000000003
 50
355.844021
 51
1.7216890000000289
  0
ARC
  8
_0-0_レイヤ___1
  6
CONTINUOUS
 62
    7
 10
103.43500449999999
 20
75.727503500000012
 40
344.454995
 50
0.0340239999999999
 51
11.191366
  0
ARC
  8
_0-0_レイヤ___1
  6
CONTINUOUS
 62
    7
 10
104.83000449999997
 20
72.172503500000062
 40
343.05999500000001
 50
349.53898900000002
 51
0.2023340000000291
  0
LINE
  8
_0-0_レイヤ___1
  6
CONTINUOUS
 62
    7
 10
447.88999949999999
 20
73.382503500000041
 11
447.88999949999999
 21
73.58250350000003
  0
ARC
  8
_0-0_レイヤ___1
  6
CONTINUOUS
 62
    7
 10
185.40000349999997
 20
54.032503500000018
 40
260.75499600000001
 50
340.62691699999999
 51
350.25253500000002
  0
LINE
  8
_0-0_レイヤ___1
  6
CONTINUOUS
 62
    7
 10
431.38999949999999
 20
-32.667494499999975
 11
425.24000050000001
 21
-48.317494499999952
  0
ARC
  8
_0-0_レイヤ___1
  6
CONTINUOUS
 62
    7
 10
452.60999950000001
 20
72.407503500000018
 40
1.6799999999999999
 50
69.763092
 51
297.560247
  0
ARC
  8
_0-0_レイヤ___1
  6
CONTINUOUS
 62
    7
 10
13.010006499999974
 20
73.262503500000037
 40
440.37999300000001
 50
359.69544300000001
 51
0.1783079999999933
  0
ARC
  8
_0-0_レイヤ___1
  6
CONTINUOUS
 62
    7
 10
82.02500550000002
 20
74.657503500000018
 40
371.36499400000002
 50
359.996465
 51
9.8731480000000058
  0
ARC
  8
_0-0_レイヤ___1
  6
CONTINUOUS
 62
    7
 10
70.755005499999982
 20
73.522503500000028
 40
382.63499400000001
 50
348.71334999999999
 51
359.97931299999999
  0
LINE
  8
_0-0_レイヤ___1
  6
CONTINUOUS
 62
    7
 10
453.38999949999999
 20
73.382503500000041
 11
453.38999949999999
 21
73.58250350000003
  0
ARC
  8
_0-0_レイヤ___1
  6
CONTINUOUS
 62
    7
 10
178.4000035
 20
50.642503500000032
 40
272.79499600000003
 50
339.39314899999999
 51
349.00865099999999
  0
LINE
  8
_0-0_レイヤ___1
  6
CONTINUOUS
 62
    7
 10
433.9399995
 20
-45.567494499999952
 11
431.38999949999999
 21
-51.917494499999975
  0
ARC
  8
_0-0_レイヤ___1
  6
CONTINUOUS
 62
    7
 10
458.65499949999997
 20
71.837503500000025
 40
2.25
 50
72.349834999999999
 51
290.65880900000002
  0
ARC
  8
_0-0_レイヤ___1
  6
CONTINUOUS
 62
    7
 10
433.44999949999999
 20
71.727503500000012
 40
26.079999999999998
 50
355.605323
 51
0.8329620000000344
  0
ARC
  8
_0-0_レイヤ___1
  6
CONTINUOUS
 62
    7
 10
330.4950015
 20
74.152503500000023
 40
129.04499799999999
 50
359.092534
 51
0.3027670000000165
  0
ARC
  8
_0-0_レイヤ___1
  6
CONTINUOUS
 62
    7
 10
64.930005499999993
 20
75.037503500000014
 40
394.60999399999997
 50
359.97028899999998
 51
8.6128200000000188
  0
ARC
  8
_0-0_レイヤ___1
  6
CONTINUOUS
 62
    7
 10
54.875005499999986
 20
73.567503500000043
 40
404.66499399999998
 50
349.02582299999995
 51
359.97390199999995
  0
LINE
  8
_0-0_レイヤ___1
  6
CONTINUOUS
 62
    7
 10
459.53999949999996
 20
73.382503500000041
 11
459.53999949999996
 21
73.58250350000003
  0
ARC
  8
_0-0_レイヤ___1
  6
CONTINUOUS
 62
    7
 10
175.09000349999999
 20
46.987503500000059
 40
281.574996
 50
338.651252
 51
349.71882199999999
  0
ARC
  8
_0-0_レイヤ___1
  6
CONTINUOUS
 62
    7
 10
464.93999949999994
 20
71.677503500000057
 40
2.4199999999999999
 50
72.005598000000006
 51
290.795457
  0
ARC
  8
_0-0_レイヤ___1
  6
CONTINUOUS
 62
    7
 10
436.54999950000001
 20
71.532503500000018
 40
29.329999999999998
 50
355.85504400000008
 51
0.791042000000034
  0
ARC
  8
_0-0_レイヤ___1
  6
CONTINUOUS
 62
    7
 10
320.29500150000001
 20
74.107503500000007
 40
145.594998
 50
359.145824
 51
0.2845729999999965
  0
ARC
  8
_0-0_レイヤ___1
  6
CONTINUOUS
 62
    7
 10
64.240005499999995
 20
75.212503500000025
 40
401.64999399999999
 50
359.94584600000002
 51
7.8878359999999903
  0
ARC
  8
_0-0_レイヤ___1
  6
CONTINUOUS
 62
    7
 10
26.270006500000022
 20
74.277503500000023
 40
439.61999300000002
 50
349.61545900000004
 51
359.88360400000005
  0
LINE
  8
_0-0_レイヤ___1
  6
CONTINUOUS
 62
    7
 10
465.88999949999999
 20
73.382503500000041
 11
465.88999949999999
 21
73.58250350000003
  0
ARC
  8
_0-0_レイヤ___1
  6
CONTINUOUS
 62
    7
 10
129.6150045
 20
53.732503500000007
 40
334.46999499999998
 50
340.31777099999999
 51
349.89212099999997
  0
ARC
  8
_0-0_レイヤ___1
  6
CONTINUOUS
 62
    7
 10
471.51499949999999
 20
71.387503500000037
 40
2.5649999999999999
 50
68.916281999999995
 51
297.02787699999999
  0
ARC
  8
_0-0_レイヤ___1
  6
CONTINUOUS
 62
    7
 10
55.915005500000007
 20
72.242503500000055
 40
416.77999399999999
 50
359.56845700000002
 51
0.2735539999999734
  0
ARC
  8
_0-0_レイヤ___1
  6
CONTINUOUS
 62
    7
 10
-4.6499934999999937
 20
73.612503500000059
 40
477.33999299999999
 50
0.074201
 51
6.1536219999999995
  0
ARC
  8
_0-0_レイヤ___1
  6
CONTINUOUS
 62
    7
 10
20.200006499999972
 20
72.027503500000023
 40
452.48999300000003
 50
349.90731599999998
 51
0.1715970000000287
  0
LINE
  8
_0-0_レイヤ___1
  6
CONTINUOUS
 62
    7
 10
472.68999949999994
 20
73.382503500000041
 11
472.68999949999994
 21
73.58250350000003
  0
ARC
  8
_0-0_レイヤ___1
  6
CONTINUOUS
 62
    7
 10
126.4250045
 20
48.512503500000037
 40
343.58999499999999
 50
340.99714799999998
 51
350.69103799999999
  0
LINE
  8
_0-0_レイヤ___1
  6
CONTINUOUS
 62
    7
 10
477.53999949999996
 20
122.88250249999999
 11
479.88999949999999
 21
73.58250350000003
  0
ARC
  8
_0-0_レイヤ___1
  6
CONTINUOUS
 62
    7
 10
-8.9049934999999891
 20
72.687503500000048
 40
488.79499299999998
 50
349.04928899999999
 51
0.0816090000000086
  0
LINE
  8
_0-0_レイヤ___1
  6
CONTINUOUS
 62
    7
 10
479.88999949999999
 20
73.382503500000041
 11
479.88999949999999
 21
73.58250350000003
  0
ARC
  8
_0-0_レイヤ___1
  6
CONTINUOUS
 62
    7
 10
127.52000450000003
 20
43.547503500000062
 40
349.324995
 50
341.444411
 51
349.49087300000002
  0
LINE
  8
_0-0_レイヤ___1
  6
CONTINUOUS
 62
    7
 10
486.23999950000001
 20
115.48250250000001
 11
486.63999949999999
 21
108.53250350000002
  0
LINE
  8
_0-0_レイヤ___1
  6
CONTINUOUS
 62
    7
 10
486.63999949999999
 20
108.53250350000002
 11
487.03999949999996
 21
101.33250350000003
  0
LINE
  8
_0-0_レイヤ___1
  6
CONTINUOUS
 62
    7
 10
487.03999949999996
 20
101.33250350000003
 11
487.28999949999996
 21
94.33250350000003
  0
LINE
  8
_0-0_レイヤ___1
  6
CONTINUOUS
 62
    7
 10
487.28999949999996
 20
94.33250350000003
 11
487.48999950000001
 21
87.33250350000003
  0
LINE
  8
_0-0_レイヤ___1
  6
CONTINUOUS
 62
    7
 10
487.48999950000001
 20
87.33250350000003
 11
487.48999950000001
 21
80.33250350000003
  0
LINE
  8
_0-0_レイヤ___1
  6
CONTINUOUS
 62
    7
 10
487.48999950000001
 20
80.33250350000003
 11
487.68999949999994
 21
73.58250350000003
  0
ARC
  8
_0-0_レイヤ___1
  6
CONTINUOUS
 62
    7
 10
-22.634993500000007
 20
71.722503500000016
 40
510.12499200000002
 50
349.28004499999997
 51
0.1866489999999694
  0
LINE
  8
_0-0_レイヤ___1
  6
CONTINUOUS
 62
    7
 10
487.48999950000001
 20
73.382503500000041
 11
487.48999950000001
 21
73.58250350000003
  0
ARC
  8
_0-0_レイヤ___1
  6
CONTINUOUS
 62
    7
 10
139.65000450000002
 20
33.832504500000027
 40
343.92999500000002
 50
341.99613599999998
 51
350.42613599999999
  0
LINE
  8
_0-0_レイヤ___1
  6
CONTINUOUS
 62
    7
 10
469.93999949999994
 20
-63.367494499999964
 11
482.63999949999999
 21
-82.417494499999975
  0
ARC
  8
_0-0_レイヤ___1
  6
CONTINUOUS
 62
    7
 10
308.91500150000002
 20
-183.46249249999994
 40
205.83999700000001
 50
28.129883
 51
37.672331999999997
  0
ARC
  8
_0-0_レイヤ___1
  6
CONTINUOUS
 62
    7
 10
250.92000250000001
 20
-221.15249249999999
 40
280.20499599999999
 50
27.465910999999998
 51
37.476467
  0
ARC
  8
_0-0_レイヤ___1
  6
CONTINUOUS
 62
    7
 10
242.29500250000001
 20
-223.31249249999996
 40
294.33999599999999
 50
26.046965999999998
 51
37.761603000000001
  0
LINE
  8
_0-0_レイヤ___1
  6
CONTINUOUS
 62
    7
 10
506.93999849999994
 20
-94.067493499999955
 11
508.63999849999999
 21
-97.467493499999989
  0
ARC
  8
_0-0_レイヤ___1
  6
CONTINUOUS
 62
    7
 10
228.00000349999999
 20
-230.17749149999997
 40
316.52499499999999
 50
26.020970999999999
 51
38.215592999999998
  0
LINE
  8
_0-0_レイヤ___1
  6
CONTINUOUS
 62
    7
 10
512.4399985
 20
-91.317494499999952
 11
517.73999849999996
 21
-102.51749349999994
  0
ARC
  8
_0-0_レイヤ___1
  6
CONTINUOUS
 62
    7
 10
240.91000249999996
 20
-216.90249249999999
 40
305.18999500000001
 50
29.016874999999999
 51
38.849322000000001
  0
LINE
  8
_0-0_レイヤ___1
  6
CONTINUOUS
 62
    7
 10
508.23999850000001
 20
-69.067494499999952
 11
518.58999850000009
 21
-88.317494499999952
  0
LINE
  8
_0-0_レイヤ___1
  6
CONTINUOUS
 62
    7
 10
518.58999850000009
 20
-88.317494499999952
 11
527.9399985
 21
-108.46749349999999
  0
ARC
  8
_0-0_レイヤ___1
  6
CONTINUOUS
 62
    7
 10
213.07000349999998
 20
-231.14249150000001
 40
343.52499499999999
 50
30.292099000000004
 51
38.879823999999999
  0
LINE
  8
_0-0_レイヤ___1
  6
CONTINUOUS
 62
    7
 10
510.13999849999999
 20
-57.867494499999964
 11
524.9399985
 21
-85.167494499999975
  0
LINE
  8
_0-0_レイヤ___1
  6
CONTINUOUS
 62
    7
 10
524.9399985
 20
-85.167494499999975
 11
537.63999850000005
 21
-112.91749349999998
  0
ARC
  8
_0-0_レイヤ___1
  6
CONTINUOUS
 62
    7
 10
212.4900035
 20
-227.73249149999992
 40
350.34499499999998
 50
29.040106999999995
 51
39.663020000000003
  0
LINE
  8
_0-0_レイヤ___1
  6
CONTINUOUS
 62
    7
 10
519.03999849999991
 20
-57.667494499999975
 11
531.9399985
 21
-81.567494499999952
  0
LINE
  8
_0-0_レイヤ___1
  6
CONTINUOUS
 62
    7
 10
531.9399985
 20
-81.567494499999952
 11
548.88999850000005
 21
-119.66749349999998
  0
ARC
  8
_0-0_レイヤ___1
  6
CONTINUOUS
 62
    7
 10
195.66000350000002
 20
-232.35749149999992
 40
375.66999399999997
 50
31.348577999999996
 51
39.893360999999992
  0
LINE
  8
_0-0_レイヤ___1
  6
CONTINUOUS
 62
    7
 10
516.6899985
 20
-36.917494499999975
 11
539.53999849999991
 21
-77.767494499999941
  0
ARC
  8
_0-0_レイヤ___1
  6
CONTINUOUS
 62
    7
 10
175.79000349999998
 20
-265.46249149999994
 40
409.05499400000002
 50
19.871545999999999
 51
27.344127
  0
ARC
  8
_0-0_レイヤ___1
  6
CONTINUOUS
 62
    7
 10
151.10500449999995
 20
-257.94749149999996
 40
436.52999299999999
 50
30.870320999999997
 51
40.023363000000003
  0
LINE
  8
_0-0_レイヤ___1
  6
CONTINUOUS
 62
    7
 10
525.98999849999996
 20
-34.167494499999975
 11
547.78999849999991
 21
-73.517494499999941
  0
LINE
  8
_0-0_レイヤ___1
  6
CONTINUOUS
 62
    7
 10
547.78999849999991
 20
-73.517494499999941
 11
568.13999749999994
 21
-118.81749349999996
  0
ARC
  8
_0-0_レイヤ___1
  6
CONTINUOUS
 62
    7
 10
129.95500449999997
 20
-266.3974915
 40
469.334993
 50
31.765531000000003
 51
40.575511000000006
  0
LINE
  8
_0-0_レイヤ___1
  6
CONTINUOUS
 62
    7
 10
528.98999849999996
 20
-19.31749549999995
 11
556.88999850000005
 21
-69.067494499999952
  0
LINE
  8
_0-0_レイヤ___1
  6
CONTINUOUS
 62
    7
 10
556.88999850000005
 20
-69.067494499999952
 11
567.93999749999989
 21
-92.367493499999966
  0
ARC
  8
_0-0_レイヤ___1
  6
CONTINUOUS
 62
    7
 10
139.19000449999999
 20
-251.66749149999998
 40
464.67999300000002
 50
32.409216999999998
 51
41.532125000000001
  0
ARC
  8
_0-0_レイヤ___1
  6
CONTINUOUS
 62
    7
 10
86.505005499999982
 20
-298.80749049999997
 40
534.37999200000002
 50
26.039669
 51
33.660218
  0
LINE
  8
_0-0_レイヤ___1
  6
CONTINUOUS
 62
    7
 10
566.83999749999998
 20
-64.217494499999987
 11
567.93999749999989
 21
-66.517494499999941
  0
ARC
  8
_0-0_レイヤ___1
  6
CONTINUOUS
 62
    7
 10
411.89000049999999
 20
-62.122494499999959
 40
3.2149999999999999
 50
93.575295999999994
 51
120.907599
  0
LINE
  8
_0-0_レイヤ___1
  6
CONTINUOUS
 62
    7
 10
410.24000050000001
 20
-59.367494499999964
 11
408.9400005
 21
-60.417494499999975
  0
ARC
  8
_0-0_レイヤ___1
  6
CONTINUOUS
 62
    7
 10
408.85500050000002
 20
-62.527494499999989
 40
3.375
 50
38.716993000000002
 51
69.463548999999986
  0
ARC
  8
_0-0_レイヤ___1
  6
CONTINUOUS
 62
    7
 10
408.6250005
 20
-61.352494499999978
 40
2.4399999999999999
 50
54.527081000000003
 51
87.285919000000007
  0
ARC
  8
_0-0_レイヤ___1
  6
CONTINUOUS
 62
    7
 10
409.3750005
 20
-58.527494499999989
 40
4.3949999999999996
 50
234.75492300000002
 51
272.80471299999999
  0
ARC
  8
_0-0_レイヤ___1
  6
CONTINUOUS
 62
    7
 10
407.94500049999999
 20
-68.167494499999975
 40
5.5049999999999999
 50
65.334936999999996
 51
72.590026000000009
  0
ARC
  8
_0-0_レイヤ___1
  6
CONTINUOUS
 62
    7
 10
410.14000049999999
 20
-58.137494499999946
 40
5.0300000000000002
 50
271.13261599999998
 51
287.724445
  0
ARC
  8
_0-0_レイヤ___1
  6
CONTINUOUS
 62
    7
 10
408.09000049999997
 20
-51.857494499999973
 40
11.640000000000001
 50
287.93605100000002
 51
295.99754100000007
  0
ARC
  8
_0-0_レイヤ___1
  6
CONTINUOUS
 62
    7
 10
412.67000050000001
 20
-60.097494499999982
 40
2.145
 50
289.62453199999999
 51
340.37547799999999
  0
LINE
  8
_0-0_レイヤ___1
  6
CONTINUOUS
 62
    7
 10
414.89000049999999
 20
-60.617494499999964
 11
415.09000049999997
 21
-60.417494499999975
  0
ARC
  8
_0-0_レイヤ___1
  6
CONTINUOUS
 62
    7
 10
413.0600005
 20
-60.497494499999959
 40
2.0350000000000001
 50
2.2639450000000001
 51
61.138907000000003
  0
ARC
  8
_0-0_レイヤ___1
  6
CONTINUOUS
 62
    7
 10
413.20000049999999
 20
-59.327494499999943
 40
0.935
 50
26.190912000000001
 51
66.932191000000003
  0
ARC
  8
_0-0_レイヤ___1
  6
CONTINUOUS
 62
    7
 10
409.51500049999999
 20
-65.567494499999952
 40
8.1699999999999999
 50
60.264154000000005
 51
63.270658000000005
  0
ARC
  8
_0-0_レイヤ___1
  6
CONTINUOUS
 62
    7
 10
410.73500050000001
 20
-63.842494499999987
 40
6.1749999999999998
 50
64.523157999999995
 51
90.860793000000001
  0
LINE
  8
_0-0_レイヤ___1
  6
CONTINUOUS
 62
    7
 10
410.64000049999999
 20
-57.667494499999975
 11
410.4400005
 21
-57.667494499999975
  0
ARC
  8
_0-0_レイヤ___1
  6
CONTINUOUS
 62
    7
 10
410.36000050000001
 20
-67.137494499999946
 40
9.4700000000000006
 50
89.503241000000003
 51
110.51269599999999
  0
ARC
  8
_0-0_レイヤ___1
  6
CONTINUOUS
 62
    7
 10
407.60500050000002
 20
-60.332494499999939
 40
1.905
 50
107.330191
 51
162.66977900000001
  0
LINE
  8
_0-0_レイヤ___1
  6
CONTINUOUS
 62
    7
 10
405.79000049999996
 20
-59.767494499999941
 11
405.79000049999996
 21
-60.417494499999975
  0
ARC
  8
_0-0_レイヤ___1
  6
CONTINUOUS
 62
    7
 10
408.66500049999996
 20
-60.187494499999957
 40
2.8849999999999998
 50
184.59253699999996
 51
210.89684199999996
  0
LINE
  8
_0-0_レイヤ___1
  6
CONTINUOUS
 62
    7
 10
406.1900005
 20
-61.667494499999975
 11
406.64000049999999
 21
-62.117494499999964
  0
ARC
  8
_0-0_レイヤ___1
  6
CONTINUOUS
 62
    7
 10
409.89000049999999
 20
-57.902494499999989
 40
3.915
 50
239.262855
 51
258.28186699999998
  0
ARC
  8
_0-0_レイヤ___1
  6
CONTINUOUS
 62
    7
 10
410.39000049999999
 20
-55.462494499999991
 40
6.4050000000000002
 50
258.34444300000001
 51
270.45689900000002
  0
ARC
  8
_0-0_レイヤ___1
  6
CONTINUOUS
 62
    7
 10
410.39500049999998
 20
-57.742494499999964
 40
4.125
 50
270.60123800000002
 51
301.28957100000002
  0
ARC
  8
_0-0_レイヤ___1
  6
CONTINUOUS
 62
    7
 10
411.42500050000001
 20
-59.452494499999943
 40
2.4350000000000001
 50
304.05634099999997
 51
352.54080699999997
  0
LINE
  8
_0-0_レイヤ___1
  6
CONTINUOUS
 62
    7
 10
413.59000049999997
 20
-59.967494499999987
 11
413.84000049999997
 21
-59.967494499999987
  0
ARC
  8
_0-0_レイヤ___1
  6
CONTINUOUS
 62
    7
 10
412.59500049999997
 20
-60.012494499999946
 40
1.2450000000000001
 50
2.0697000000000001
 51
61.449252999999992
  0
ARC
  8
_0-0_レイヤ___1
  6
CONTINUOUS
 62
    7
 10
412.78500049999997
 20
-59.022494499999993
 40
0.4199999999999999
 50
14.481902000000002
 51
67.179817999999997
  0
ARC
  8
_0-0_レイヤ___1
  6
CONTINUOUS
 62
    7
 10
412.51000049999999
 20
-59.377494499999955
 40
0.8599999999999999
 50
59.533064000000003
 51
88.070699000000005
  0
ARC
  8
_0-0_レイヤ___1
  6
CONTINUOUS
 62
    7
 10
411.27000049999998
 20
-60.322494499999948
 40
2.2050000000000001
 50
54.855024
 51
80.159956000000008
  0
ARC
  8
_0-0_レイヤ___1
  6
CONTINUOUS
 62
    7
 10
410.63000049999999
 20
-64.367494499999964
 40
6.3049999999999997
 50
80.698353999999995
 51
91.706717999999995
  0
ARC
  8
_0-0_レイヤ___1
  6
CONTINUOUS
 62
    7
 10
409.9950005
 20
-62.992494499999964
 40
4.9450000000000003
 50
84.824731999999997
 51
115.191205
  0
ARC
  8
_0-0_レイヤ___1
  6
CONTINUOUS
 62
    7
 10
408.1200005
 20
-59.947494499999948
 40
1.49
 50
106.78463499999998
 51
173.15481499999999
  0
LINE
  8
_0-0_レイヤ___1
  6
CONTINUOUS
 62
    7
 10
406.84000049999997
 20
-59.567494499999952
 11
406.84000049999997
 21
-59.967494499999987
  0
ARC
  8
_0-0_レイヤ___1
  6
CONTINUOUS
 62
    7
 10
407.60500050000002
 20
-60.087494499999991
 40
0.775
 50
170.997105
 51
223.20835
  0
ARC
  8
_0-0_レイヤ___1
  6
CONTINUOUS
 62
    7
 10
407.80500050000001
 20
-60.50749449999995
 40
0.5749999999999999
 50
191.11080100000001
 51
236.05166700000001
  0
ARC
  8
_0-0_レイヤ___1
  6
CONTINUOUS
 62
    7
 10
408.8700005
 20
-59.427494499999966
 40
2.0800000000000001
 50
228.29725700000003
 51
241.962264
  0
ARC
  8
_0-0_レイヤ___1
  6
CONTINUOUS
 62
    7
 10
372.23000050000002
 20
-44.487494499999968
 40
2.54
 50
82.950151000000005
 51
116.61464100000001
  0
LINE
  8
_0-0_レイヤ___1
  6
CONTINUOUS
 62
    7
 10
371.29000049999996
 20
-42.217494499999987
 11
369.99000050000001
 21
-43.467494499999987
  0
ARC
  8
_0-0_レイヤ___1
  6
CONTINUOUS
 62
    7
 10
369.79000049999996
 20
-45.317494499999952
 40
3.27
 50
38.762473
 51
71.253474999999995
  0
ARC
  8
_0-0_レイヤ___1
  6
CONTINUOUS
 62
    7
 10
370.01500049999999
 20
-44.302494499999966
 40
2.3450000000000002
 50
62.731442000000008
 51
95.497487000000007
  0
LINE
  8
_0-0_レイヤ___1
  6
CONTINUOUS
 62
    7
 10
369.79000049999996
 20
-41.967494499999987
 11
369.59000049999997
 21
-41.967494499999987
  0
ARC
  8
_0-0_レイヤ___1
  6
CONTINUOUS
 62
    7
 10
372.65000049999998
 20
-34.197494499999948
 40
11.960000000000001
 50
246.551512
 51
261.30136299999998
  0
ARC
  8
_0-0_レイヤ___1
  6
CONTINUOUS
 62
    7
 10
366.03500049999997
 20
-61.932494499999962
 40
16.760000000000002
 50
71.734797
 51
74.059729000000004
  0
ARC
  8
_0-0_レイヤ___1
  6
CONTINUOUS
 62
    7
 10
371.16500049999996
 20
-40.682494499999962
 40
5.335
 50
271.36196000000007
 51
287.49010700000008
  0
ARC
  8
_0-0_レイヤ___1
  6
CONTINUOUS
 62
    7
 10
364.73000050000002
 20
-20.927495499999964
 40
26.114999999999998
 50
287.92005
 51
291.82496099999997
  0
ARC
  8
_0-0_レイヤ___1
  6
CONTINUOUS
 62
    7
 10
373.8700005
 20
-43.50749449999995
 40
1.7549999999999999
 50
288.88363900000002
 51
316.82438000000002
  0
ARC
  8
_0-0_レイヤ___1
  6
CONTINUOUS
 62
    7
 10
369.61500050000001
 20
-39.692494499999952
 40
7.4699999999999998
 50
317.83591300000001
 51
327.86187699999994
  0
LINE
  8
_0-0_レイヤ___1
  6
CONTINUOUS
 62
    7
 10
375.74000050000001
 20
-43.467494499999987
 11
375.9400005
 21
-43.267494499999941
  0
ARC
  8
_0-0_レイヤ___1
  6
CONTINUOUS
 62
    7
 10
373.85000049999996
 20
-43.387494499999946
 40
2.0950000000000002
 50
3.2253880000000006
 51
60.177464999999998
  0
ARC
  8
_0-0_レイヤ___1
  6
CONTINUOUS
 62
    7
 10
374.54000049999996
 20
-41.932494499999962
 40
0.5749999999999999
 50
16.868527
 51
59.929332000000002
  0
ARC
  8
_0-0_レイヤ___1
  6
CONTINUOUS
 62
    7
 10
368.79000049999996
 20
-48.38249449999995
 40
9.2050000000000001
 50
48.996116000000001
 51
52.119833000000007
  0
ARC
  8
_0-0_レイヤ___1
  6
CONTINUOUS
 62
    7
 10
371.71500049999997
 20
-46.75749449999995
 40
6.04
 50
63.169138000000004
 51
90.233704000000017
  0
LINE
  8
_0-0_レイヤ___1
  6
CONTINUOUS
 62
    7
 10
371.6900005
 20
-40.717494499999987
 11
371.49000050000001
 21
-40.717494499999987
  0
LINE
  8
_0-0_レイヤ___1
  6
CONTINUOUS
 62
    7
 10
371.49000050000001
 20
-40.517494499999941
 11
371.29000049999996
 21
-40.517494499999941
  0
ARC
  8
_0-0_レイヤ___1
  6
CONTINUOUS
 62
    7
 10
371.17500050000001
 20
-49.807494499999962
 40
9.2899999999999991
 50
89.299243000000004
 51
110.71669499999999
  0
ARC
  8
_0-0_レイヤ___1
  6
CONTINUOUS
 62
    7
 10
368.38000049999999
 20
-43.107494499999973
 40
1.8100000000000001
 50
105.726877
 51
164.27309399999999
  0
LINE
  8
_0-0_レイヤ___1
  6
CONTINUOUS
 62
    7
 10
366.64000049999999
 20
-42.617494499999964
 11
366.64000049999999
 21
-43.267494499999941
  0
LINE
  8
_0-0_レイヤ___1
  6
CONTINUOUS
 62
    7
 10
366.64000049999999
 20
-43.267494499999941
 11
366.64000049999999
 21
-43.667494499999975
  0
ARC
  8
_0-0_レイヤ___1
  6
CONTINUOUS
 62
    7
 10
371.23000050000002
 20
-41.197494499999948
 40
5.04
 50
209.38340099999996
 51
228.47171699999998
  0
ARC
  8
_0-0_レイヤ___1
  6
CONTINUOUS
 62
    7
 10
371.13000049999999
 20
-40.262494499999946
 40
4.71
 50
239.47805299999999
 51
271.92141500000002
  0
ARC
  8
_0-0_レイヤ___1
  6
CONTINUOUS
 62
    7
 10
371.15000049999998
 20
-40.792494499999975
 40
4.1749999999999998
 50
271.94348000000002
 51
302.45361800000001
  0
ARC
  8
_0-0_レイヤ___1
  6
CONTINUOUS
 62
    7
 10
372.58500049999998
 20
-42.567494499999952
 40
2.3199999999999998
 50
302.77533700000004
 51
353.82181000000003
  0
LINE
  8
_0-0_レイヤ___1
  6
CONTINUOUS
 62
    7
 10
374.6900005
 20
-43.067494499999952
 11
374.89000049999999
 21
-43.067494499999952
  0
ARC
  8
_0-0_レイヤ___1
  6
CONTINUOUS
 62
    7
 10
373.65500049999997
 20
-43.052494499999966
 40
1.2350000000000001
 50
359.41280999999998
 51
61.745637000000016
  0
ARC
  8
_0-0_レイヤ___1
  6
CONTINUOUS
 62
    7
 10
373.63500049999999
 20
-41.88249449999995
 40
0.4199999999999999
 50
16.166422999999998
 51
67.633725999999996
  0
ARC
  8
_0-0_レイヤ___1
  6
CONTINUOUS
 62
    7
 10
373.34000049999997
 20
-42.227494499999978
 40
0.8599999999999999
 50
58.11219899999999
 51
86.788306999999989
  0
ARC
  8
_0-0_レイヤ___1
  6
CONTINUOUS
 62
    7
 10
372.03000049999997
 20
-43.41249449999998
 40
2.4550000000000001
 50
56.367569999999994
 51
80.324870000000004
  0
ARC
  8
_0-0_レイヤ___1
  6
CONTINUOUS
 62
    7
 10
371.46500049999997
 20
-47.247494499999959
 40
6.335
 50
81.116423999999981
 51
91.571891999999991
  0
ARC
  8
_0-0_レイヤ___1
  6
CONTINUOUS
 62
    7
 10
370.84500049999997
 20
-45.842494499999987
 40
4.9450000000000003
 50
84.824731999999997
 51
115.191205
  0
ARC
  8
_0-0_レイヤ___1
  6
CONTINUOUS
 62
    7
 10
369.17000050000001
 20
-42.797494499999971
 40
1.49
 50
106.78463499999998
 51
173.15481499999999
  0
LINE
  8
_0-0_レイヤ___1
  6
CONTINUOUS
 62
    7
 10
367.89000049999999
 20
-42.617494499999964
 11
367.89000049999999
 21
-43.067494499999952
  0
ARC
  8
_0-0_レイヤ___1
  6
CONTINUOUS
 62
    7
 10
368.59000049999997
 20
-43.167494499999975
 40
0.7099999999999999
 50
171.89641399999999
 51
224.97348
  0
ARC
  8
_0-0_レイヤ___1
  6
CONTINUOUS
 62
    7
 10
368.69500049999999
 20
-43.557494499999962
 40
0.6149999999999999
 50
190.22285899999997
 51
233.96776999999997
  0
ARC
  8
_0-0_レイヤ___1
  6
CONTINUOUS
 62
    7
 10
369.70500049999998
 20
-42.372494499999959
 40
2.1699999999999999
 50
230.82050899999999
 51
243.616985
  0
LINE
  8
_0-0_レイヤ___1
  6
CONTINUOUS
 62
    7
 10
827.63999450000006
 20
180.48250150000001
 11
860.88999349999995
 21
160.58250250000003
  0
LINE
  8
_0-0_レイヤ___1
  6
CONTINUOUS
 62
    7
 10
861.08999349999999
 20
160.58250250000003
 11
860.88999349999995
 21
160.58250250000003
  0
LINE
  8
_0-0_レイヤ___1
  6
CONTINUOUS
 62
    7
 10
860.88999349999995
 20
160.58250250000003
 11
860.63999349999995
 21
160.58250250000003
  0
ARC
  8
_0-0_レイヤ___1
  6
CONTINUOUS
 62
    7
 10
859.65999349999993
 20
156.21250250000003
 40
4.8550000000000004
 50
59.24672799999999
 51
70.351010000000002
  0
ARC
  8
_0-0_レイヤ___1
  6
CONTINUOUS
 62
    7
 10
849.8449935000001
 20
150.30750250000006
 40
15.895
 50
35.476390000000002
 51
39.334314999999997
  0
LINE
  8
_0-0_レイヤ___1
  6
CONTINUOUS
 62
    7
 10
863.1899934999999
 20
158.23250250000001
 11
862.53999350000004
 21
159.53250250000008
  0
ARC
  8
_0-0_レイヤ___1
  6
CONTINUOUS
 62
    7
 10
859.72499349999998
 20
156.40750250000008
 40
3.915
 50
1.8464670000000001
 51
27.80649
  0
ARC
  8
_0-0_レイヤ___1
  6
CONTINUOUS
 62
    7
 10
857.97499349999998
 20
154.73250250000001
 40
5.8849999999999998
 50
355.11460799999998
 51
15.766055000000019
  0
LINE
  8
_0-0_レイヤ___1
  6
CONTINUOUS
 62
    7
 10
864.03999350000004
 20
154.23250250000001
 11
864.23999350000008
 21
151.28250250000008
  0
LINE
  8
_0-0_レイヤ___1
  6
CONTINUOUS
 62
    7
 10
864.23999350000008
 20
106.18250350000005
 11
864.23999350000008
 21
151.28250250000008
  0
ARC
  8
_0-0_レイヤ___1
  6
CONTINUOUS
 62
    7
 10
862.55999350000002
 20
108.85750350000001
 40
2.8849999999999998
 50
274.59252700000002
 51
300.89683200000002
  0
ARC
  8
_0-0_レイヤ___1
  6
CONTINUOUS
 62
    7
 10
862.36999349999996
 20
117.46250250000003
 40
12.055
 50
256.67432700000001
 51
261.75709999999998
  0
ARC
  8
_0-0_レイヤ___1
  6
CONTINUOUS
 62
    7
 10
860.40999349999993
 20
111.99250250000006
 40
6.46
 50
272.03557999999998
 51
291.60741399999995
  0
ARC
  8
_0-0_レイヤ___1
  6
CONTINUOUS
 62
    7
 10
860.41499350000004
 20
119.42250250000006
 40
13.904999999999999
 50
249.69381999999999
 51
267.42411499999997
  0
ARC
  8
_0-0_レイヤ___1
  6
CONTINUOUS
 62
    7
 10
861.78999350000004
 20
127.16250250000007
 40
21.344999999999999
 50
238.66803100000004
 51
246.85476300000002
  0
ARC
  8
_0-0_レイヤ___1
  6
CONTINUOUS
 62
    7
 10
879.55499349999991
 20
169.52750250000008
 40
67.279999000000004
 50
247.12279899999999
 51
249.315271
  0
ARC
  8
_0-0_レイヤ___1
  6
CONTINUOUS
 62
    7
 10
872.0799935
 20
148.39250250000009
 40
45.179999000000002
 50
233.47756799999999
 51
238.76656
  0
ARC
  8
_0-0_レイヤ___1
  6
CONTINUOUS
 62
    7
 10
652.43999650000001
 20
-196.99249249999997
 40
364.139995
 50
56.966889000000002
 51
57.395383000000002
  0
ARC
  8
_0-0_レイヤ___1
  6
CONTINUOUS
 62
    7
 10
900.38499249999995
 20
180.27250150000009
 40
87.534998999999999
 50
218.24949599999999
 51
230.91104999999999
  0
ARC
  8
_0-0_レイヤ___1
  6
CONTINUOUS
 62
    7
 10
889.24499349999996
 20
171.39250250000009
 40
73.569998999999996
 50
209.30550299999999
 51
218.21373199999999
  0
LINE
  8
_0-0_レイヤ___1
  6
CONTINUOUS
 62
    7
 10
821.93999450000001
 20
159.33250250000003
 11
821.93999450000001
 21
159.08250250000003
  0
ARC
  8
_0-0_レイヤ___1
  6
CONTINUOUS
 62
    7
 10
910.8349925
 20
159.03750250000007
 40
88.894998999999999
 50
179.970687
 51
195.29844199999999
  0
LINE
  8
_0-0_レイヤ___1
  6
CONTINUOUS
 62
    7
 10
821.93999450000001
 20
158.88250249999999
 11
822.13999450000006
 21
162.08250250000003
  0
ARC
  8
_0-0_レイヤ___1
  6
CONTINUOUS
 62
    7
 10
895.02999350000005
 20
156.70750250000003
 40
73.089999000000006
 50
168.57593100000003
 51
175.781327
  0
ARC
  8
_0-0_レイヤ___1
  6
CONTINUOUS
 62
    7
 10
853.77499349999994
 20
164.35250250000001
 40
31.385000000000002
 50
156.07194299999998
 51
167.05812399999996
  0
ARC
  8
_0-0_レイヤ___1
  6
CONTINUOUS
 62
    7
 10
836.01499349999995
 20
172.18250250000006
 40
11.789999999999999
 50
135.255539
 51
155.44179700000001
  0
LINE
  8
_0-0_レイヤ___1
  6
CONTINUOUS
 62
    7
 10
857.28999350000004
 20
152.13250249999999
 11
829.53999449999992
 21
137.28250250000008
  0
ARC
  8
_0-0_レイヤ___1
  6
CONTINUOUS
 62
    7
 10
900.38499249999995
 20
180.27250150000009
 40
87.534998999999999
 50
218.24949599999999
 51
230.91104999999999
  0
ARC
  8
_0-0_レイヤ___1
  6
CONTINUOUS
 62
    7
 10
889.24499349999996
 20
171.39250250000009
 40
73.569998999999996
 50
209.30550299999999
 51
218.21373199999999
  0
LINE
  8
_0-0_レイヤ___1
  6
CONTINUOUS
 62
    7
 10
821.93999450000001
 20
159.33250250000003
 11
821.93999450000001
 21
159.08250250000003
  0
ARC
  8
_0-0_レイヤ___1
  6
CONTINUOUS
 62
    7
 10
910.8349925
 20
159.03750250000007
 40
88.894998999999999
 50
179.970687
 51
195.29844199999999
  0
LINE
  8
_0-0_レイヤ___1
  6
CONTINUOUS
 62
    7
 10
821.93999450000001
 20
158.88250249999999
 11
822.13999450000006
 21
162.08250250000003
  0
ARC
  8
_0-0_レイヤ___1
  6
CONTINUOUS
 62
    7
 10
863.79999350000003
 20
160.13250249999999
 40
41.704999000000001
 50
164.35325599999999
 51
177.32201299999997
  0
ARC
  8
_0-0_レイヤ___1
  6
CONTINUOUS
 62
    7
 10
866.26999350000006
 20
162.33250250000003
 40
43.619999
 50
159.955511
 51
167.75577600000003
  0
ARC
  8
_0-0_レイヤ___1
  6
CONTINUOUS
 62
    7
 10
833.56999350000001
 20
174.04250250000007
 40
8.8949999999999996
 50
133.585106
 51
158.62252799999999
  0
LINE
  8
_0-0_レイヤ___1
  6
CONTINUOUS
 62
    7
 10
827.43999450000001
 20
180.48250150000001
 11
826.5899945000001
 21
181.13250149999999
  0
ARC
  8
_0-0_レイヤ___1
  6
CONTINUOUS
 62
    7
 10
831.33499449999999
 20
176.87750149999999
 40
6.6550000000000002
 50
137.98415299999999
 51
147.20510200000004
  0
ARC
  8
_0-0_レイヤ___1
  6
CONTINUOUS
 62
    7
 10
827.97499450000009
 20
178.22250150000002
 40
3.1800000000000002
 50
134.72346299999998
 51
166.198939
  0
ARC
  8
_0-0_レイヤ___1
  6
CONTINUOUS
 62
    7
 10
878.30999350000002
 20
156.33750250000003
 40
58.094999000000001
 50
156.846565
 51
159.08094600000001
  0
ARC
  8
_0-0_レイヤ___1
  6
CONTINUOUS
 62
    7
 10
843.10499350000009
 20
168.38750249999998
 40
21.055
 50
156.20869300000004
 51
164.45178799999999
  0
ARC
  8
_0-0_レイヤ___1
  6
CONTINUOUS
 62
    7
 10
865.47999350000009
 20
162.32750250000004
 40
44.234999000000002
 50
164.65838299999999
 51
168.45468600000001
  0
ARC
  8
_0-0_レイヤ___1
  6
CONTINUOUS
 62
    7
 10
878.78999350000004
 20
158.10750250000001
 40
57.944999000000003
 50
166.956301
 51
172.771682
  0
ARC
  8
_0-0_レイヤ___1
  6
CONTINUOUS
 62
    7
 10
848.82499349999989
 20
161.94250250000005
 40
27.734999999999999
 50
172.84768700000001
 51
179.710748
  0
LINE
  8
_0-0_レイヤ___1
  6
CONTINUOUS
 62
    7
 10
820.8399945000001
 20
162.08250250000003
 11
820.8399945000001
 21
157.18250250000006
  0
ARC
  8
_0-0_レイヤ___1
  6
CONTINUOUS
 62
    7
 10
865.41499350000004
 20
155.63750249999998
 40
44.599998999999997
 50
178.013746
 51
188.385333
  0
ARC
  8
_0-0_レイヤ___1
  6
CONTINUOUS
 62
    7
 10
885.35499350000009
 20
154.75250249999999
 40
64.309999000000005
 50
185.01532399999999
 51
198.139692
  0
LINE
  8
_0-0_レイヤ___1
  6
CONTINUOUS
 62
    7
 10
824.23999449999997
 20
134.53250250000008
 11
826.38999450000006
 21
131.38250249999999
  0
ARC
  8
_0-0_レイヤ___1
  6
CONTINUOUS
 62
    7
 10
893.0649934999999
 20
173.38250249999999
 40
79.014999000000003
 50
212.11191199999996
 51
228.11492899999996
  0
ARC
  8
_0-0_レイヤ___1
  6
CONTINUOUS
 62
    7
 10
912.30999249999991
 20
192.85750150000001
 40
106.369998
 50
227.40205399999999
 51
230.45842999999999
  0
LINE
  8
_0-0_レイヤ___1
  6
CONTINUOUS
 62
    7
 10
844.33999349999999
 20
111.03250250000002
 11
850.6899934999999
 21
106.83250350000003
  0
ARC
  8
_0-0_レイヤ___1
  6
CONTINUOUS
 62
    7
 10
861.60999349999997
 20
123.63750249999998
 40
19.734999999999999
 50
237.28196700000001
 51
253.90098399999999
  0
ARC
  8
_0-0_レイヤ___1
  6
CONTINUOUS
 62
    7
 10
866.27999350000005
 20
138.02750250000008
 40
34.864998999999997
 50
253.08114900000004
 51
256.83472599999999
  0
ARC
  8
_0-0_レイヤ___1
  6
CONTINUOUS
 62
    7
 10
861.00999350000006
 20
111.96250250000003
 40
8.1300000000000008
 50
250.82943999999998
 51
269.15462300000002
  0
ARC
  8
_0-0_レイヤ___1
  6
CONTINUOUS
 62
    7
 10
864.14499350000006
 20
92.492503500000055
 40
11.800000000000001
 50
100.770904
 51
106.01406900000001
  0
ARC
  8
_0-0_レイヤ___1
  6
CONTINUOUS
 62
    7
 10
861.8299935
 20
110.38250250000004
 40
6.2999999999999998
 50
271.01827700000001
 51
290.55033600000002
  0
LINE
  8
_0-0_レイヤ___1
  6
CONTINUOUS
 62
    7
 10
864.23999350000008
 20
104.48250350000001
 11
864.23999350000008
 21
106.18250350000005
  0
LINE
  8
_0-0_レイヤ___1
  6
CONTINUOUS
 62
    7
 10
860.63999349999995
 20
105.53250350000002
 11
860.88999349999995
 21
105.53250350000002
  0
ARC
  8
_0-0_レイヤ___1
  6
CONTINUOUS
 62
    7
 10
860.98499349999997
 20
112.12250250000005
 40
6.5899999999999999
 50
269.17803700000002
 51
295.67386600000003
  0
ARC
  8
_0-0_レイヤ___1
  6
CONTINUOUS
 62
    7
 10
860.52499349999994
 20
115.11250250000006
 40
9.5850000000000009
 50
248.664714
 51
272.16941800000001
  0
ARC
  8
_0-0_レイヤ___1
  6
CONTINUOUS
 62
    7
 10
864.69999349999989
 20
135.79750250000006
 40
30.59
 50
245.86521599999998
 51
255.50210199999998
  0
ARC
  8
_0-0_レイヤ___1
  6
CONTINUOUS
 62
    7
 10
873.29999350000003
 20
148.66750250000007
 40
45.939999
 50
232.27165199999996
 51
239.69521299999997
  0
ARC
  8
_0-0_レイヤ___1
  6
CONTINUOUS
 62
    7
 10
859.87499350000007
 20
125.8675025
 40
19.48
 50
239.96093300000004
 51
247.41303800000003
  0
ARC
  8
_0-0_レイヤ___1
  6
CONTINUOUS
 62
    7
 10
620.04999750000002
 20
37.912504500000011
 40
27.390000000000001
 50
152.09889799999996
 51
177.13693299999997
  0
LINE
  8
_0-0_レイヤ___1
  6
CONTINUOUS
 62
    7
 10
592.48999750000007
 20
39.282504500000016
 11
592.48999750000007
 21
36.132504500000039
  0
ARC
  8
_0-0_レイヤ___1
  6
CONTINUOUS
 62
    7
 10
640.4499965
 20
36.367504500000052
 40
47.959999000000003
 50
180.27887399999997
 51
192.01441600000001
  0
ARC
  8
_0-0_レイヤ___1
  6
CONTINUOUS
 62
    7
 10
651.39499649999993
 20
40.072504500000036
 40
59.304999000000002
 50
193.54496299999997
 51
211.33430099999998
  0
ARC
  8
_0-0_レイヤ___1
  6
CONTINUOUS
 62
    7
 10
659.40499649999992
 20
43.08250350000003
 40
67.559999000000005
 50
210.071237
 51
231.81419299999999
  0
ARC
  8
_0-0_レイヤ___1
  6
CONTINUOUS
 62
    7
 10
645.20999649999999
 20
25.882504500000039
 40
45.114998999999997
 50
232.729557
 51
250.21625299999999
  0
ARC
  8
_0-0_レイヤ___1
  6
CONTINUOUS
 62
    7
 10
637.87499649999995
 20
7.7025045000000318
 40
25.77
 50
252.06762700000002
 51
270.701098
  0
LINE
  8
_0-0_レイヤ___1
  6
CONTINUOUS
 62
    7
 10
637.98999649999996
 20
-18.267495499999939
 11
638.18999650000001
 21
-18.267495499999939
  0
ARC
  8
_0-0_レイヤ___1
  6
CONTINUOUS
 62
    7
 10
637.96999649999998
 20
6.0375045000000114
 40
24.305
 50
270.52328299999999
 51
289.89846999999997
  0
ARC
  8
_0-0_レイヤ___1
  6
CONTINUOUS
 62
    7
 10
630.15499750000004
 20
29.05750450000005
 40
48.549999
 50
289.096879
 51
300.971386
  0
ARC
  8
_0-0_レイヤ___1
  6
CONTINUOUS
 62
    7
 10
631.92499649999991
 20
25.612504500000057
 40
44.509999000000001
 50
301.43891500000001
 51
320.64256599999999
  0
ARC
  8
_0-0_レイヤ___1
  6
CONTINUOUS
 62
    7
 10
603.82499749999988
 20
51.602503500000012
 40
82.754998999999998
 50
319.06443000000002
 51
327.65784300000001
  0
ARC
  8
_0-0_レイヤ___1
  6
CONTINUOUS
 62
    7
 10
616.4599975000001
 20
41.847504500000014
 40
67.089999000000006
 50
329.03748200000001
 51
346.84745099999998
  0
ARC
  8
_0-0_レイヤ___1
  6
CONTINUOUS
 62
    7
 10
638.22499650000009
 20
36.187504500000045
 40
44.414999000000002
 50
347.51221099999998
 51
359.67291
  0
ARC
  8
_0-0_レイヤ___1
  6
CONTINUOUS
 62
    7
 10
649.97499650000009
 20
35.467504500000018
 40
32.664999999999999
 50
0.8199929999999999
 51
9.0131379999999979
  0
ARC
  8
_0-0_レイヤ___1
  6
CONTINUOUS
 62
    7
 10
648.18999650000001
 20
36.852504500000009
 40
34.454999000000001
 50
6.2135040000000012
 51
25.677284
  0
ARC
  8
_0-0_レイヤ___1
  6
CONTINUOUS
 62
    7
 10
652.25499650000006
 20
37.622504500000048
 40
30.120000000000001
 50
28.038661000000001
 51
35.820650000000001
  0
ARC
  8
_0-0_レイヤ___1
  6
CONTINUOUS
 62
    7
 10
663.95499649999988
 20
46.077503500000034
 40
15.685
 50
35.803932000000003
 51
50.234028999999992
  0
ARC
  8
_0-0_レイヤ___1
  6
CONTINUOUS
 62
    7
 10
652.0899965000001
 20
36.39250450000003
 40
31.145
 50
44.790053999999998
 51
62.765568999999999
  0
ARC
  8
_0-0_レイヤ___1
  6
CONTINUOUS
 62
    7
 10
638.45999649999999
 20
10.752504500000043
 40
60.354998999999999
 50
62.490684999999992
 51
77.096463
  0
ARC
  8
_0-0_レイヤ___1
  6
CONTINUOUS
 62
    7
 10
638.56499650000001
 20
9.0075045000000387
 40
62.034998999999999
 50
77.550976000000006
 51
90.949034999999995
  0
LINE
  8
_0-0_レイヤ___1
  6
CONTINUOUS
 62
    7
 10
637.53999649999992
 20
71.032503500000018
 11
636.68999650000001
 21
71.032503500000018
  0
ARC
  8
_0-0_レイヤ___1
  6
CONTINUOUS
 62
    7
 10
636.67999650000002
 20
6.9625045000000227
 40
64.069998999999996
 50
89.992951999999988
 51
108.041202
  0
ARC
  8
_0-0_レイヤ___1
  6
CONTINUOUS
 62
    7
 10
631.40999749999992
 20
27.497504500000048
 40
42.929999000000002
 50
109.83903399999998
 51
132.438884
  0
ARC
  8
_0-0_レイヤ___1
  6
CONTINUOUS
 62
    7
 10
618.19999749999988
 20
40.537504500000011
 40
24.414999999999999
 50
130.20752200000001
 51
145.031047
  0
ARC
  8
_0-0_レイヤ___1
  6
CONTINUOUS
 62
    7
 10
626.72499749999997
 20
34.212504500000023
 40
35.029998999999997
 50
144.54648499999999
 51
151.85846699999999
  0
ARC
  8
_0-0_レイヤ___1
  6
CONTINUOUS
 62
    7
 10
638.25999649999994
 20
12.292504500000007
 40
55.144998999999999
 50
66.282437000000002
 51
90.95462000000002
  0
ARC
  8
_0-0_レイヤ___1
  6
CONTINUOUS
 62
    7
 10
650.93999650000001
 20
35.812504500000045
 40
28.484999999999999
 50
50.940156000000009
 51
64.826718999999997
  0
ARC
  8
_0-0_レイヤ___1
  6
CONTINUOUS
 62
    7
 10
639.49499650000007
 20
13.187504500000045
 40
53.834999000000003
 50
64.043673000000013
 51
67.102877000000021
  0
ARC
  8
_0-0_レイヤ___1
  6
CONTINUOUS
 62
    7
 10
649.1999965
 20
34.032504500000016
 40
31.094999999999999
 50
35.262813999999999
 51
50.235894999999992
  0
LINE
  8
_0-0_レイヤ___1
  6
CONTINUOUS
 62
    7
 10
675.88999650000005
 20
50.08250350000003
 11
674.78999649999992
 21
51.782503500000018
  0
ARC
  8
_0-0_レイヤ___1
  6
CONTINUOUS
 62
    7
 10
647.29499650000002
 20
36.672504500000059
 40
31.585000000000001
 50
2.8331059999999999
 51
25.125582999999999
  0
ARC
  8
_0-0_レイヤ___1
  6
CONTINUOUS
 62
    7
 10
632.46999649999998
 20
37.147504500000025
 40
46.589998999999999
 50
345.309775
 51
358.197585
  0
ARC
  8
_0-0_レイヤ___1
  6
CONTINUOUS
 62
    7
 10
626.51499749999994
 20
32.847504500000014
 40
52.604998999999999
 50
3.0914730000000006
 51
5.8777379999999999
  0
ARC
  8
_0-0_レイヤ___1
  6
CONTINUOUS
 62
    7
 10
621.50999750000005
 20
39.587504500000023
 40
57.814999
 50
328.09222999999997
 51
345.72287899999998
  0
ARC
  8
_0-0_レイヤ___1
  6
CONTINUOUS
 62
    7
 10
614.9449975
 20
44.167503500000009
 40
65.809999000000005
 50
309.76577800000001
 51
327.73123900000002
  0
ARC
  8
_0-0_レイヤ___1
  6
CONTINUOUS
 62
    7
 10
627.54499749999991
 20
30.607504500000061
 40
47.334999000000003
 50
296.05893300000002
 51
308.54191100000003
  0
ARC
  8
_0-0_レイヤ___1
  6
CONTINUOUS
 62
    7
 10
638.31999649999989
 20
9.2525045000000432
 40
23.600000000000001
 50
274.78610900000001
 51
295.121037
  0
LINE
  8
_0-0_レイヤ___1
  6
CONTINUOUS
 62
    7
 10
637.98999649999996
 20
-14.467495499999984
 11
638.18999650000001
 21
-14.467495499999984
  0
ARC
  8
_0-0_レイヤ___1
  6
CONTINUOUS
 62
    7
 10
629.17499750000002
 20
91.312503500000048
 40
106.164998
 50
274.87109400000008
 51
276.00958900000001
  0
ARC
  8
_0-0_レイヤ___1
  6
CONTINUOUS
 62
    7
 10
640.00999649999994
 20
16.337504500000023
 40
30.859999999999999
 50
251.742121
 51
266.62223499999999
  0
ARC
  8
_0-0_レイヤ___1
  6
CONTINUOUS
 62
    7
 10
639.29499650000002
 20
15.047504500000059
 40
29.335000000000001
 50
233.60740500000003
 51
252.736873
  0
ARC
  8
_0-0_レイヤ___1
  6
CONTINUOUS
 62
    7
 10
648.5899965000001
 20
31.257504500000039
 40
47.944999000000003
 50
218.16052199999996
 51
236.161666
  0
ARC
  8
_0-0_レイヤ___1
  6
CONTINUOUS
 62
    7
 10
646.73499650000008
 20
34.947504500000036
 40
48.799999
 50
209.21081600000002
 51
222.73398900000001
  0
ARC
  8
_0-0_レイヤ___1
  6
CONTINUOUS
 62
    7
 10
658.49999649999995
 20
43.267503500000032
 40
63.534998999999999
 50
195.03838099999999
 51
210.38323399999999
  0
LINE
  8
_0-0_レイヤ___1
  6
CONTINUOUS
 62
    7
 10
596.28999750000003
 20
38.882504500000039
 11
596.28999750000003
 21
36.332504500000027
  0
ARC
  8
_0-0_レイヤ___1
  6
CONTINUOUS
 62
    7
 10
634.8399965000001
 20
35.737504500000057
 40
38.554999000000002
 50
179.117019
 51
193.43164899999999
  0
ARC
  8
_0-0_レイヤ___1
  6
CONTINUOUS
 62
    7
 10
625.08999749999998
 20
36.52750450000002
 40
28.895
 50
154.35562899999999
 51
175.325242
  0
ARC
  8
_0-0_レイヤ___1
  6
CONTINUOUS
 62
    7
 10
625.00499749999994
 20
35.52750450000002
 40
29
 50
123.051344
 51
152.68707599999999
  0
ARC
  8
_0-0_レイヤ___1
  6
CONTINUOUS
 62
    7
 10
630.48499749999996
 20
28.587504500000023
 40
37.974998999999997
 50
103.391344
 51
124.10762
  0
LINE
  8
_0-0_レイヤ___1
  6
CONTINUOUS
 62
    7
 10
637.3399965000001
 20
67.432503500000053
 11
636.0899965000001
 21
67.432503500000053
  0
ARC
  8
_0-0_レイヤ___1
  6
CONTINUOUS
 62
    7
 10
635.97999649999997
 20
12.742504500000052
 40
54.689999
 50
89.885304000000019
 51
105.14755800000002
  0
ARC
  8
_0-0_レイヤ___1
  6
CONTINUOUS
 62
    7
 10
626.92499750000002
 20
-187.85749249999998
 40
54.424999
 50
129.59230300000002
 51
145.09915599999999
  0
ARC
  8
_0-0_レイヤ___1
  6
CONTINUOUS
 62
    7
 10
611.52499749999993
 20
-176.21249249999994
 40
35.134999000000001
 50
146.30493000000001
 51
179.278347
  0
LINE
  8
_0-0_レイヤ___1
  6
CONTINUOUS
 62
    7
 10
576.18999749999989
 20
-175.56749249999996
 11
576.18999749999989
 21
-175.7674925
  0
ARC
  8
_0-0_レイヤ___1
  6
CONTINUOUS
 62
    7
 10
610.53499749999992
 20
-175.63749250000001
 40
34.344999000000001
 50
180.21633700000001
 51
212.25574800000001
  0
ARC
  8
_0-0_レイヤ___1
  6
CONTINUOUS
 62
    7
 10
619.24999750000006
 20
-170.93249249999997
 40
43.954999000000001
 50
211.29832400000001
 51
230.331875
  0
ARC
  8
_0-0_レイヤ___1
  6
CONTINUOUS
 62
    7
 10
628.0849975000001
 20
-160.96749249999993
 40
57.109999000000002
 50
230.08140399999999
 51
250.25119900000001
  0
ARC
  8
_0-0_レイヤ___1
  6
CONTINUOUS
 62
    7
 10
637.49499650000007
 20
-141.45249349999995
 40
78.964999000000006
 50
248.48923099999996
 51
270.03299700000002
  0
ARC
  8
_0-0_レイヤ___1
  6
CONTINUOUS
 62
    7
 10
637.79999649999991
 20
-220.3974925
 40
0.26
 50
184.08147199999999
 51
43.843519999999998
  0
LINE
  8
_0-0_レイヤ___1
  6
CONTINUOUS
 62
    7
 10
638.18999650000001
 20
-220.41749249999998
 11
638.38999650000005
 21
-220.41749249999998
  0
ARC
  8
_0-0_レイヤ___1
  6
CONTINUOUS
 62
    7
 10
638.28499650000003
 20
-136.89249349999994
 40
83.524998999999994
 50
270.07330899999999
 51
292.12450699999999
  0
ARC
  8
_0-0_レイヤ___1
  6
CONTINUOUS
 62
    7
 10
647.35499649999997
 20
-158.99749249999996
 40
59.369999
 50
291.943288
 51
311.49513999999999
  0
ARC
  8
_0-0_レイヤ___1
  6
CONTINUOUS
 62
    7
 10
658.53499650000003
 20
-171.11749249999997
 40
42.724998999999997
 50
310.78233
 51
330.01762500000001
  0
ARC
  8
_0-0_レイヤ___1
  6
CONTINUOUS
 62
    7
 10
665.36499649999996
 20
-175.5224925
 40
34.824998999999998
 50
330.88674099999992
 51
359.92672599999997
  0
ARC
  8
_0-0_レイヤ___1
  6
CONTINUOUS
 62
    7
 10
663.0899965000001
 20
-177.0224925
 40
37.374999000000003
 50
1.9259729999999999
 51
35.695056000000008
  0
ARC
  8
_0-0_レイヤ___1
  6
CONTINUOUS
 62
    7
 10
654.02499650000004
 20
-184.08249249999994
 40
49.094999000000001
 50
36.594733999999995
 51
50.290241999999992
  0
ARC
  8
_0-0_レイヤ___1
  6
CONTINUOUS
 62
    7
 10
614.6949975
 20
-173.00249249999996
 40
75.404999000000004
 50
20.359649999999998
 51
38.155141999999998
  0
ARC
  8
_0-0_レイヤ___1
  6
CONTINUOUS
 62
    7
 10
629.12499750000006
 20
-162.2674925
 40
57.554999000000002
 50
38.782916999999991
 51
59.03167899999999
  0
ARC
  8
_0-0_レイヤ___1
  6
CONTINUOUS
 62
    7
 10
637.92999650000002
 20
-147.8924935
 40
40.524999000000001
 50
59.104482999999995
 51
89.918498
  0
ARC
  8
_0-0_レイヤ___1
  6
CONTINUOUS
 62
    7
 10
638.20499649999988
 20
-146.30249349999997
 40
38.934998999999998
 50
90.021033000000017
 51
119.656446
  0
ARC
  8
_0-0_レイヤ___1
  6
CONTINUOUS
 62
    7
 10
645.48499650000008
 20
-159.73749249999997
 40
54.209999000000003
 50
119.31637899999998
 51
140.107248
  0
ARC
  8
_0-0_レイヤ___1
  6
CONTINUOUS
 62
    7
 10
658.47499650000009
 20
-169.1474925
 40
70.379998999999998
 50
141.116714
 51
160.72761400000002
  0
ARC
  8
_0-0_レイヤ___1
  6
CONTINUOUS
 62
    7
 10
608.35499750000008
 20
-175.45249249999995
 40
29.02
 50
145.506167
 51
180.62520000000001
  0
ARC
  8
_0-0_レイヤ___1
  6
CONTINUOUS
 62
    7
 10
623.49499749999995
 20
-185.05749249999997
 40
47.109999000000002
 50
128.16073700000001
 51
146.44209000000001
  0
LINE
  8
_0-0_レイヤ___1
  6
CONTINUOUS
 62
    7
 10
594.58999749999998
 20
-148.0174935
 11
594.98999750000007
 21
-147.81749349999996
  0
LINE
  8
_0-0_レイヤ___1
  6
CONTINUOUS
 62
    7
 10
594.98999750000007
 20
-147.81749349999996
 11
594.98999750000007
 21
-147.41749349999998
  0
ARC
  8
_0-0_レイヤ___1
  6
CONTINUOUS
 62
    7
 10
657.42499649999991
 20
-169.18249249999997
 40
66.119999000000007
 50
135.77928899999998
 51
160.782759
  0
ARC
  8
_0-0_レイヤ___1
  6
CONTINUOUS
 62
    7
 10
641.96999649999998
 20
-153.88249349999995
 40
44.234999000000002
 50
112.15670799999999
 51
128.370396
  0
ARC
  8
_0-0_レイヤ___1
  6
CONTINUOUS
 62
    7
 10
649.45999649999999
 20
-164.20749249999994
 40
56.979998999999999
 50
127.82797000000001
 51
133.774677
  0
ARC
  8
_0-0_レイヤ___1
  6
CONTINUOUS
 62
    7
 10
637.9649965000001
 20
-144.15749349999999
 40
33.789999000000002
 50
89.961246000000003
 51
112.40224000000001
  0
ARC
  8
_0-0_レイヤ___1
  6
CONTINUOUS
 62
    7
 10
638.61499649999996
 20
-147.11249349999997
 40
36.549999
 50
59.36089299999999
 51
90.663967
  0
LINE
  8
_0-0_レイヤ___1
  6
CONTINUOUS
 62
    7
 10
638.18999650000001
 20
-110.56749349999996
 11
637.98999649999996
 21
-110.56749349999996
  0
ARC
  8
_0-0_レイヤ___1
  6
CONTINUOUS
 62
    7
 10
630.38999749999994
 20
-161.30249249999997
 40
52.944999000000003
 50
43.035195999999992
 51
59.527343999999992
  0
ARC
  8
_0-0_レイヤ___1
  6
CONTINUOUS
 62
    7
 10
611.27499749999993
 20
-175.2674925
 40
76.349998999999997
 50
25.233792000000001
 51
41.008800000000008
  0
LINE
  8
_0-0_レイヤ___1
  6
CONTINUOUS
 62
    7
 10
680.3399965000001
 20
-142.96749349999993
 11
682.63999650000005
 21
-148.0174935
  0
LINE
  8
_0-0_レイヤ___1
  6
CONTINUOUS
 62
    7
 10
682.63999650000005
 20
-148.0174935
 11
682.63999650000005
 21
-148.46749349999993
  0
LINE
  8
_0-0_レイヤ___1
  6
CONTINUOUS
 62
    7
 10
682.63999650000005
 20
-148.46749349999993
 11
683.0899965000001
 21
-148.66749349999998
  0
ARC
  8
_0-0_レイヤ___1
  6
CONTINUOUS
 62
    7
 10
655.03999649999992
 20
-183.69749249999995
 40
44.874999000000003
 50
33.670696
 51
51.725078000000003
  0
ARC
  8
_0-0_レイヤ___1
  6
CONTINUOUS
 62
    7
 10
664.89499649999993
 20
-175.85249249999993
 40
32.344999999999999
 50
0.15342
 51
31.782008000000001
  0
ARC
  8
_0-0_レイヤ___1
  6
CONTINUOUS
 62
    7
 10
667.4649965000001
 20
-175.46249249999994
 40
29.975000000000001
 50
329.29807299999999
 51
359.41743700000001
  0
LINE
  8
_0-0_レイヤ___1
  6
CONTINUOUS
 62
    7
 10
697.43999650000001
 20
-175.7674925
 11
697.43999650000001
 21
-175.56749249999996
  0
ARC
  8
_0-0_レイヤ___1
  6
CONTINUOUS
 62
    7
 10
658.37999650000006
 20
-171.05249249999997
 40
40.169998999999997
 50
311.00901900000002
 51
330.20147500000002
  0
ARC
  8
_0-0_レイヤ___1
  6
CONTINUOUS
 62
    7
 10
648.38999650000005
 20
-160.36249249999997
 40
54.664999000000002
 50
291.79766000000001
 51
311.39718699999997
  0
ARC
  8
_0-0_レイヤ___1
  6
CONTINUOUS
 62
    7
 10
638.28999649999992
 20
-217.06249249999996
 40
0.11
 50
25.033380999999995
 51
224.12871799999999
  0
ARC
  8
_0-0_レイヤ___1
  6
CONTINUOUS
 62
    7
 10
639.24499650000007
 20
-213.17749249999997
 40
4.0949999999999998
 50
255.38429199999996
 51
272.71193699999998
  0
ARC
  8
_0-0_レイヤ___1
  6
CONTINUOUS
 62
    7
 10
639.27999649999992
 20
-142.91249349999998
 40
74.354999000000007
 50
270.12352399999992
 51
293.46744899999993
  0
ARC
  8
_0-0_レイヤ___1
  6
CONTINUOUS
 62
    7
 10
638.54499650000002
 20
-136.80749349999996
 40
80.459998999999996
 50
247.451427
 51
269.74815799999999
  0
ARC
  8
_0-0_レイヤ___1
  6
CONTINUOUS
 62
    7
 10
626.86999749999995
 20
-162.6474925
 40
52.199998999999998
 50
227.55431100000001
 51
248.20777899999999
  0
ARC
  8
_0-0_レイヤ___1
  6
CONTINUOUS
 62
    7
 10
621.91499750000003
 20
-168.09749249999993
 40
44.699998999999998
 50
210.47348600000001
 51
227.71426299999999
  0
ARC
  8
_0-0_レイヤ___1
  6
CONTINUOUS
 62
    7
 10
610.92499750000002
 20
-175.54749249999998
 40
31.585000000000001
 50
180.03601900000001
 51
208.395725
  0
ARC
  8
_0-0_レイヤ___1
  6
CONTINUOUS
 62
    7
 10
562.12499849999995
 20
-153.74749349999996
 40
2.895
 50
158.12575899999999
 51
184.38191800000001
  0
ARC
  8
_0-0_レイヤ___1
  6
CONTINUOUS
 62
    7
 10
561.35999850000007
 20
-154.03749349999998
 40
2.1200000000000001
 50
178.15759
 51
239.695255
  0
LINE
  8
_0-0_レイヤ___1
  6
CONTINUOUS
 62
    7
 10
560.48999849999996
 20
-156.2674935
 11
577.03999750000003
 21
-165.81749249999996
  0
ARC
  8
_0-0_レイヤ___1
  6
CONTINUOUS
 62
    7
 10
577.93499750000001
 20
-164.18749249999996
 40
1.835
 50
231.397604
 51
268.63620700000001
  0
LINE
  8
_0-0_レイヤ___1
  6
CONTINUOUS
 62
    7
 10
577.88999749999994
 20
-166.0174925
 11
578.08999749999998
 21
-165.81749249999996
  0
LINE
  8
_0-0_レイヤ___1
  6
CONTINUOUS
 62
    7
 10
578.28999750000003
 20
-166.0174925
 11
578.93999749999989
 21
-165.61749249999997
  0
ARC
  8
_0-0_レイヤ___1
  6
CONTINUOUS
 62
    7
 10
576.83999749999998
 20
-163.99249249999997
 40
2.5049999999999999
 50
319.45567100000005
 51
1.6642640000000459
  0
ARC
  8
_0-0_レイヤ___1
  6
CONTINUOUS
 62
    7
 10
597.66999749999991
 20
-167.09249249999993
 40
18.370000000000001
 50
166.70168699999999
 51
170.67841100000001
  0
ARC
  8
_0-0_レイヤ___1
  6
CONTINUOUS
 62
    7
 10
576.8049974999999
 20
-162.94749249999995
 40
2.9849999999999999
 50
1.494524
 51
31.903961000000002
  0
LINE
  8
_0-0_レイヤ___1
  6
CONTINUOUS
 62
    7
 10
579.53999750000003
 20
-161.56749249999996
 11
562.83999850000009
 21
-151.86749349999997
  0
ARC
  8
_0-0_レイヤ___1
  6
CONTINUOUS
 62
    7
 10
561.96499850000009
 20
-152.59749349999993
 40
0.995
 50
47.232945000000001
 51
99.987958000000006
  0
ARC
  8
_0-0_レイヤ___1
  6
CONTINUOUS
 62
    7
 10
561.73499850000007
 20
-154.29249349999998
 40
2.6749999999999998
 50
88.809601999999998
 51
149.09236200000001
  0
LINE
  8
_0-0_レイヤ___1
  6
CONTINUOUS
 62
    7
 10
852.58999349999999
 20
-73.317494499999952
 11
696.38999650000005
 21
-163.06749249999996
  0
LINE
  8
_0-0_レイヤ___1
  6
CONTINUOUS
 62
    7
 10
696.38999650000005
 20
-163.06749249999996
 11
697.23999649999996
 21
-163.06749249999996
  0
LINE
  8
_0-0_レイヤ___1
  6
CONTINUOUS
 62
    7
 10
697.23999649999996
 20
-165.16749249999998
 11
697.23999649999996
 21
-163.06749249999996
  0
LINE
  8
_0-0_レイヤ___1
  6
CONTINUOUS
 62
    7
 10
697.23999649999996
 20
-165.16749249999998
 11
699.38999549999994
 21
-167.91749249999998
  0
LINE
  8
_0-0_レイヤ___1
  6
CONTINUOUS
 62
    7
 10
699.38999549999994
 20
-167.91749249999998
 11
860.4399934999999
 21
-75.217494499999987
  0
ARC
  8
_0-0_レイヤ___1
  6
CONTINUOUS
 62
    7
 10
920.86999250000008
 20
-80.182494499999962
 40
16.234999999999999
 50
125.51664900000002
 51
129.29403600000001
  0
LINE
  8
_0-0_レイヤ___1
  6
CONTINUOUS
 62
    7
 10
912.28999249999993
 20
-67.167494499999975
 11
911.88999250000006
 21
-67.167494499999975
  0
LINE
  8
_0-0_レイヤ___1
  6
CONTINUOUS
 62
    7
 10
911.88999250000006
 20
-67.167494499999975
 11
911.43999250000002
 21
-67.167494499999975
  0
ARC
  8
_0-0_レイヤ___1
  6
CONTINUOUS
 62
    7
 10
909.29999249999992
 20
-68.877494499999955
 40
3.665
 50
6.3969470000000008
 51
20.08409
  0
LINE
  8
_0-0_レイヤ___1
  6
CONTINUOUS
 62
    7
 10
912.93999250000002
 20
-68.467494499999987
 11
913.33999249999988
 21
-70.767494499999941
  0
LINE
  8
_0-0_レイヤ___1
  6
CONTINUOUS
 62
    7
 10
913.33999249999988
 20
-70.767494499999941
 11
911.68999250000002
 21
-70.117494499999964
  0
LINE
  8
_0-0_レイヤ___1
  6
CONTINUOUS
 62
    7
 10
911.68999250000002
 20
-70.117494499999964
 11
911.68999250000002
 21
-68.217494499999987
  0
LINE
  8
_0-0_レイヤ___1
  6
CONTINUOUS
 62
    7
 10
911.68999250000002
 20
-68.217494499999987
 11
910.58999249999988
 21
-67.817494499999952
  0
LINE
  8
_0-0_レイヤ___1
  6
CONTINUOUS
 62
    7
 10
914.63999250000006
 20
-19.767495499999939
 11
916.93999250000002
 21
-21.467495499999984
  0
ARC
  8
_0-0_レイヤ___1
  6
CONTINUOUS
 62
    7
 10
916.1949924999999
 20
-23.182495499999959
 40
1.8100000000000001
 50
28.430082999999996
 51
54.836987000000001
  0
ARC
  8
_0-0_レイヤ___1
  6
CONTINUOUS
 62
    7
 10
914.46999249999999
 20
-25.407494499999984
 40
4.6299999999999999
 50
53.270325999999997
 51
63.457589000000006
  0
LINE
  8
_0-0_レイヤ___1
  6
CONTINUOUS
 62
    7
 10
918.03999249999993
 20
-22.31749549999995
 11
919.93999250000002
 21
-24.417495499999973
  0
LINE
  8
_0-0_レイヤ___1
  6
CONTINUOUS
 62
    7
 10
919.93999250000002
 20
-24.417495499999973
 11
922.48999249999997
 21
-27.617494499999964
  0
LINE
  8
_0-0_レイヤ___1
  6
CONTINUOUS
 62
    7
 10
922.48999249999997
 20
-27.617494499999964
 11
925.23999249999997
 21
-31.417494499999975
  0
ARC
  8
_0-0_レイヤ___1
  6
CONTINUOUS
 62
    7
 10
906.91999250000003
 20
-44.247494499999959
 40
22.309999999999999
 50
7.4167459999999998
 51
35.895228000000003
  0
ARC
  8
_0-0_レイヤ___1
  6
CONTINUOUS
 62
    7
 10
909.54499250000003
 20
-43.557494499999962
 40
19.699999999999999
 50
339.458259
 51
359.09284600000001
  0
ARC
  8
_0-0_レイヤ___1
  6
CONTINUOUS
 62
    7
 10
853.47999350000009
 20
-48.672494499999971
 40
75.914998999999995
 50
3.6274290000000002
 51
5.5204120000000003
  0
ARC
  8
_0-0_レイヤ___1
  6
CONTINUOUS
 62
    7
 10
900.73499250000009
 20
-42.077494499999943
 40
28.460000000000001
 50
325.32679300000001
 51
343.27484099999998
  0
ARC
  8
_0-0_レイヤ___1
  6
CONTINUOUS
 62
    7
 10
899.8299935
 20
-44.852494499999978
 40
27.594999999999999
 50
315.431128
 51
322.56851799999998
  0
ARC
  8
_0-0_レイヤ___1
  6
CONTINUOUS
 62
    7
 10
881.75499349999996
 20
-31.032494499999984
 40
50.349998999999997
 50
322.58192799999995
 51
326.91325899999998
  0
LINE
  8
_0-0_レイヤ___1
  6
CONTINUOUS
 62
    7
 10
919.68999250000002
 20
-64.417494499999975
 11
916.53999249999993
 21
-67.617494499999964
  0
LINE
  8
_0-0_レイヤ___1
  6
CONTINUOUS
 62
    7
 10
916.53999249999993
 20
-67.617494499999964
 11
913.33999249999988
 21
-70.767494499999941
  0
LINE
  8
_0-0_レイヤ___1
  6
CONTINUOUS
 62
    7
 10
913.33999249999988
 20
-70.567494499999952
 11
912.73999249999997
 21
-67.817494499999952
  0
ARC
  8
_0-0_レイヤ___1
  6
CONTINUOUS
 62
    7
 10
911.40499249999993
 20
-68.077494499999943
 40
1.1399999999999999
 50
2.9065780000000001
 51
52.887957999999998
  0
LINE
  8
_0-0_レイヤ___1
  6
CONTINUOUS
 62
    7
 10
912.08999249999988
 20
-67.167494499999975
 11
911.88999250000006
 21
-67.167494499999975
  0
LINE
  8
_0-0_レイヤ___1
  6
CONTINUOUS
 62
    7
 10
911.88999250000006
 20
-67.167494499999975
 11
911.68999250000002
 21
-67.167494499999975
  0
LINE
  8
_0-0_レイヤ___1
  6
CONTINUOUS
 62
    7
 10
911.68999250000002
 20
-66.967494499999987
 11
911.03999249999993
 21
-66.967494499999987
  0
LINE
  8
_0-0_レイヤ___1
  6
CONTINUOUS
 62
    7
 10
911.03999249999993
 20
-67.167494499999975
 11
910.58999249999988
 21
-67.617494499999964
  0
ARC
  8
_0-0_レイヤ___1
  6
CONTINUOUS
 62
    7
 10
876.86499350000008
 20
-25.512494499999946
 40
54.099998999999997
 50
308.56382200000007
 51
324.64819399999999
  0
ARC
  8
_0-0_レイヤ___1
  6
CONTINUOUS
 62
    7
 10
896.69499350000001
 20
-40.522494499999993
 40
29.09
 50
325.92879399999998
 51
343.53193399999998
  0
ARC
  8
_0-0_レイヤ___1
  6
CONTINUOUS
 62
    7
 10
900.87999250000007
 20
-42.28749449999998
 40
24.77
 50
344.83827000000002
 51
358.19851999999997
  0
ARC
  8
_0-0_レイヤ___1
  6
CONTINUOUS
 62
    7
 10
905.15999250000004
 20
-43.057494499999962
 40
20.48
 50
359.971791
 51
37.584270999999987
  0
ARC
  8
_0-0_レイヤ___1
  6
CONTINUOUS
 62
    7
 10
882.31999350000001
 20
-56.402494499999989
 40
46.669998999999997
 50
33.609178
 51
45.056241999999997
  0
ARC
  8
_0-0_レイヤ___1
  6
CONTINUOUS
 62
    7
 10
910.06499250000002
 20
-27.317494499999952
 40
6.4349999999999996
 50
35.650043000000004
 51
65.405026000000007
  0
LINE
  8
_0-0_レイヤ___1
  6
CONTINUOUS
 62
    7
 10
913.13999250000006
 20
-21.467495499999984
 11
910.83999249999988
 21
-20.167495499999973
  0
ARC
  8
_0-0_レイヤ___1
  6
CONTINUOUS
 62
    7
 10
912.75499250000007
 20
-20.312495499999955
 40
1.8100000000000001
 50
118.43007299999999
 51
144.83697699999999
  0
ARC
  8
_0-0_レイヤ___1
  6
CONTINUOUS
 62
    7
 10
914.97999249999998
 20
-22.037495499999977
 40
4.6299999999999999
 50
143.27031600000001
 51
153.45757899999998
  0
LINE
  8
_0-0_レイヤ___1
  6
CONTINUOUS
 62
    7
 10
912.08999249999988
 20
-18.717495499999984
 11
911.88999250000006
 21
-18.717495499999984
  0
ARC
  8
_0-0_レイヤ___1
  6
CONTINUOUS
 62
    7
 10
912.5999925000001
 20
-19.612495499999966
 40
0.88
 50
52.08586300000001
 51
89.098327000000012
  0
ARC
  8
_0-0_レイヤ___1
  6
CONTINUOUS
 62
    7
 10
912.27499250000005
 20
-21.547495499999968
 40
2.8399999999999999
 50
83.159105999999994
 51
93.728523999999993
  0
ARC
  8
_0-0_レイヤ___1
  6
CONTINUOUS
 62
    7
 10
912.26499250000006
 20
-21.502495499999952
 40
2.73
 50
45.15664499999999
 51
71.324381999999986
  0
LINE
  8
_0-0_レイヤ___1
  6
CONTINUOUS
 62
    7
 10
416.39000049999999
 20
156.13250249999999
 11
581.68999749999989
 21
251.83250050000004
  0
LINE
  8
_0-0_レイヤ___1
  6
CONTINUOUS
 62
    7
 10
615.73999750000007
 20
276.58250050000004
 11
581.48999750000007
 21
256.68250050000006
  0
LINE
  8
_0-0_レイヤ___1
  6
CONTINUOUS
 62
    7
 10
581.48999750000007
 20
256.68250050000006
 11
616.83999749999998
 21
195.28250150000008
  0
LINE
  8
_0-0_レイヤ___1
  6
CONTINUOUS
 62
    7
 10
825.0899945000001
 20
180.88250149999999
 11
657.68999650000001
 21
279.13250049999999
  0
LINE
  8
_0-0_レイヤ___1
  6
CONTINUOUS
 62
    7
 10
862.53999350000004
 20
9.2325045000000614
 11
863.1899934999999
 21
104.48250350000001
  0
LINE
  8
_0-0_レイヤ___1
  6
CONTINUOUS
 62
    7
 10
616.83999749999998
 20
191.28250150000008
 11
582.28999750000003
 21
252.03250050000008
  0
LINE
  8
_0-0_レイヤ___1
  6
CONTINUOUS
 62
    7
 10
582.28999750000003
 20
252.03250050000008
 11
579.78999750000003
 21
250.73250050000001
  0
LINE
  8
_0-0_レイヤ___1
  6
CONTINUOUS
 62
    7
 10
579.78999750000003
 20
250.73250050000001
 11
581.03999750000003
 21
256.48250050000001
  0
LINE
  8
_0-0_レイヤ___1
  6
CONTINUOUS
 62
    7
 10
819.78999449999992
 20
131.78250250000008
 11
698.0899965000001
 21
62.58250350000003
  0
ARC
  8
_0-0_レイヤ___1
  6
CONTINUOUS
 62
    7
 10
890.60499350000009
 20
-44.387494499999946
 40
59.829999000000001
 50
117.70211999999999
 51
143.93527700000001
  0
ARC
  8
_0-0_レイヤ___1
  6
CONTINUOUS
 62
    7
 10
864.00499349999996
 20
-25.902494499999989
 40
27.335000000000001
 50
142.77653799999999
 51
158.12310100000002
  0
ARC
  8
_0-0_レイヤ___1
  6
CONTINUOUS
 62
    7
 10
895.71499349999999
 20
-38.517494499999941
 40
61.644998999999999
 50
158.29334300000002
 51
169.81582900000001
  0
ARC
  8
_0-0_レイヤ___1
  6
CONTINUOUS
 62
    7
 10
906.35499249999998
 20
-42.077494499999943
 40
72.814999
 50
168.34703400000001
 51
180.269476
  0
LINE
  8
_0-0_レイヤ___1
  6
CONTINUOUS
 62
    7
 10
833.53999350000004
 20
-42.417494499999975
 11
833.53999350000004
 21
-45.817494499999952
  0
ARC
  8
_0-0_レイヤ___1
  6
CONTINUOUS
 62
    7
 10
972.61999149999997
 20
-45.687494499999957
 40
139.07999799999999
 50
180.054059
 51
185.54186799999999
  0
LINE
  8
_0-0_レイヤ___1
  6
CONTINUOUS
 62
    7
 10
834.38999349999995
 20
-59.367494499999964
 11
834.1899934999999
 21
-59.567494499999952
  0
LINE
  8
_0-0_レイヤ___1
  6
CONTINUOUS
 62
    7
 10
834.1899934999999
 20
-59.117494499999964
 11
834.1899934999999
 21
-59.367494499999964
  0
LINE
  8
_0-0_レイヤ___1
  6
CONTINUOUS
 62
    7
 10
834.1899934999999
 20
-59.367494499999964
 11
834.1899934999999
 21
-60.167494499999975
  0
ARC
  8
_0-0_レイヤ___1
  6
CONTINUOUS
 62
    7
 10
836.4699935000001
 20
-59.447494499999948
 40
2.29
 50
204.98335699999998
 51
255.405529
  0
ARC
  8
_0-0_レイヤ___1
  6
CONTINUOUS
 62
    7
 10
860.65499350000005
 20
-35.072494499999948
 40
36.339998999999999
 50
227.042993
 51
239.92024700000002
  0
ARC
  8
_0-0_レイヤ___1
  6
CONTINUOUS
 62
    7
 10
879.89999349999994
 20
-9.5724954999999454
 40
68.159998999999999
 50
236.661226
 51
251.38244900000001
  0
ARC
  8
_0-0_レイヤ___1
  6
CONTINUOUS
 62
    7
 10
871.15999349999993
 20
-39.582494499999939
 40
36.949998999999998
 50
249.36897599999998
 51
266.477934
  0
ARC
  8
_0-0_レイヤ___1
  6
CONTINUOUS
 62
    7
 10
879.98999350000008
 20
21.067504500000041
 40
98.384998999999993
 50
263.66842100000002
 51
270.08733899999999
  0
ARC
  8
_0-0_レイヤ___1
  6
CONTINUOUS
 62
    7
 10
856.08499349999988
 20
756.95249349999995
 40
834.61998800000003
 50
271.65142300000002
 51
272.07383800000002
  0
ARC
  8
_0-0_レイヤ___1
  6
CONTINUOUS
 62
    7
 10
884.01499349999995
 20
-22.467495499999984
 40
54.694999000000003
 50
272.38429000000002
 51
286.10795400000001
  0
ARC
  8
_0-0_レイヤ___1
  6
CONTINUOUS
 62
    7
 10
880.71499349999999
 20
-11.657495499999982
 40
65.944998999999996
 50
286.08896199999998
 51
292.30198899999999
  0
ARC
  8
_0-0_レイヤ___1
  6
CONTINUOUS
 62
    7
 10
898.8149934999999
 20
-55.077494499999943
 40
18.98
 50
292.048543
 51
307.57979599999999
  0
LINE
  8
_0-0_レイヤ___1
  6
CONTINUOUS
 62
    7
 10
889.88999349999995
 20
-8.56749549999995
 11
864.88999349999995
 21
5.8325045000000273
  0
ARC
  8
_0-0_レイヤ___1
  6
CONTINUOUS
 62
    7
 10
900.70499249999989
 20
-28.492494499999964
 40
14.08
 50
43.958449999999999
 51
53.194208000000003
  0
ARC
  8
_0-0_レイヤ___1
  6
CONTINUOUS
 62
    7
 10
890.32499349999989
 20
-37.75749449999995
 40
27.574999999999999
 50
47.534582999999998
 51
70.802943999999997
  0
ARC
  8
_0-0_レイヤ___1
  6
CONTINUOUS
 62
    7
 10
886.48499349999997
 20
-45.967494499999987
 40
36.599998999999997
 50
69.354380000000006
 51
89.678804
  0
LINE
  8
_0-0_レイヤ___1
  6
CONTINUOUS
 62
    7
 10
886.6899934999999
 20
-9.3674954999999613
 11
885.1899934999999
 21
-9.3674954999999613
  0
ARC
  8
_0-0_レイヤ___1
  6
CONTINUOUS
 62
    7
 10
883.73499349999997
 20
-53.237494499999968
 40
43.894998999999999
 50
88.103245999999999
 51
96.405883000000003
  0
ARC
  8
_0-0_レイヤ___1
  6
CONTINUOUS
 62
    7
 10
882.90999349999993
 20
-56.767494499999941
 40
47.124999000000003
 50
94.957008000000002
 51
105.73681399999998
  0
ARC
  8
_0-0_レイヤ___1
  6
CONTINUOUS
 62
    7
 10
888.51499349999995
 20
-78.407494499999984
 40
69.474998999999997
 50
105.345831
 51
110.232741
  0
LINE
  8
_0-0_レイヤ___1
  6
CONTINUOUS
 62
    7
 10
864.6899934999999
 20
-13.217495499999984
 11
864.6899934999999
 21
8.5825045000000273
  0
LINE
  8
_0-0_レイヤ___1
  6
CONTINUOUS
 62
    7
 10
864.6899934999999
 20
8.5825045000000273
 11
861.73999350000008
 21
6.93250450000005
  0
ARC
  8
_0-0_レイヤ___1
  6
CONTINUOUS
 62
    7
 10
896.77499349999994
 20
-47.152494499999989
 40
64.574999000000005
 50
123.120514
 51
147.61874700000001
  0
ARC
  8
_0-0_レイヤ___1
  6
CONTINUOUS
 62
    7
 10
874.93499350000002
 20
-33.377494499999955
 40
38.924999
 50
147.68003499999998
 51
153.77279699999997
  0
ARC
  8
_0-0_レイヤ___1
  6
CONTINUOUS
 62
    7
 10
928.23499250000009
 20
-59.262494499999946
 40
98.179998999999995
 50
153.96889300000001
 51
156.15147300000001
  0
ARC
  8
_0-0_レイヤ___1
  6
CONTINUOUS
 62
    7
 10
882.03499349999993
 20
-35.437494499999957
 40
46.329999000000001
 50
160.22767300000001
 51
170.53054300000002
  0
ARC
  8
_0-0_レイヤ___1
  6
CONTINUOUS
 62
    7
 10
893.47499349999998
 20
-41.027494499999989
 40
58.639999000000003
 50
166.98024899999999
 51
180.91743500000001
  0
LINE
  8
_0-0_レイヤ___1
  6
CONTINUOUS
 62
    7
 10
834.83999349999999
 20
-42.217494499999987
 11
834.83999349999999
 21
-46.017494499999941
  0
ARC
  8
_0-0_レイヤ___1
  6
CONTINUOUS
 62
    7
 10
950.25499250000007
 20
-46.282494499999984
 40
115.414998
 50
179.86830999999998
 51
186.08508799999998
  0
LINE
  8
_0-0_レイヤ___1
  6
CONTINUOUS
 62
    7
 10
835.48999350000008
 20
-58.917494499999975
 11
835.48999350000008
 21
-59.117494499999964
  0
LINE
  8
_0-0_レイヤ___1
  6
CONTINUOUS
 62
    7
 10
835.48999350000008
 20
-58.917494499999975
 11
835.48999350000008
 21
-59.117494499999964
  0
LINE
  8
_0-0_レイヤ___1
  6
CONTINUOUS
 62
    7
 10
835.48999350000008
 20
-59.117494499999964
 11
835.48999350000008
 21
-59.367494499999964
  0
LINE
  8
_0-0_レイヤ___1
  6
CONTINUOUS
 62
    7
 10
835.03999350000004
 20
-59.117494499999964
 11
835.48999350000008
 21
-59.767494499999941
  0
ARC
  8
_0-0_レイヤ___1
  6
CONTINUOUS
 62
    7
 10
837.03499349999993
 20
-59.452494499999943
 40
1.6299999999999999
 50
198.39176800000001
 51
228.00348400000001
  0
ARC
  8
_0-0_レイヤ___1
  6
CONTINUOUS
 62
    7
 10
838.11499350000008
 20
-58.207494499999939
 40
3.2749999999999999
 50
228.52444
 51
248.97083900000001
  0
LINE
  8
_0-0_レイヤ___1
  6
CONTINUOUS
 62
    7
 10
837.13999349999995
 20
-61.267494499999941
 11
839.88999349999995
 21
-63.567494499999952
  0
ARC
  8
_0-0_レイヤ___1
  6
CONTINUOUS
 62
    7
 10
880.03499349999993
 20
-8.2874954999999773
 40
68.434999000000005
 50
233.87712099999999
 51
255.57863100000003
  0
ARC
  8
_0-0_レイヤ___1
  6
CONTINUOUS
 62
    7
 10
873.79999350000003
 20
-31.75749449999995
 40
43.959999000000003
 50
255.76499000000001
 51
266.13988699999999
  0
ARC
  8
_0-0_レイヤ___1
  6
CONTINUOUS
 62
    7
 10
879.42499350000003
 20
15.752504500000043
 40
92.219999000000001
 50
264.65753599999999
 51
269.79087800000002
  0
ARC
  8
_0-0_レイヤ___1
  6
CONTINUOUS
 62
    7
 10
878.68499350000002
 20
6.0325045000000159
 40
82.499999000000003
 50
270.28125499999999
 51
280.76163700000001
  0
ARC
  8
_0-0_レイヤ___1
  6
CONTINUOUS
 62
    7
 10
881.03999350000004
 20
-14.577495499999941
 40
61.594999000000001
 50
282.04310800000007
 51
296.46706300000005
  0
LINE
  8
_0-0_レイヤ___1
  6
CONTINUOUS
 62
    7
 10
908.68999250000002
 20
-69.917494499999975
 11
910.58999249999988
 21
-68.667494499999975
  0
LINE
  8
_0-0_レイヤ___1
  6
CONTINUOUS
 62
    7
 10
864.48999350000008
 20
-37.117494499999964
 11
864.48999350000008
 21
8.3825045000000387
  0
LINE
  8
_0-0_レイヤ___1
  6
CONTINUOUS
 62
    7
 10
617.03999750000003
 20
154.63250249999999
 11
617.03999750000003
 21
344.08249950000004
  0
LINE
  8
_0-0_レイヤ___1
  6
CONTINUOUS
 62
    7
 10
617.03999750000003
 20
154.88250249999999
 11
617.03999750000003
 21
154.63250249999999
  0
ARC
  8
_0-0_レイヤ___1
  6
CONTINUOUS
 62
    7
 10
624.69999749999988
 20
154.62750249999999
 40
7.6600000000000001
 50
179.94988900000001
 51
213.19812300000001
  0
ARC
  8
_0-0_レイヤ___1
  6
CONTINUOUS
 62
    7
 10
627.32999749999999
 20
155.60750250000001
 40
10.244999999999999
 50
210.34595100000001
 51
230.68486799999999
  0
ARC
  8
_0-0_レイヤ___1
  6
CONTINUOUS
 62
    7
 10
557.99499850000007
 20
47.542503500000009
 40
118.159998
 50
56.774031999999991
 51
58.125947999999994
  0
ARC
  8
_0-0_レイヤ___1
  6
CONTINUOUS
 62
    7
 10
634.32999649999988
 20
166.26250249999998
 40
23.184999999999999
 50
240.00082699999996
 51
255.365163
  0
ARC
  8
_0-0_レイヤ___1
  6
CONTINUOUS
 62
    7
 10
643.97999649999997
 20
199.25250149999999
 40
57.549999
 50
254.37111700000003
 51
256.75201499999997
  0
ARC
  8
_0-0_レイヤ___1
  6
CONTINUOUS
 62
    7
 10
637.11499649999996
 20
166.63250249999999
 40
23.855
 50
254.62421799999998
 51
271.02131199999997
  0
ARC
  8
_0-0_レイヤ___1
  6
CONTINUOUS
 62
    7
 10
637.48499650000008
 20
174.73250250000001
 40
31.949999999999999
 50
270.09575699999999
 51
289.85968500000001
  0
ARC
  8
_0-0_レイヤ___1
  6
CONTINUOUS
 62
    7
 10
643.87999650000006
 20
159.19250250000005
 40
15.369999999999999
 50
286.86215600000003
 51
300.74974500000008
  0
LINE
  8
_0-0_レイヤ___1
  6
CONTINUOUS
 62
    7
 10
658.48999649999996
 20
174.53250250000008
 11
658.48999649999996
 21
344.28249950000009
  0
LINE
  8
_0-0_レイヤ___1
  6
CONTINUOUS
 62
    7
 10
644.13999650000005
 20
-170.06749249999996
 11
679.68999650000001
 21
-149.71749349999993
  0
LINE
  8
_0-0_レイヤ___1
  6
CONTINUOUS
 62
    7
 10
596.93999749999989
 20
-148.2674935
 11
634.5899965000001
 21
-169.81749249999996
  0
LINE
  8
_0-0_レイヤ___1
  6
CONTINUOUS
 62
    7
 10
569.58999749999998
 20
-132.56749349999996
 11
595.23999750000007
 21
-147.16749349999998
  0
LINE
  8
_0-0_レイヤ___1
  6
CONTINUOUS
 62
    7
 10
597.33999749999998
 20
51.382503500000041
 11
417.1900005
 21
155.48250250000001
  0
LINE
  8
_0-0_レイヤ___1
  6
CONTINUOUS
 62
    7
 10
417.1900005
 20
155.48250250000001
 11
416.59000049999997
 21
-43.467494499999987
  0
LINE
  8
_0-0_レイヤ___1
  6
CONTINUOUS
 62
    7
 10
416.59000049999997
 20
-43.467494499999987
 11
533.1899985
 21
-111.61749349999997
  0
LINE
  8
_0-0_レイヤ___1
  6
CONTINUOUS
 62
    7
 10
632.03999649999992
 20
31.232504500000061
 11
601.58999749999998
 21
48.83250350000003
  0
LINE
  8
_0-0_レイヤ___1
  6
CONTINUOUS
 62
    7
 10
674.18999650000001
 20
48.58250350000003
 11
642.63999650000005
 21
30.382504500000039
  0
LINE
  8
_0-0_レイヤ___1
  6
CONTINUOUS
 62
    7
 10
691.93999650000001
 20
58.982503500000007
 11
677.13999650000005
 21
50.282503500000018
  0
LINE
  8
_0-0_レイヤ___1
  6
CONTINUOUS
 62
    7
 10
838.23999350000008
 20
118.23250250000001
 11
834.63999349999995
 21
112.73250250000001
  0
LINE
  8
_0-0_レイヤ___1
  6
CONTINUOUS
 62
    7
 10
834.63999349999995
 20
-5.56749549999995
 11
834.63999349999995
 21
112.73250250000001
  0
LINE
  8
_0-0_レイヤ___1
  6
CONTINUOUS
 62
    7
 10
834.63999349999995
 20
-5.56749549999995
 11
838.63999349999995
 21
-15.717495499999984
  0
LINE
  8
_0-0_レイヤ___1
  6
CONTINUOUS
 62
    7
 10
416.59000049999997
 20
-1.1174954999999613
 11
347.14000149999998
 21
-42.617494499999964
  0
LINE
  8
_0-0_レイヤ___1
  6
CONTINUOUS
 62
    7
 10
347.14000149999998
 20
-42.617494499999964
 11
347.99000150000001
 21
-42.617494499999964
  0
LINE
  8
_0-0_レイヤ___1
  6
CONTINUOUS
 62
    7
 10
347.99000150000001
 20
-42.617494499999964
 11
377.4400005
 21
-59.767494499999941
  0
LINE
  8
_0-0_レイヤ___1
  6
CONTINUOUS
 62
    7
 10
376.34000049999997
 20
-61.467494499999987
 11
381.04000049999996
 21
-64.867494499999964
  0
ARC
  8
_0-0_レイヤ___1
  6
CONTINUOUS
 62
    7
 10
379.29500050000001
 20
-70.877494499999955
 40
6.1950000000000003
 50
69.750934999999998
 51
76.043591000000006
  0
ARC
  8
_0-0_レイヤ___1
  6
CONTINUOUS
 62
    7
 10
381.41000049999997
 20
-64.692494499999952
 40
0.375
 50
274.466725
 51
335.051939
  0
ARC
  8
_0-0_レイヤ___1
  6
CONTINUOUS
 62
    7
 10
380.86000050000001
 20
-64.442494499999952
 40
0.9799999999999999
 50
335.39625599999999
 51
1.5066699999999991
  0
LINE
  8
_0-0_レイヤ___1
  6
CONTINUOUS
 62
    7
 10
381.84000049999997
 20
-64.417494499999975
 11
382.09000049999997
 21
-64.217494499999987
  0
ARC
  8
_0-0_レイヤ___1
  6
CONTINUOUS
 62
    7
 10
381.90500049999997
 20
-64.192494499999952
 40
0.185
 50
352.46902999999998
 51
110.211342
  0
ARC
  8
_0-0_レイヤ___1
  6
CONTINUOUS
 62
    7
 10
378.21500049999997
 20
-64.712494499999991
 40
3.9900000000000002
 50
13.728675999999998
 51
49.790277000000003
  0
LINE
  8
_0-0_レイヤ___1
  6
CONTINUOUS
 62
    7
 10
381.04000049999996
 20
-61.867494499999964
 11
377.4400005
 21
-59.767494499999941
  0
LINE
  8
_0-0_レイヤ___1
  6
CONTINUOUS
 62
    7
 10
377.4400005
 20
-59.767494499999941
 11
364.49000050000001
 21
-52.167494499999975
  0
LINE
  8
_0-0_レイヤ___1
  6
CONTINUOUS
 62
    7
 10
364.49000050000001
 20
-52.167494499999975
 11
347.79000150000002
 21
-42.617494499999964
  0
ARC
  8
_0-0_レイヤ___1
  6
CONTINUOUS
 62
    7
 10
347.53000149999997
 20
-43.372494499999959
 40
0.9549999999999999
 50
86.260504999999995
 51
128.93567799999997
  0
ARC
  8
_0-0_レイヤ___1
  6
CONTINUOUS
 62
    7
 10
347.31500149999999
 20
-43.052494499999966
 40
0.5749999999999999
 50
132.437128
 51
181.42830000000001
  0
LINE
  8
_0-0_レイヤ___1
  6
CONTINUOUS
 62
    7
 10
346.74000150000001
 20
-43.067494499999952
 11
346.74000150000001
 21
-43.267494499999941
  0
LINE
  8
_0-0_レイヤ___1
  6
CONTINUOUS
 62
    7
 10
346.74000150000001
 20
-43.267494499999941
 11
346.74000150000001
 21
-43.467494499999987
  0
ARC
  8
_0-0_レイヤ___1
  6
CONTINUOUS
 62
    7
 10
349.09500149999997
 20
-43.552494499999966
 40
2.3599999999999999
 50
177.91201499999997
 51
230.29244799999998
  0
LINE
  8
_0-0_レイヤ___1
  6
CONTINUOUS
 62
    7
 10
347.79000150000002
 20
-45.817494499999952
 11
352.44000149999999
 21
-47.467494499999987
  0
LINE
  8
_0-0_レイヤ___1
  6
CONTINUOUS
 62
    7
 10
352.44000149999999
 20
-47.467494499999987
 11
352.44000149999999
 21
-46.417494499999975
  0
LINE
  8
_0-0_レイヤ___1
  6
CONTINUOUS
 62
    7
 10
352.44000149999999
 20
-46.417494499999975
 11
347.79000150000002
 21
-44.517494499999941
  0
LINE
  8
_0-0_レイヤ___1
  6
CONTINUOUS
 62
    7
 10
347.59000149999997
 20
-43.867494499999964
 11
347.59000149999997
 21
-44.117494499999964
  0
LINE
  8
_0-0_レイヤ___1
  6
CONTINUOUS
 62
    7
 10
347.59000149999997
 20
-44.117494499999964
 11
347.59000149999997
 21
-44.517494499999941
  0
LINE
  8
_0-0_レイヤ___1
  6
CONTINUOUS
 62
    7
 10
347.59000149999997
 20
-44.117494499999964
 11
347.79000150000002
 21
-43.667494499999975
  0
LINE
  8
_0-0_レイヤ___1
  6
CONTINUOUS
 62
    7
 10
347.79000150000002
 20
-43.667494499999975
 11
364.49000050000001
 21
-53.417494499999975
  0
LINE
  8
_0-0_レイヤ___1
  6
CONTINUOUS
 62
    7
 10
364.49000050000001
 20
-53.417494499999975
 11
376.14000049999999
 21
-60.167494499999975
  0
LINE
  8
_0-0_レイヤ___1
  6
CONTINUOUS
 62
    7
 10
417.1900005
 20
-44.317494499999952
 11
418.6900005
 21
-44.317494499999952
  0
LINE
  8
_0-0_レイヤ___1
  6
CONTINUOUS
 62
    7
 10
418.6900005
 20
-44.317494499999952
 11
533.1899985
 21
-111.61749349999997
  0
LINE
  8
_0-0_レイヤ___1
  6
CONTINUOUS
 62
    7
 10
416.59000049999997
 20
-44.317494499999952
 11
417.1900005
 21
-44.317494499999952
  0
LINE
  8
_0-0_レイヤ___1
  6
CONTINUOUS
 62
    7
 10
388.1900005
 20
-69.267494499999941
 11
382.49000050000001
 21
-65.917494499999975
  0
LINE
  8
_0-0_レイヤ___1
  6
CONTINUOUS
 62
    7
 10
381.84000049999997
 20
-64.217494499999987
 11
381.84000049999997
 21
-64.417494499999975
  0
ARC
  8
_0-0_レイヤ___1
  6
CONTINUOUS
 62
    7
 10
382.7450005
 20
-64.652494499999989
 40
0.935
 50
165.52548100000001
 51
240.87169499999999
  0
ARC
  8
_0-0_レイヤ___1
  6
CONTINUOUS
 62
    7
 10
383.03500049999997
 20
-64.312494499999957
 40
1.1950000000000001
 50
106.63054700000001
 51
184.93805699999999
  0
ARC
  8
_0-0_レイヤ___1
  6
CONTINUOUS
 62
    7
 10
382.47000049999997
 20
-62.107494499999973
 40
1.0600000000000001
 50
270.98598700000002
 51
324.80856799999998
  0
LINE
  8
_0-0_レイヤ___1
  6
CONTINUOUS
 62
    7
 10
383.54000049999996
 20
-62.917494499999975
 11
385.04000049999996
 21
-62.117494499999964
  0
LINE
  8
_0-0_レイヤ___1
  6
CONTINUOUS
 62
    7
 10
385.04000049999996
 20
-62.117494499999964
 11
415.74000050000001
 21
-44.317494499999952
  0
LINE
  8
_0-0_レイヤ___1
  6
CONTINUOUS
 62
    7
 10
415.74000050000001
 20
-44.317494499999952
 11
416.59000049999997
 21
-44.317494499999952
  0
LINE
  8
_0-0_レイヤ___1
  6
CONTINUOUS
 62
    7
 10
497.23999950000001
 20
-133.21749349999999
 11
388.1900005
 21
-69.267494499999941
  0
LINE
  8
_0-0_レイヤ___1
  6
CONTINUOUS
 62
    7
 10
498.93999849999994
 20
-131.96749349999999
 11
389.89000049999999
 21
-67.817494499999952
  0
LINE
  8
_0-0_レイヤ___1
  6
CONTINUOUS
 62
    7
 10
570.43999749999989
 20
-174.06749249999996
 11
505.28999849999997
 21
-135.56749349999996
  0
LINE
  8
_0-0_レイヤ___1
  6
CONTINUOUS
 62
    7
 10
705.73999550000008
 20
-173.86749249999997
 11
867.63999349999995
 21
-80.317494499999952
  0
LINE
  8
_0-0_レイヤ___1
  6
CONTINUOUS
 62
    7
 10
697.23999649999996
 20
-165.16749249999998
 11
697.23999649999996
 21
-163.06749249999996
  0
LINE
  8
_0-0_レイヤ___1
  6
CONTINUOUS
 62
    7
 10
695.98999649999996
 20
-162.41749249999998
 11
697.23999649999996
 21
-163.06749249999996
  0
LINE
  8
_0-0_レイヤ___1
  6
CONTINUOUS
 62
    7
 10
316.69000149999999
 20
-239.46749149999994
 11
494.88999949999999
 21
-136.16749349999998
  0
LINE
  8
_0-0_レイヤ___1
  6
CONTINUOUS
 62
    7
 10
494.88999949999999
 20
-135.96749349999999
 11
495.53999949999996
 21
-135.31749349999996
  0
ARC
  8
_0-0_レイヤ___1
  6
CONTINUOUS
 62
    7
 10
493.7499995
 20
-132.55249349999997
 40
3.29
 50
302.92735900000002
 51
323.64544699999999
  0
ARC
  8
_0-0_レイヤ___1
  6
CONTINUOUS
 62
    7
 10
486.18499949999995
 20
-127.10249349999998
 40
12.615
 50
324.06696399999998
 51
328.90726100000001
  0
ARC
  8
_0-0_レイヤ___1
  6
CONTINUOUS
 62
    7
 10
493.15499949999997
 20
-129.83749349999994
 40
5.3899999999999997
 50
315.41706999999997
 51
326.39522099999999
  0
ARC
  8
_0-0_レイヤ___1
  6
CONTINUOUS
 62
    7
 10
503.40999849999997
 20
-137.79749349999997
 40
7.6200000000000001
 50
118.781448
 51
139.200512
  0
LINE
  8
_0-0_レイヤ___1
  6
CONTINUOUS
 62
    7
 10
499.98999850000001
 20
-131.11749349999997
 11
534.48999849999996
 21
-110.96749349999999
  0
LINE
  8
_0-0_レイヤ___1
  6
CONTINUOUS
 62
    7
 10
534.48999849999996
 20
-110.96749349999999
 11
567.28999750000003
 21
-130.26749349999994
  0
LINE
  8
_0-0_レイヤ___1
  6
CONTINUOUS
 62
    7
 10
385.24000050000001
 20
-71.417494499999975
 11
387.59000049999997
 21
-69.917494499999975
  0
LINE
  8
_0-0_レイヤ___1
  6
CONTINUOUS
 62
    7
 10
387.59000049999997
 20
-69.917494499999975
 11
392.89000049999999
 21
-65.267494499999941
  0
LINE
  8
_0-0_レイヤ___1
  6
CONTINUOUS
 62
    7
 10
392.89000049999999
 20
-65.267494499999941
 11
422.74000050000001
 21
-47.467494499999987
  0
LINE
  8
_0-0_レイヤ___1
  6
CONTINUOUS
 62
    7
 10
422.74000050000001
 20
-47.467494499999987
 11
409.59000049999997
 21
-39.867494499999964
  0
LINE
  8
_0-0_レイヤ___1
  6
CONTINUOUS
 62
    7
 10
409.59000049999997
 20
-39.867494499999964
 11
379.54000049999996
 21
-57.667494499999975
  0
LINE
  8
_0-0_レイヤ___1
  6
CONTINUOUS
 62
    7
 10
379.54000049999996
 20
-57.667494499999975
 11
374.6900005
 21
-62.117494499999964
  0
LINE
  8
_0-0_レイヤ___1
  6
CONTINUOUS
 62
    7
 10
374.6900005
 20
-62.117494499999964
 11
372.14000049999999
 21
-63.767494499999941
  0
LINE
  8
_0-0_レイヤ___1
  6
CONTINUOUS
 62
    7
 10
372.14000049999999
 20
-63.767494499999941
 11
385.24000050000001
 21
-71.417494499999975
  0
LINE
  8
_0-0_レイヤ___1
  6
CONTINUOUS
 62
    7
 10
688.3399965000001
 20
-144.66749349999998
 11
864.6899934999999
 21
-43.467494499999987
  0
ARC
  8
_0-0_レイヤ___1
  6
CONTINUOUS
 62
    7
 10
671.05499650000002
 20
150.45750250000003
 40
16.890000000000001
 50
328.088821
 51
359.06039199999998
  0
LINE
  8
_0-0_レイヤ___1
  6
CONTINUOUS
 62
    7
 10
687.93999650000001
 20
150.18250250000006
 11
687.93999650000001
 21
150.43250250000006
  0
ARC
  8
_0-0_レイヤ___1
  6
CONTINUOUS
 62
    7
 10
663.57999649999988
 20
154.52250250000009
 40
25.559999999999999
 50
312.17921799999999
 51
329.452044
  0
ARC
  8
_0-0_レイヤ___1
  6
CONTINUOUS
 62
    7
 10
654.12999650000006
 20
165.91750250000007
 40
40.354998999999999
 50
296.74624999999997
 51
311.257519
  0
ARC
  8
_0-0_レイヤ___1
  6
CONTINUOUS
 62
    7
 10
650.92499649999991
 20
168.33750250000003
 40
43.869999
 50
288.49057599999998
 51
298.76819399999999
  0
ARC
  8
_0-0_レイヤ___1
  6
CONTINUOUS
 62
    7
 10
646.39999650000004
 20
202.18250150000006
 40
54.134999000000001
 50
289.91523000000001
 51
303.007293
  0
ARC
  8
_0-0_レイヤ___1
  6
CONTINUOUS
 62
    7
 10
657.92999650000002
 20
185.73750150000001
 40
33.939999
 50
301.45061500000003
 51
317.21482500000002
  0
ARC
  8
_0-0_レイヤ___1
  6
CONTINUOUS
 62
    7
 10
666.8249965
 20
176.98750150000001
 40
21.475000000000001
 50
318.22773699999999
 51
337.67779899999999
  0
ARC
  8
_0-0_レイヤ___1
  6
CONTINUOUS
 62
    7
 10
671.84499649999998
 20
175.25750249999999
 40
16.100000000000001
 50
337.251484
 51
359.01973800000002
  0
LINE
  8
_0-0_レイヤ___1
  6
CONTINUOUS
 62
    7
 10
687.93999650000001
 20
174.98250250000001
 11
687.93999650000001
 21
175.18250250000006
  0
ARC
  8
_0-0_レイヤ___1
  6
CONTINUOUS
 62
    7
 10
667.03999649999992
 20
173.52250250000009
 40
20.949999999999999
 50
3.9971429999999999
 51
28.853643000000002
  0
ARC
  8
_0-0_レイヤ___1
  6
CONTINUOUS
 62
    7
 10
664.1999965
 20
170.48750250000001
 40
25
 50
31.179442000000002
 51
49.792572
  0
ARC
  8
_0-0_レイヤ___1
  6
CONTINUOUS
 62
    7
 10
649.4499965
 20
152.7425025
 40
48.209999000000003
 50
49.838861999999999
 51
55.986190000000001
  0
ARC
  8
_0-0_レイヤ___1
  6
CONTINUOUS
 62
    7
 10
661.6849964999999
 20
170.82250250000004
 40
26.375
 50
56.045443999999996
 51
65.815388999999982
  0
ARC
  8
_0-0_レイヤ___1
  6
CONTINUOUS
 62
    7
 10
654.67999650000002
 20
165.69750250000004
 40
34.359999000000002
 50
58.783738000000007
 51
74.974549999999994
  0
ARC
  8
_0-0_レイヤ___1
  6
CONTINUOUS
 62
    7
 10
660.02999649999992
 20
192.31250150000005
 40
7.6500000000000004
 50
62.241701999999997
 51
75.909278999999998
  0
ARC
  8
_0-0_レイヤ___1
  6
CONTINUOUS
 62
    7
 10
655.84999650000009
 20
181.65250150000008
 40
19.059999999999999
 50
71.528456000000006
 51
83.254313999999994
  0
ARC
  8
_0-0_レイヤ___1
  6
CONTINUOUS
 62
    7
 10
648.37999650000006
 20
198.41250150000008
 40
47.864998999999997
 50
289.09956499999998
 51
302.918047
  0
ARC
  8
_0-0_レイヤ___1
  6
CONTINUOUS
 62
    7
 10
659.13999650000005
 20
182.00250149999999
 40
28.030000000000001
 50
302.964247
 51
321.05849899999998
  0
ARC
  8
_0-0_レイヤ___1
  6
CONTINUOUS
 62
    7
 10
666.78499650000003
 20
175.78750250000007
 40
18.305
 50
320.655733
 51
348.80499600000002
  0
ARC
  8
_0-0_レイヤ___1
  6
CONTINUOUS
 62
    7
 10
676.85999650000008
 20
175.10250250000001
 40
8.1300000000000008
 50
340.82943
 51
359.15461299999998
  0
LINE
  8
_0-0_レイヤ___1
  6
CONTINUOUS
 62
    7
 10
684.98999649999996
 20
174.98250250000001
 11
684.98999649999996
 21
175.18250250000006
  0
ARC
  8
_0-0_レイヤ___1
  6
CONTINUOUS
 62
    7
 10
666.71999649999998
 20
173.79250250000007
 40
18.510000000000002
 50
3.6876180000000001
 51
30.664186000000001
  0
ARC
  8
_0-0_レイヤ___1
  6
CONTINUOUS
 62
    7
 10
663.83499649999999
 20
172.26250249999998
 40
21.699999999999999
 50
30.978393999999998
 51
46.667750999999996
  0
ARC
  8
_0-0_レイヤ___1
  6
CONTINUOUS
 62
    7
 10
670.17499649999991
 20
178.54750150000007
 40
12.779999999999999
 50
48.008122999999998
 51
55.904795
  0
ARC
  8
_0-0_レイヤ___1
  6
CONTINUOUS
 62
    7
 10
661.5599964999999
 20
173.18250250000006
 40
22.295000000000002
 50
44.942816999999998
 51
60.538299999999992
  0
ARC
  8
_0-0_レイヤ___1
  6
CONTINUOUS
 62
    7
 10
647.58499649999999
 20
150.09250250000002
 40
49.279998999999997
 50
59.592232000000003
 51
64.122985
  0
ARC
  8
_0-0_レイヤ___1
  6
CONTINUOUS
 62
    7
 10
658.85499649999997
 20
177.70750150000003
 40
19.609999999999999
 50
58.533286000000004
 51
67.133152999999993
  0
ARC
  8
_0-0_レイヤ___1
  6
CONTINUOUS
 62
    7
 10
651.04499650000002
 20
158.75250249999999
 40
40.104998999999999
 50
67.377611000000002
 51
71.473939999999999
  0
ARC
  8
_0-0_レイヤ___1
  6
CONTINUOUS
 62
    7
 10
660.47499650000009
 20
191.01250149999998
 40
7.125
 50
59.983359999999998
 51
73.159239999999997
  0
ARC
  8
_0-0_レイヤ___1
  6
CONTINUOUS
 62
    7
 10
654.75999649999994
 20
175.47750250000001
 40
23.670000000000002
 50
70.816473999999999
 51
81.428449999999998
  0
LINE
  8
_0-0_レイヤ___1
  6
CONTINUOUS
 62
    7
 10
664.23999649999996
 20
128.18250250000006
 11
664.23999649999996
 21
152.73250250000001
  0
LINE
  8
_0-0_レイヤ___1
  6
CONTINUOUS
 62
    7
 10
664.23999649999996
 20
152.73250250000001
 11
665.0899965000001
 21
151.48250250000001
  0
LINE
  8
_0-0_レイヤ___1
  6
CONTINUOUS
 62
    7
 10
665.0899965000001
 20
126.93250250000006
 11
665.0899965000001
 21
151.48250250000001
  0
LINE
  8
_0-0_レイヤ___1
  6
CONTINUOUS
 62
    7
 10
665.0899965000001
 20
126.93250250000006
 11
664.23999649999996
 21
128.18250250000006
  0
LINE
  8
_0-0_レイヤ___1
  6
CONTINUOUS
 62
    7
 10
687.73999649999996
 20
148.73250250000001
 11
687.73999649999996
 21
173.48250250000001
  0
ARC
  8
_0-0_レイヤ___1
  6
CONTINUOUS
 62
    7
 10
649.58499649999999
 20
174.94750250000004
 40
8.5299999999999994
 50
325.238472
 51
355.881462
  0
LINE
  8
_0-0_レイヤ___1
  6
CONTINUOUS
 62
    7
 10
658.0899965000001
 20
174.33250250000003
 11
658.0899965000001
 21
174.53250250000008
  0
ARC
  8
_0-0_レイヤ___1
  6
CONTINUOUS
 62
    7
 10
648.40499649999992
 20
175.01250249999998
 40
9.5549999999999997
 50
306.51149600000002
 51
328.94113499999997
  0
ARC
  8
_0-0_レイヤ___1
  6
CONTINUOUS
 62
    7
 10
648.41499649999992
 20
173.42750250000006
 40
8.1449999999999996
 50
295.642402
 51
314.162601
  0
LINE
  8
_0-0_レイヤ___1
  6
CONTINUOUS
 62
    7
 10
651.73999649999996
 20
146.83250250000003
 11
664.03999649999992
 21
128.18250250000006
  0
LINE
  8
_0-0_レイヤ___1
  6
CONTINUOUS
 62
    7
 10
651.93999650000001
 20
146.38250249999999
 11
651.93999650000001
 21
165.68250250000006
  0
LINE
  8
_0-0_レイヤ___1
  6
CONTINUOUS
 62
    7
 10
651.73999649999996
 20
165.88250249999999
 11
658.28999649999992
 21
159.08250250000003
  0
ARC
  8
_0-0_レイヤ___1
  6
CONTINUOUS
 62
    7
 10
693.69499649999989
 20
190.22250150000002
 40
47.134999000000001
 50
220.94406599999999
 51
231.01460200000002
  0
LINE
  8
_0-0_レイヤ___1
  6
CONTINUOUS
 62
    7
 10
622.93999749999989
 20
145.98250250000001
 11
569.83999749999998
 21
70.632503500000041
  0
ARC
  8
_0-0_レイヤ___1
  6
CONTINUOUS
 62
    7
 10
592.20499749999999
 20
47.617503500000055
 40
32.090000000000003
 50
134.17937000000003
 51
135.82060000000004
  0
ARC
  8
_0-0_レイヤ___1
  6
CONTINUOUS
 62
    7
 10
577.03499749999992
 20
65.532503500000018
 40
9.2899999999999991
 50
149.988349
 51
168.21608499999999
  0
ARC
  8
_0-0_レイヤ___1
  6
CONTINUOUS
 62
    7
 10
578.39499750000004
 20
65.147503500000028
 40
10.465
 50
168.495645
 51
182.535144
  0
LINE
  8
_0-0_レイヤ___1
  6
CONTINUOUS
 62
    7
 10
567.93999749999989
 20
-129.21749349999999
 11
567.93999749999989
 21
64.482503500000007
  0
ARC
  8
_0-0_レイヤ___1
  6
CONTINUOUS
 62
    7
 10
561.84999850000008
 20
-128.93749349999996
 40
6.1100000000000003
 50
332.93916899999999
 51
355.49932799999999
  0
LINE
  8
_0-0_レイヤ___1
  6
CONTINUOUS
 62
    7
 10
567.93999749999989
 20
-129.41749349999998
 11
567.93999749999989
 21
-129.21749349999999
  0
ARC
  8
_0-0_レイヤ___1
  6
CONTINUOUS
 62
    7
 10
564.63999749999994
 20
-130.78249349999999
 40
2.8100000000000001
 50
299.85249999999996
 51
340.53636599999993
  0
LINE
  8
_0-0_レイヤ___1
  6
CONTINUOUS
 62
    7
 10
566.23999750000007
 20
-133.01749349999994
 11
546.53999849999991
 21
-144.41749349999998
  0
LINE
  8
_0-0_レイヤ___1
  6
CONTINUOUS
 62
    7
 10
546.53999849999991
 20
-146.11749349999997
 11
546.53999849999991
 21
-144.41749349999998
  0
LINE
  8
_0-0_レイヤ___1
  6
CONTINUOUS
 62
    7
 10
546.53999849999991
 20
-146.11749349999997
 11
560.28999849999991
 21
-154.36749349999997
  0
LINE
  8
_0-0_レイヤ___1
  6
CONTINUOUS
 62
    7
 10
638.38999650000005
 20
-166.21749249999993
 11
638.38999650000005
 21
-114.16749349999998
  0
LINE
  8
_0-0_レイヤ___1
  6
CONTINUOUS
 62
    7
 10
638.38999650000005
 20
-110.56749349999996
 11
638.38999650000005
 21
-15.717495499999984
  0
LINE
  8
_0-0_レイヤ___1
  6
CONTINUOUS
 62
    7
 10
638.38999650000005
 20
-12.367495499999961
 11
638.38999650000005
 21
24.032504500000016
  0
ARC
  8
_0-0_レイヤ___1
  6
CONTINUOUS
 62
    7
 10
626.4449975
 20
34.007504500000039
 40
32.975000000000001
 50
120.63661099999999
 51
151.22647299999997
  0
ARC
  8
_0-0_レイヤ___1
  6
CONTINUOUS
 62
    7
 10
631.71999649999998
 20
26.442504500000041
 40
42.244999
 50
104.01522900000001
 51
115.29936699999999
  0
ARC
  8
_0-0_レイヤ___1
  6
CONTINUOUS
 62
    7
 10
640.65999650000003
 20
6.7825045000000159
 40
63.839998999999999
 50
115.01135600000002
 51
119.07035999999999
  0
LINE
  8
_0-0_レイヤ___1
  6
CONTINUOUS
 62
    7
 10
641.13999650000005
 20
69.132503500000041
 11
636.68999650000001
 21
69.132503500000041
  0
ARC
  8
_0-0_レイヤ___1
  6
CONTINUOUS
 62
    7
 10
636.64999650000004
 20
7.68250450000005
 40
61.449998999999998
 50
89.964886000000007
 51
104.28512499999999
  0
ARC
  8
_0-0_レイヤ___1
  6
CONTINUOUS
 62
    7
 10
636.97499650000009
 20
5.7175045000000182
 40
63.749999000000003
 50
67.188182999999995
 51
86.253071000000006
  0
ARC
  8
_0-0_レイヤ___1
  6
CONTINUOUS
 62
    7
 10
651.50499650000006
 20
37.207504500000027
 40
28.859999999999999
 50
44.635427999999997
 51
69.756969999999995
  0
ARC
  8
_0-0_レイヤ___1
  6
CONTINUOUS
 62
    7
 10
656.6849964999999
 20
40.55750450000005
 40
23.114999999999998
 50
26.666931000000002
 51
41.935930999999997
  0
ARC
  8
_0-0_レイヤ___1
  6
CONTINUOUS
 62
    7
 10
643.4649965000001
 20
29.607504500000061
 40
40.274999000000001
 50
40.956037000000002
 51
44.294044
  0
ARC
  8
_0-0_レイヤ___1
  6
CONTINUOUS
 62
    7
 10
649.81999649999989
 20
37.232504500000061
 40
30.920000000000002
 50
359.90546799999993
 51
26.296701999999947
  0
ARC
  8
_0-0_レイヤ___1
  6
CONTINUOUS
 62
    7
 10
644.30499650000002
 20
35.487504500000057
 40
36.639999000000003
 50
341.45400899999999
 51
0.698015999999993
  0
ARC
  8
_0-0_レイヤ___1
  6
CONTINUOUS
 62
    7
 10
677.53499650000003
 20
36.02750450000002
 40
3.4049999999999998
 50
358.37660799999998
 51
19.803943999999998
  0
ARC
  8
_0-0_レイヤ___1
  6
CONTINUOUS
 62
    7
 10
618.98499749999996
 20
40.477504500000009
 40
62.264999000000003
 50
305.49714
 51
344.687411
  0
ARC
  8
_0-0_レイヤ___1
  6
CONTINUOUS
 62
    7
 10
635.56999649999989
 20
16.532504500000016
 40
32.984999999999999
 50
285.05887200000001
 51
306.39236799999998
  0
ARC
  8
_0-0_レイヤ___1
  6
CONTINUOUS
 62
    7
 10
635.54999649999991
 20
23.957504500000027
 40
40.399999000000001
 50
273.462287
 51
282.27588200000002
  0
ARC
  8
_0-0_レイヤ___1
  6
CONTINUOUS
 62
    7
 10
639.09999650000009
 20
10.237504500000057
 40
26.620000000000001
 50
245.92482100000001
 51
268.04391600000008
  0
ARC
  8
_0-0_レイヤ___1
  6
CONTINUOUS
 62
    7
 10
647.59999650000009
 20
30.977504500000009
 40
48.949998999999998
 50
235.09723000000002
 51
246.95862600000004
  0
ARC
  8
_0-0_レイヤ___1
  6
CONTINUOUS
 62
    7
 10
655.75999649999994
 20
40.037504500000011
 40
60.954999000000001
 50
217.32435599999999
 51
233.833125
  0
ARC
  8
_0-0_レイヤ___1
  6
CONTINUOUS
 62
    7
 10
657.4649965000001
 20
42.987503500000059
 40
64.109999000000002
 50
198.55961400000001
 51
218.49651800000001
  0
ARC
  8
_0-0_レイヤ___1
  6
CONTINUOUS
 62
    7
 10
634.01499650000005
 20
36.087504500000023
 40
39.624999000000003
 50
180.22333
 51
199.618629
  0
ARC
  8
_0-0_レイヤ___1
  6
CONTINUOUS
 62
    7
 10
625.04999750000002
 20
36.342504500000018
 40
30.664999999999999
 50
153.79853700000001
 51
180.39489699999999
  0
LINE
  8
_0-0_レイヤ___1
  6
CONTINUOUS
 62
    7
 10
594.38999749999994
 20
36.132504500000039
 11
594.38999749999994
 21
35.68250450000005
  0
ARC
  8
_0-0_レイヤ___1
  6
CONTINUOUS
 62
    7
 10
656.35999650000008
 20
-168.22749249999993
 40
66.319998999999996
 50
135.83011999999999
 51
161.30142699999999
  0
ARC
  8
_0-0_レイヤ___1
  6
CONTINUOUS
 62
    7
 10
646.10999650000008
 20
-160.48749249999997
 40
53.459999000000003
 50
113.91456200000002
 51
133.97749300000001
  0
ARC
  8
_0-0_レイヤ___1
  6
CONTINUOUS
 62
    7
 10
638.2149965000001
 20
-147.36249349999997
 40
38.494999
 50
90.040648000000004
 51
110.972126
  0
ARC
  8
_0-0_レイヤ___1
  6
CONTINUOUS
 62
    7
 10
638.32999649999988
 20
-147.42749349999997
 40
38.359999000000002
 50
60.116192999999996
 51
90.206289999999981
  0
LINE
  8
_0-0_レイヤ___1
  6
CONTINUOUS
 62
    7
 10
638.18999650000001
 20
-109.06749349999996
 11
637.98999649999996
 21
-109.06749349999996
  0
ARC
  8
_0-0_レイヤ___1
  6
CONTINUOUS
 62
    7
 10
639.22499650000009
 20
-149.60249349999992
 40
39.729998999999999
 50
40.275432000000002
 51
57.580495999999997
  0
ARC
  8
_0-0_レイヤ___1
  6
CONTINUOUS
 62
    7
 10
628.41999749999991
 20
-164.8924925
 40
58.439999
 50
56.674582000000008
 51
60.227314999999997
  0
ARC
  8
_0-0_レイヤ___1
  6
CONTINUOUS
 62
    7
 10
621.32499749999988
 20
-168.54249249999998
 40
66.149998999999994
 50
24.351215
 51
42.954599000000002
  0
LINE
  8
_0-0_レイヤ___1
  6
CONTINUOUS
 62
    7
 10
681.38999650000005
 20
-141.46749349999993
 11
683.88999650000005
 21
-147.61749349999997
  0
ARC
  8
_0-0_レイヤ___1
  6
CONTINUOUS
 62
    7
 10
656.03499650000003
 20
-181.42249249999998
 40
44.309998999999998
 50
27.493091
 51
50.632067999999997
  0
ARC
  8
_0-0_レイヤ___1
  6
CONTINUOUS
 62
    7
 10
666.14999650000004
 20
-175.66249249999998
 40
32.590000000000003
 50
359.81228900000002
 51
26.406124999999982
  0
ARC
  8
_0-0_レイヤ___1
  6
CONTINUOUS
 62
    7
 10
664.09499649999998
 20
-174.84749249999993
 40
34.859999000000002
 50
326.73398900000001
 51
358.48627900000002
  0
LINE
  8
_0-0_レイヤ___1
  6
CONTINUOUS
 62
    7
 10
698.9399954999999
 20
-175.7674925
 11
698.9399954999999
 21
-175.56749249999996
  0
ARC
  8
_0-0_レイヤ___1
  6
CONTINUOUS
 62
    7
 10
657.85499649999997
 20
-170.88749250000001
 40
41.969999000000001
 50
307.64369699999992
 51
326.96052899999995
  0
ARC
  8
_0-0_レイヤ___1
  6
CONTINUOUS
 62
    7
 10
649.48499650000008
 20
-164.04249249999998
 40
52.534998999999999
 50
288.48326500000002
 51
303.560968
  0
ARC
  8
_0-0_レイヤ___1
  6
CONTINUOUS
 62
    7
 10
637.17999650000002
 20
-143.96249349999994
 40
76.074999000000005
 50
302.92367000000002
 51
307.49986699999999
  0
ARC
  8
_0-0_レイヤ___1
  6
CONTINUOUS
 62
    7
 10
638.20999649999999
 20
-218.56749249999996
 40
0.185
 50
16.105492000000002
 51
227.07033300000001
  0
ARC
  8
_0-0_レイヤ___1
  6
CONTINUOUS
 62
    7
 10
638.75499650000006
 20
-209.57249249999995
 40
9.1600000000000001
 50
265.79100100000005
 51
273.02722700000004
  0
ARC
  8
_0-0_レイヤ___1
  6
CONTINUOUS
 62
    7
 10
639.23999649999996
 20
-143.48749349999997
 40
75.229999000000007
 50
269.998605
 51
291.113044
  0
ARC
  8
_0-0_レイヤ___1
  6
CONTINUOUS
 62
    7
 10
639.45499649999988
 20
-132.37749349999996
 40
86.549999
 50
247.89946099999997
 51
269.16404899999998
  0
ARC
  8
_0-0_レイヤ___1
  6
CONTINUOUS
 62
    7
 10
632.86999650000007
 20
-153.6474935
 40
64.394998999999999
 50
228.96325300000001
 51
246.20818500000001
  0
ARC
  8
_0-0_レイヤ___1
  6
CONTINUOUS
 62
    7
 10
622.82999749999999
 20
-167.96749249999993
 40
47.354998999999999
 50
209.68314499999997
 51
226.67733199999998
  0
ARC
  8
_0-0_レイヤ___1
  6
CONTINUOUS
 62
    7
 10
610.1949975
 20
-175.6474925
 40
32.305
 50
179.858418
 51
208.81626800000001
  0
ARC
  8
_0-0_レイヤ___1
  6
CONTINUOUS
 62
    7
 10
611.89999749999993
 20
-176.12249249999996
 40
34.009999000000001
 50
147.73394200000001
 51
179.39982499999999
  0
ARC
  8
_0-0_レイヤ___1
  6
CONTINUOUS
 62
    7
 10
618.00499749999994
 20
-180.50249249999996
 40
41.789999000000002
 50
126.170815
 51
147.04116099999999
  0
LINE
  8
_0-0_レイヤ___1
  6
CONTINUOUS
 62
    7
 10
546.53999849999991
 20
-144.41749349999998
 11
560.48999849999996
 21
-152.66749349999998
  0
LINE
  8
_0-0_レイヤ___1
  6
CONTINUOUS
 62
    7
 10
857.03999350000004
 20
-15.517495499999939
 11
892.38999349999995
 21
45.032503500000018
  0
LINE
  8
_0-0_レイヤ___1
  6
CONTINUOUS
 62
    7
 10
892.38999349999995
 20
45.032503500000018
 11
901.08999249999988
 21
45.032503500000018
  0
LINE
  8
_0-0_レイヤ___1
  6
CONTINUOUS
 62
    7
 10
915.03999249999993
 20
-66.317494499999952
 11
927.53999249999993
 21
-88.117494499999964
  0
LINE
  8
_0-0_レイヤ___1
  6
CONTINUOUS
 62
    7
 10
927.53999249999993
 20
-88.117494499999964
 11
930.73999249999997
 21
-88.117494499999964
  0
LINE
  8
_0-0_レイヤ___1
  6
CONTINUOUS
 62
    7
 10
770.88999450000006
 20
-119.26749349999994
 11
783.38999450000006
 21
-97.467493499999989
  0
LINE
  8
_0-0_レイヤ___1
  6
CONTINUOUS
 62
    7
 10
783.38999450000006
 20
-97.467493499999989
 11
789.73999449999997
 21
-97.467493499999989
  0
LINE
  8
_0-0_レイヤ___1
  6
CONTINUOUS
 62
    7
 10
657.23999649999996
 20
-111.21749349999999
 11
669.53999649999992
 21
-89.167494499999975
  0
LINE
  8
_0-0_レイヤ___1
  6
CONTINUOUS
 62
    7
 10
669.53999649999992
 20
-89.167494499999975
 11
676.0899965000001
 21
-89.167494499999975
  0
LINE
  8
_0-0_レイヤ___1
  6
CONTINUOUS
 62
    7
 10
665.0899965000001
 20
183.43250150000006
 11
695.13999650000005
 21
235.08250150000003
  0
LINE
  8
_0-0_レイヤ___1
  6
CONTINUOUS
 62
    7
 10
695.13999650000005
 20
235.08250150000003
 11
708.88999549999994
 21
235.08250150000003
  0
LINE
  8
_0-0_レイヤ___1
  6
CONTINUOUS
 62
    7
 10
770.88999450000006
 20
17.282504500000016
 11
804.13999450000006
 21
75.482503500000007
  0
LINE
  8
_0-0_レイヤ___1
  6
CONTINUOUS
 62
    7
 10
804.13999450000006
 20
75.482503500000007
 11
814.48999449999997
 21
75.482503500000007
  0
LINE
  8
_0-0_レイヤ___1
  6
CONTINUOUS
 62
    7
 10
683.68999650000001
 20
167.33250250000003
 11
701.28999550000003
 21
197.43250150000006
  0
LINE
  8
_0-0_レイヤ___1
  6
CONTINUOUS
 62
    7
 10
701.28999550000003
 20
197.43250150000006
 11
715.03999550000003
 21
197.43250150000006
  0
LINE
  8
_0-0_レイヤ___1
  6
CONTINUOUS
 62
    7
 10
855.58999349999999
 20
132.63250249999999
 11
888.78999350000004
 21
191.08250150000003
  0
LINE
  8
_0-0_レイヤ___1
  6
CONTINUOUS
 62
    7
 10
888.78999350000004
 20
191.08250150000003
 11
897.6899934999999
 21
191.08250150000003
  0
LINE
  8
_0-0_レイヤ___1
  6
CONTINUOUS
 62
    7
 10
798.23999449999997
 20
-192.2674925
 11
831.43999450000001
 21
-134.06749349999996
  0
LINE
  8
_0-0_レイヤ___1
  6
CONTINUOUS
 62
    7
 10
831.43999450000001
 20
-134.06749349999996
 11
849.63999349999995
 21
-134.06749349999996
  0
LINE
  8
_0-0_レイヤ___1
  6
CONTINUOUS
 62
    7
 10
400.29000049999996
 20
-52.167494499999975
 11
436.03999949999996
 21
8.5825045000000273
  0
LINE
  8
_0-0_レイヤ___1
  6
CONTINUOUS
 62
    7
 10
436.03999949999996
 20
8.5825045000000273
 11
455.08999950000003
 21
8.5825045000000273
  0
LINE
  8
_0-0_レイヤ___1
  6
CONTINUOUS
 62
    7
 10
524.9399985
 20
162.48250250000001
 11
485.78999949999996
 21
229.38250149999999
  0
LINE
  8
_0-0_レイヤ___1
  6
CONTINUOUS
 62
    7
 10
464.43999949999994
 20
229.38250149999999
 11
485.78999949999996
 21
229.38250149999999
  0
LINE
  8
_0-0_レイヤ___1
  6
CONTINUOUS
 62
    7
 10
396.49000050000001
 20
-152.66749349999998
 11
407.24000050000001
 21
-152.66749349999998
  0
LINE
  8
_0-0_レイヤ___1
  6
CONTINUOUS
 62
    7
 10
443.43999949999994
 20
-89.817494499999952
 11
407.24000050000001
 21
-152.66749349999998
  0
TEXT
  8
_0-0_レイヤ___1
 62
    7
 10
642.61484098939923
 20
445.03886925795052
 40
16
 41
1
 50
0
  1
架台廻り納まりイメージ 3
  0
TEXT
  8
_0-0_レイヤ___1
 62
    7
 10
323.16254416961124
 20
220.19787985865725
 40
16
 41
1
 50
0
  1
ＡＹボンド580ＮＦ
  0
TEXT
  8
_0-0_レイヤ___1
 62
    7
 10
708.89499550000005
 20
228.10250150000002
 40
16
 41
1
 50
0
  1
ＡＹシールＭＳ-1
  0
TEXT
  8
_0-0_レイヤ___1
 62
    7
 10
715.02499549999993
 20
190.42250150000007
 40
16
 41
1
 50
0
  1
塩ビ管
  0
TEXT
  8
_0-0_レイヤ___1
 62
    7
 10
898.5053003533568
 20
182.54593639575972
 40
16
 41
1
 50
0
  1
ＡＹコーナーパッチ
  0
TEXT
  8
_0-0_レイヤ___1
 62
    7
 10
816.19920494699636
 20
66.802561837455869
 40
16
 41
1
 50
0
  1
リベットルーフ
  0
TEXT
  8
_0-0_レイヤ___1
 62
    7
 10
901.07999249999989
 20
38.022504500000025
 40
16
 41
1
 50
0
  1
ＡＹコーナーパッチ
  0
TEXT
  8
_0-0_レイヤ___1
 62
    7
 10
930.7249925000001
 20
-95.327493499999946
 40
16
 41
1
 50
0
  1
ＦＬシール
  0
TEXT
  8
_0-0_レイヤ___1
 62
    7
 10
676.08499649999999
 20
-96.382493499999953
 40
16
 41
1
 50
0
  1
ＦＬシール
  0
TEXT
  8
_0-0_レイヤ___1
 62
    7
 10
789.75499450000007
 20
-104.64249349999994
 40
16
 41
1
 50
0
  1
ＦＬシール
  0
TEXT
  8
_0-0_レイヤ___1
 62
    7
 10
849.64499350000006
 20
-141.25749349999995
 40
16
 41
1
 50
0
  1
リベットルーフ
  0
TEXT
  8
_0-0_レイヤ___1
 62
    7
 10
330.29063604240264
 20
-160.31625441696104
 40
16
 41
1
 50
0
  1
ＦＬ鋼板
  0
TEXT
  8
_0-0_レイヤ___1
 62
    7
 10
455.09499950000003
 20
1.6175045000000523
 40
12
 41
1
 50
0
  1
ＦＬテープ
  0
ENDSEC
  0
EOF
