  0
SECTION
  2
HEADER
  9
$ACADVER
  1
AC1009
  9
$INSBASE
 10
0
 20
0
 30
0
  9
$EXTMIN
 10
0
 20
0
  9
$EXTMAX
 10
2970
 20
2100
  9
$LIMMIN
 10
0
 20
0
  9
$LIMMAX
 10
2970
 20
2100
  9
$LTSCALE
 40
10
  0
ENDSEC
  0
SECTION
  2
TABLES
  0
TABLE
  2
LTYPE
 70
     9
  0
LTYPE
  2
CONTINUOUS
 70
    64
  3
実線
 72
    65
 73
     0
 40
0.0
  0
LTYPE
  2
DASHED1
 70
    64
  3
--  --  --  --  --  --  --  --  
 72
    65
 73
     2
 40
2.5
 49
1.25
 49
-1.25
  0
LTYPE
  2
DASHED2
 70
    64
  3
----    ----    ----    ----    
 72
    65
 73
     2
 40
5.0
 49
2.5
 49
-2.5
  0
LTYPE
  2
DASHED3
 70
    64
  3
------  ------  ------  ------  
 72
    65
 73
     2
 40
5.0
 49
3.75
 49
-1.25
  0
LTYPE
  2
CENTER1
 70
    64
  3
----- - ----- - ----- - ----- - 
 72
    65
 73
     4
 40
10.0
 49
6.25
 49
-1.25
 49
1.25
 49
-1.25
  0
LTYPE
  2
CENTER2
 70
    64
  3
----------  --  ----------  --  
 72
    65
 73
     4
 40
20.0
 49
12.5
 49
-2.5
 49
2.5
 49
-2.5
  0
LTYPE
  2
PHANTOM1
 70
    64
  3
--- - - --- - - --- - - --- - - 
 72
    65
 73
     6
 40
10.0
 49
3.25
 49
-1.25
 49
1.25
 49
-1.25
 49
1.25
 49
-1.25
  0
LTYPE
  2
PHANTOM2
 70
    64
  3
--------  -  -  --------  -  -  
 72
    65
 73
     6
 40
20.0
 49
10.0
 49
-2.5
 49
1.25
 49
-2.5
 49
1.25
 49
-2.5
  0
LTYPE
  2
DOT
 70
    64
  3
-   -   -   -   -   -   -   -   
 72
    65
 73
     2
 40
2.5
 49
0.625
 49
-1.875
  0
LTYPE
  2
DUMMY
 70
    64
  3
ダミー
 72
    65
 73
     0
 40
0.0
  0
LTYPE
  2
RAND1
 70
    64
  3
ランダム線1
 72
    65
 73
     4
 40
10.0
 49
1.0
 49
-2.0
 49
3.0
 49
-4.0
  0
LTYPE
  2
RAND2
 70
    64
  3
ランダム線2
 72
    65
 73
     4
 40
14.0
 49
2.0
 49
-3.0
 49
4.0
 49
-5.0
  0
LTYPE
  2
RAND3
 70
    64
  3
ランダム線3
 72
    65
 73
     4
 40
18.0
 49
3.0
 49
-4.0
 49
5.0
 49
-6.0
  0
LTYPE
  2
RAND4
 70
    64
  3
ランダム線4
 72
    65
 73
     4
 40
22.0
 49
4.0
 49
-5.0
 49
6.0
 49
-7.0
  0
LTYPE
  2
RAND5
 70
    64
  3
ランダム線5
 72
    65
 73
     4
 40
26.0
 49
5.0
 49
-6.0
 49
7.0
 49
-8.0
  0
LTYPE
  2
LONG1
 70
    64
  3
----------  --  ----------  --  
 72
    65
 73
     4
 40
40.0
 49
32.5
 49
-2.5
 49
2.5
 49
-2.5
  0
LTYPE
  2
LONG2
 70
    64
  3
--------  -  -  --------  -  -  
 72
    65
 73
     6
 40
40.0
 49
30.0
 49
-2.5
 49
1.25
 49
-2.5
 49
1.25
 49
-2.5
  0
LTYPE
  2
LONG3
 70
    64
  3
+++++++++++++++..+++++++++++++++
 72
    65
 73
     2
 40
40.0
 49
37.5
 49
-2.5
  0
LTYPE
  2
LONG4
 70
    64
  3
+++++++++++++++..+++++++++++++++
 72
    65
 73
     2
 40
80.0
 49
75.0
 49
-5.0
  0
LTYPE
  2
LONG5
 70
    64
  3
----------  --  ----------  --  
 72
    65
 73
     4
 40
60.0
 49
37.5
 49
-7.5
 49
7.5
 49
-7.5
  0
LTYPE
  2
dashed
 70
   64
  3
-------   -------------   ------
 72
   65
 73
    2
 40
7.5
 49
6
 49
-1.5
  0
LTYPE
  2
dashed_spaced
 70
   64
  3
----        --------        ----
 72
   65
 73
    2
 40
12
 49
6
 49
-6
  0
LTYPE
  2
long_dashed_dotted
 70
   64
  3
------------- --- --------------
 72
   65
 73
    4
 40
15.25
 49
12
 49
-1.5
 49
0.25
 49
-1.5
  0
LTYPE
  2
long_dashed_double-dotted
 70
   64
  3
----------- --- --- ------------
 72
   65
 73
    6
 40
17
 49
12
 49
-1.5
 49
0.25
 49
-1.5
 49
0.25
 49
-1.5
  0
LTYPE
  2
long_dashed_triplicate-dotted
 70
   64
  3
--------- --- --- --- ----------
 72
   65
 73
    8
 40
18.75
 49
12
 49
-1.5
 49
0.25
 49
-1.5
 49
0.25
 49
-1.5
 49
0.25
 49
-1.5
  0
LTYPE
  2
dotted
 70
   64
  3
   -       -       -       -    
 72
   65
 73
    2
 40
1.75
 49
0.25
 49
-1.5
  0
LTYPE
  2
chain
 70
   64
  3
-------------- -- --------------
 72
   65
 73
    4
 40
18.5
 49
12
 49
-1.5
 49
3.5
 49
-1.5
  0
LTYPE
  2
chain_double_dash
 70
   64
  3
------------ -- -- -------------
 72
   65
 73
    6
 40
23.5
 49
12
 49
-1.5
 49
3.5
 49
-1.5
 49
3.5
 49
-1.5
  0
LTYPE
  2
dashed_dotted
 70
   64
  3
-----------     -     ----------
 72
   65
 73
    4
 40
9.25
 49
6
 49
-1.5
 49
0.25
 49
-1.5
  0
LTYPE
  2
double-dashed_dotted
 70
   64
  3
------   -----------   -   -----
 72
   65
 73
    6
 40
16.75
 49
6
 49
-1.5
 49
6
 49
-1.5
 49
0.25
 49
-1.5
  0
LTYPE
  2
dashed_double-dotted
 70
   64
  3
---------    -    -    ---------
 72
   65
 73
    6
 40
11
 49
6
 49
-1.5
 49
0.25
 49
-1.5
 49
0.25
 49
-1.5
  0
LTYPE
  2
double-dashed_double-dotted
 70
   64
  3
-----   ---------   -   -   ----
 72
   65
 73
    8
 40
18.5
 49
6
 49
-1.5
 49
6
 49
-1.5
 49
0.25
 49
-1.5
 49
0.25
 49
-1.5
  0
LTYPE
  2
dashed_triplicate-dotted
 70
   64
  3
-------    -    -    -    ------
 72
   65
 73
    8
 40
12.75
 49
6
 49
-1.5
 49
0.25
 49
-1.5
 49
0.25
 49
-1.5
 49
0.25
 49
-1.5
  0
LTYPE
  2
double-dashed_triplicate-dotted
 70
   64
  3
-----  ---------  -  -  -  -----
 72
   65
 73
   10
 40
20.25
 49
6
 49
-1.5
 49
6
 49
-1.5
 49
0.25
 49
-1.5
 49
0.25
 49
-1.5
 49
0.25
 49
-1.5
  0
LTYPE
  2
undefined
 70
   64
  3
--------------------------------
 72
   65
 73
    0
 40
0
  0
LTYPE
  2
AIGENLINE001
 70
   64
  3
----        --------        ----
 72
   65
 73
    2
 40
4.5800000000000001
 49
2.29
 49
-2.29
  0
LTYPE
  2
AIGENLINE002
 70
   64
  3
------     -----------     -----
 72
   65
 73
    2
 40
6.8700000000000001
 49
4.5800000000000001
 49
-2.29
  0
ENDTAB
  0
TABLE
  2
STYLE
  5
3
100
AcDbSymbolTable
 70
     1
  0
STYLE
  5
10
100
AcDbSymbolTableRecord
100
AcDbTextStyleTableRecord
  2
STANDARD
 70
     0
 40
0.0
 41
1.0
 50
0.0
 71
     0
 42
0.2
  3
txt
  4
bigfont.shx
  0
STYLE
  5
26
100
AcDbSymbolTableRecord
100
AcDbTextStyleTableRecord
  2
TATEGAKI
 70
    68
 40
0.0
 41
1.0
 50
0.0
 71
     0
 42
1.0
  3
txt
  4
bigfont.shx
  0
ENDTAB
  0
TABLE
  2
LAYER
 70
    3
  0
LAYER
  2
_0-0_文字
 70
   64
 62
    7
  6
CONTINUOUS
  0
LAYER
  2
_0-1_レイヤ___3
 70
   64
 62
    7
  6
CONTINUOUS
  0
LAYER
  2
ADD_LINE
 70
   64
 62
    7
  6
CONTINUOUS
  0
ENDTAB
  0
ENDSEC
  0
SECTION
  2
BLOCKS
  0
ENDSEC
  0
SECTION
  2
ENTITIES
  0
ARC
  8
_0-1_レイヤ___3
  6
CONTINUOUS
 62
    7
 10
-7457.1225270732621
 20
10245.265671888299
 40
100.75331131322194
 50
212.54457606520913
 51
215.40440375223901
  0
ARC
  8
_0-1_レイヤ___3
  6
CONTINUOUS
 62
    7
 10
-7368.9514147695209
 20
10307.718363524889
 40
208.80176608438552
 50
215.35576722286694
 51
221.36723647424384
  0
ARC
  8
_0-1_レイヤ___3
  6
CONTINUOUS
 62
    7
 10
-7295.4624294196119
 20
10370.285434729602
 40
305.30820552446175
 50
221.06477429997616
 51
231.22765018658944
  0
ARC
  8
_0-1_レイヤ___3
  6
CONTINUOUS
 62
    7
 10
-7258.362933726452
 20
10413.75814627555
 40
362.43800051855288
 50
230.95883511048854
 51
251.35346403312775
  0
ARC
  8
_0-1_レイヤ___3
  6
CONTINUOUS
 62
    7
 10
-7236.372632740311
 20
10469.15351598549
 40
421.96811857702386
 50
250.92920805381576
 51
264.01576111916944
  0
ARC
  8
_0-1_レイヤ___3
  6
CONTINUOUS
 62
    7
 10
-7225.624236278828
 20
10543.900922169672
 40
497.43720610569824
 50
263.68207230856342
 51
270.12317171358148
  0
ARC
  8
_0-1_レイヤ___3
  6
CONTINUOUS
 62
    7
 10
-6992.0793464044109
 20
10245.524901377814
 40
100.97057184263099
 50
324.50269853745323
 51
327.35954730735853
  0
ARC
  8
_0-1_レイヤ___3
  6
CONTINUOUS
 62
    7
 10
-7080.3419905560786
 20
10307.947173220191
 40
209.07582118488784
 50
318.61534655888227
 51
324.62063211809948
  0
ARC
  8
_0-1_レイヤ___3
  6
CONTINUOUS
 62
    7
 10
-7153.8774882642865
 20
10370.555279866292
 40
305.64394410371006
 50
308.76992808749981
 51
318.92296844706647
  0
ARC
  8
_0-1_レイヤ___3
  6
CONTINUOUS
 62
    7
 10
-7190.9073149430596
 20
10414.013847156648
 40
362.71881065871321
 50
288.65165821912348
 51
309.03173518611686
  0
ARC
  8
_0-1_レイヤ___3
  6
CONTINUOUS
 62
    7
 10
-7212.7783179116759
 20
10469.116770693032
 40
421.93378546990601
 50
275.98762352174964
 51
289.07257752973072
  0
ARC
  8
_0-1_レイヤ___3
  6
CONTINUOUS
 62
    7
 10
-7223.4878580387031
 20
10543.581941679005
 40
497.11822129585721
 50
269.87702048518202
 51
276.31995190691799
  0
ARC
  8
_0-1_レイヤ___3
  6
CONTINUOUS
 62
    7
 10
-5185.0304285955899
 20
10245.524901377814
 40
100.97057184263099
 50
212.64045269264147
 51
215.49730146254677
  0
ARC
  8
_0-1_レイヤ___3
  6
CONTINUOUS
 62
    7
 10
-5096.767783943922
 20
10307.947182752343
 40
209.07582711155425
 50
215.37936993240487
 51
221.38465549162211
  0
ARC
  8
_0-1_レイヤ___3
  6
CONTINUOUS
 62
    7
 10
-5023.232286235715
 20
10370.555274237853
 40
305.6439400285019
 50
221.07703081915608
 51
231.23007117872271
  0
ARC
  8
_0-1_レイヤ___3
  6
CONTINUOUS
 62
    7
 10
-4986.2024600569393
 20
10414.01384715665
 40
362.71881065871611
 50
230.96826481388334
 51
251.34834178087678
  0
ARC
  8
_0-1_レイヤ___3
  6
CONTINUOUS
 62
    7
 10
-4964.331457088324
 20
10469.116770693026
 40
421.93378546990107
 50
250.92742247026916
 51
264.01237647825019
  0
ARC
  8
_0-1_レイヤ___3
  6
CONTINUOUS
 62
    7
 10
-4953.6219169612968
 20
10543.581941679005
 40
497.11822129585721
 50
263.68004809308201
 51
270.12297951481798
  0
ARC
  8
_0-1_レイヤ___3
  6
CONTINUOUS
 62
    7
 10
-4719.9458454184714
 20
10245.502223718258
 40
100.93010227782503
 50
324.50212566871829
 51
327.36012017609352
  0
ARC
  8
_0-1_レイヤ___3
  6
CONTINUOUS
 62
    7
 10
-4808.1795151263923
 20
10307.897670728831
 40
208.99619450303933
 50
318.61419937969004
 51
324.6217751962829
  0
ARC
  8
_0-1_レイヤ___3
  6
CONTINUOUS
 62
    7
 10
-4881.720450069015
 20
10370.546924357084
 40
305.59543296261558
 50
308.76110452106741
 51
318.91711841601511
  0
ARC
  8
_0-1_レイヤ___3
  6
CONTINUOUS
 62
    7
 10
-4918.8186128357247
 20
10414.07234736759
 40
362.76505117262622
 50
288.64440299195792
 51
309.02607158712721
  0
ARC
  8
_0-1_レイヤ___3
  6
CONTINUOUS
 62
    7
 10
-4940.7607794280339
 20
10469.392114969156
 40
422.20788163462777
 50
275.98405340598731
 51
289.06580929539717
  0
ARC
  8
_0-1_レイヤ___3
  6
CONTINUOUS
 62
    7
 10
-4951.4884073483645
 20
10543.953934779165
 40
497.49021243480115
 50
269.87717178965931
 51
276.31758418819595
  0
ARC
  8
_0-1_レイヤ___3
  6
CONTINUOUS
 62
    7
 10
-5820.122552073216
 20
10136.864055111702
 40
100.75331131325974
 50
144.59559624777546
 51
147.45542393480537
  0
ARC
  8
_0-1_レイヤ___3
  6
CONTINUOUS
 62
    7
 10
-5731.9514397695193
 20
10074.411363475112
 40
208.80176608438552
 50
138.63276352575616
 51
144.64423277713306
  0
ARC
  8
_0-1_レイヤ___3
  6
CONTINUOUS
 62
    7
 10
-5658.4624539196111
 20
10011.84428664744
 40
305.30820959523527
 50
128.77234907943739
 51
138.93522496605067
  0
ARC
  8
_0-1_レイヤ___3
  6
CONTINUOUS
 62
    7
 10
-5621.3629577264519
 20
9968.3715807244553
 40
362.43800051855004
 50
108.64653596687252
 51
129.04116488951172
  0
ARC
  8
_0-1_レイヤ___3
  6
CONTINUOUS
 62
    7
 10
-5599.37265674031
 20
9912.9762110145002
 40
421.96811857703369
 50
95.984238880830276
 51
109.07079194618395
  0
ARC
  8
_0-1_レイヤ___3
  6
CONTINUOUS
 62
    7
 10
-5588.6242602788279
 20
9838.228804830349
 40
497.437206105678
 50
89.876828286418629
 51
96.317927691436736
  0
ARC
  8
_0-1_レイヤ___3
  6
CONTINUOUS
 62
    7
 10
-5354.9872379267836
 20
10136.864055111679
 40
100.75331131327245
 50
32.544576065205391
 51
35.404403752235282
  0
ARC
  8
_0-1_レイヤ___3
  6
CONTINUOUS
 62
    7
 10
-5443.1583502304802
 20
10074.411363475123
 40
208.80176608437881
 50
35.3557672228646
 51
41.367236474241516
  0
ARC
  8
_0-1_レイヤ___3
  6
CONTINUOUS
 62
    7
 10
-5516.6473355803882
 20
10011.8442922704
 40
305.30820552446175
 50
41.064774299976172
 51
51.227650186589457
  0
ARC
  8
_0-1_レイヤ___3
  6
CONTINUOUS
 62
    7
 10
-5553.7468312735482
 20
9968.3715807244516
 40
362.43800051855288
 50
50.958835110488543
 51
71.35346403312775
  0
ARC
  8
_0-1_レイヤ___3
  6
CONTINUOUS
 62
    7
 10
-5575.737132259691
 20
9912.9762110145057
 40
421.96811857702875
 50
70.929208053815913
 51
84.015761119169582
  0
ARC
  8
_0-1_レイヤ___3
  6
CONTINUOUS
 62
    7
 10
-5586.4855287211731
 20
9838.2288048303399
 40
497.43720610568812
 50
83.682072308563349
 51
90.123171713581442
  0
ARC
  8
_0-1_レイヤ___3
  6
CONTINUOUS
 62
    7
 10
-2913.022595073262
 20
10245.265671888321
 40
100.75331131323469
 50
212.54457606521987
 51
215.40440375224975
  0
ARC
  8
_0-1_レイヤ___3
  6
CONTINUOUS
 62
    7
 10
-2824.851482769519
 20
10307.718363524882
 40
208.80176608438217
 50
215.35576722286575
 51
221.36723647424267
  0
ARC
  8
_0-1_レイヤ___3
  6
CONTINUOUS
 62
    7
 10
-2751.3624974196114
 20
10370.285434729598
 40
305.30820552445948
 50
221.06477429997577
 51
231.22765018658905
  0
ARC
  8
_0-1_レイヤ___3
  6
CONTINUOUS
 62
    7
 10
-2714.2630012264522
 20
10413.758149055178
 40
362.43800299241127
 50
230.95883532587561
 51
251.3534642485148
  0
ARC
  8
_0-1_レイヤ___3
  6
CONTINUOUS
 62
    7
 10
-2692.2727002403099
 20
10469.153511626333
 40
421.96811429374725
 50
250.92920792458665
 51
264.0157609899403
  0
ARC
  8
_0-1_レイヤ___3
  6
CONTINUOUS
 62
    7
 10
-2681.5243042788275
 20
10543.900922169658
 40
497.43720610568312
 50
263.68207230856331
 51
270.12317171358143
  0
ARC
  8
_0-1_レイヤ___3
  6
CONTINUOUS
 62
    7
 10
-2447.8872809267382
 20
10245.26567188831
 40
100.75331131322829
 50
324.59559624775562
 51
327.45542393478553
  0
ARC
  8
_0-1_レイヤ___3
  6
CONTINUOUS
 62
    7
 10
-2536.0583932304803
 20
10307.718363524889
 40
208.80176608438552
 50
318.63276352575616
 51
324.64423277713308
  0
ARC
  8
_0-1_レイヤ___3
  6
CONTINUOUS
 62
    7
 10
-2609.5473785803892
 20
10370.285434729598
 40
305.30820552445948
 50
308.77234981341098
 51
318.93522570002426
  0
ARC
  8
_0-1_レイヤ___3
  6
CONTINUOUS
 62
    7
 10
-2646.646874773548
 20
10413.758149055178
 40
362.43800299241127
 50
288.6465357514852
 51
309.04116467412439
  0
ARC
  8
_0-1_レイヤ___3
  6
CONTINUOUS
 62
    7
 10
-2668.6371757596903
 20
10469.153511626329
 40
421.96811429374492
 50
275.98423901005975
 51
289.07079207541341
  0
ARC
  8
_0-1_レイヤ___3
  6
CONTINUOUS
 62
    7
 10
-2679.3855722211724
 20
10543.900931055636
 40
497.43721499271589
 50
269.87682823102801
 51
276.31792763604608
  0
ARC
  8
_0-1_レイヤ___3
  6
CONTINUOUS
 62
    7
 10
-3548.0304525955444
 20
10136.604825622173
 40
100.97057184267514
 50
144.50269853746238
 51
147.35954730736768
  0
ARC
  8
_0-1_レイヤ___3
  6
CONTINUOUS
 62
    7
 10
-3459.7678084439217
 20
10074.182553779816
 40
209.07582118488446
 50
138.6153465588834
 51
144.62063211810062
  0
ARC
  8
_0-1_レイヤ___3
  6
CONTINUOUS
 62
    7
 10
-3386.2323107357138
 20
10011.574447133704
 40
305.6439441037146
 50
128.76992808749898
 51
138.92296844706561
  0
ARC
  8
_0-1_レイヤ___3
  6
CONTINUOUS
 62
    7
 10
-3349.2024840569402
 20
9968.1158798433553
 40
362.71881065871321
 50
108.65165821912348
 51
129.03173518611692
  0
ARC
  8
_0-1_レイヤ___3
  6
CONTINUOUS
 62
    7
 10
-3327.3314810883239
 20
9913.0129563069768
 40
421.93378546990107
 50
95.987623521749811
 51
109.07257752973085
  0
ARC
  8
_0-1_レイヤ___3
  6
CONTINUOUS
 62
    7
 10
-3316.6219409612968
 20
9838.547785320985
 40
497.11822129586727
 50
89.877020485181959
 51
96.319951906917922
  0
ARC
  8
_0-1_レイヤ___3
  6
CONTINUOUS
 62
    7
 10
-3082.9458704185172
 20
10136.627503281728
 40
100.93010227786918
 50
32.639879823897374
 51
35.497874331272577
  0
ARC
  8
_0-1_レイヤ___3
  6
CONTINUOUS
 62
    7
 10
-3171.1795401263917
 20
10074.232056271177
 40
208.99619450303595
 50
35.378224803715909
 51
41.385800620308785
  0
ARC
  8
_0-1_レイヤ___3
  6
CONTINUOUS
 62
    7
 10
-3244.7204745690146
 20
10011.582808269704
 40
305.59542888809187
 50
41.082880850402226
 51
51.23889474534996
  0
ARC
  8
_0-1_レイヤ___3
  6
CONTINUOUS
 62
    7
 10
-3281.8186368357237
 20
9968.0573796324115
 40
362.76505117262764
 50
50.973928412872894
 51
71.355597008042196
  0
ARC
  8
_0-1_レイヤ___3
  6
CONTINUOUS
 62
    7
 10
-3303.7608034280352
 20
9912.73761203084
 40
422.20788163463277
 50
70.934190704602969
 51
84.015946594012817
  0
ARC
  8
_0-1_レイヤ___3
  6
CONTINUOUS
 62
    7
 10
-3314.4884313483644
 20
9838.1757922208526
 40
497.49021243478586
 50
83.682415811803978
 51
90.1228282103406
  0
ARC
  8
_0-1_レイヤ___3
  6
CONTINUOUS
 62
    7
 10
-6834.9576104027974
 20
10144.758611797955
 40
85.687131946339932
 50
144.22233369227075
 51
147.28839169837414
  0
ARC
  8
_0-1_レイヤ___3
  6
CONTINUOUS
 62
    7
 10
-6772.3665018165402
 20
10100.105046321711
 40
162.57352260626021
 50
139.79746805851795
 51
144.35142471935831
  0
ARC
  8
_0-1_レイヤ___3
  6
CONTINUOUS
 62
    7
 10
-6716.1446876625705
 20
10053.353651080004
 40
235.69226502681684
 50
128.64561282955955
 51
139.93931535075046
  0
ARC
  8
_0-1_レイヤ___3
  6
CONTINUOUS
 62
    7
 10
-6684.3717736842755
 20
10016.65063554152
 40
284.20673230090733
 50
110.99190648966825
 51
129.02750531113131
  0
ARC
  8
_0-1_レイヤ___3
  6
CONTINUOUS
 62
    7
 10
-6666.7549979676569
 20
9975.7474653034878
 40
328.71106488204566
 50
95.239897903240603
 51
111.30471079897622
  0
ARC
  8
_0-1_レイヤ___3
  6
CONTINUOUS
 62
    7
 10
-6657.2413299848804
 20
9909.5217699453515
 40
395.54368721071808
 50
89.900565237320635
 51
95.736139417888069
  0
ARC
  8
_0-1_レイヤ___3
  6
CONTINUOUS
 62
    7
 10
-6478.1521475972031
 20
10144.758611797977
 40
85.68713194632798
 50
32.711608301614113
 51
35.777666307717489
  0
ARC
  8
_0-1_レイヤ___3
  6
CONTINUOUS
 62
    7
 10
-6540.7432561834594
 20
10100.105046321711
 40
162.57352260626021
 50
35.648575280641708
 51
40.202531941482064
  0
ARC
  8
_0-1_レイヤ___3
  6
CONTINUOUS
 62
    7
 10
-6596.9650698374298
 20
10053.353656136811
 40
235.69226138958246
 50
40.060683786625717
 51
51.354386307816618
  0
ARC
  8
_0-1_レイヤ___3
  6
CONTINUOUS
 62
    7
 10
-6628.7379833157238
 20
10016.650635541526
 40
284.20673230090097
 50
50.972494688867947
 51
69.008093510331008
  0
ARC
  8
_0-1_レイヤ___3
  6
CONTINUOUS
 62
    7
 10
-6646.3547595323425
 20
9975.7474617603402
 40
328.71106836472558
 50
68.695289344213663
 51
84.760102239949276
  0
ARC
  8
_0-1_レイヤ___3
  6
CONTINUOUS
 62
    7
 10
-6655.8684275151199
 20
9909.5217797552341
 40
395.54367739998446
 50
84.263860512151453
 51
90.099434692718887
  0
ARC
  8
_0-1_レイヤ___3
  6
CONTINUOUS
 62
    7
 10
-6333.9576174028389
 20
10237.371115202044
 40
85.687131946304817
 50
212.71160830164183
 51
215.77766630774522
  0
ARC
  8
_0-1_レイヤ___3
  6
CONTINUOUS
 62
    7
 10
-6271.3665088165408
 20
10282.024680678278
 40
162.57352260625143
 50
215.64857528063774
 51
220.20253194147807
  0
ARC
  8
_0-1_レイヤ___3
  6
CONTINUOUS
 62
    7
 10
-6215.1446951625703
 20
10328.77607086319
 40
235.69226138958246
 50
220.0606837866257
 51
231.35438630781661
  0
ARC
  8
_0-1_レイヤ___3
  6
CONTINUOUS
 62
    7
 10
-6183.3717816842764
 20
10365.479091458477
 40
284.20673230090415
 50
230.9724946888683
 51
249.00809351033138
  0
ARC
  8
_0-1_レイヤ___3
  6
CONTINUOUS
 62
    7
 10
-6165.7550054676576
 20
10406.382265239659
 40
328.71106836472171
 50
248.69528934421351
 51
264.76010223994911
  0
ARC
  8
_0-1_レイヤ___3
  6
CONTINUOUS
 62
    7
 10
-6156.2413374848802
 20
10472.607947244769
 40
395.54367739998446
 50
264.26386051215144
 51
270.09943469271889
  0
ARC
  8
_0-1_レイヤ___3
  6
CONTINUOUS
 62
    7
 10
-5977.1521550971602
 20
10237.371096519395
 40
85.687121429300191
 50
324.22234402269203
 51
327.28840202879542
  0
ARC
  8
_0-1_レイヤ___3
  6
CONTINUOUS
 62
    7
 10
-6039.743263183459
 20
10282.024680678278
 40
162.57352260625143
 50
319.79746805852193
 51
324.35142471936229
  0
ARC
  8
_0-1_レイヤ___3
  6
CONTINUOUS
 62
    7
 10
-6095.9650773374287
 20
10328.776075920003
 40
235.69226502682088
 50
308.64561282955856
 51
319.9393153507495
  0
ARC
  8
_0-1_レイヤ___3
  6
CONTINUOUS
 62
    7
 10
-6127.7379913157238
 20
10365.479091458477
 40
284.20673230090415
 50
290.99190648966862
 51
309.02750531113168
  0
ARC
  8
_0-1_レイヤ___3
  6
CONTINUOUS
 62
    7
 10
-6145.3547670323424
 20
10406.382261696517
 40
328.71106488204964
 50
275.23989790324043
 51
291.30471079897609
  0
ARC
  8
_0-1_レイヤ___3
  6
CONTINUOUS
 62
    7
 10
-6154.8684350151198
 20
10472.60795705465
 40
395.54368721071808
 50
269.90056523732062
 51
275.73613941788807
  0
ARC
  8
_0-1_レイヤ___3
  6
CONTINUOUS
 62
    7
 10
-4562.8576439027975
 20
10144.758630480626
 40
85.687121429323383
 50
144.22234402271977
 51
147.28840202882316
  0
ARC
  8
_0-1_レイヤ___3
  6
CONTINUOUS
 62
    7
 10
-4500.2665358165405
 20
10100.105046321711
 40
162.57352260626021
 50
139.79746805851795
 51
144.35142471935831
  0
ARC
  8
_0-1_レイヤ___3
  6
CONTINUOUS
 62
    7
 10
-4444.0447216625707
 20
10053.353651079999
 40
235.69226502682088
 50
128.64561282955856
 51
139.93931535074947
  0
ARC
  8
_0-1_レイヤ___3
  6
CONTINUOUS
 62
    7
 10
-4412.2718076842757
 20
10016.650635541522
 40
284.20673230090415
 50
110.99190648966862
 51
129.0275053111317
  0
ARC
  8
_0-1_レイヤ___3
  6
CONTINUOUS
 62
    7
 10
-4394.6550319676571
 20
9975.747465303486
 40
328.71106488204964
 50
95.239897903240447
 51
111.30471079897607
  0
ARC
  8
_0-1_レイヤ___3
  6
CONTINUOUS
 62
    7
 10
-4385.1413639848806
 20
9909.5217699453642
 40
395.54368721070705
 50
89.90056523732072
 51
95.73613941788814
  0
ARC
  8
_0-1_レイヤ___3
  6
CONTINUOUS
 62
    7
 10
-4206.1892611875182
 20
10144.733370282671
 40
85.731971558135825
 50
32.712410299046745
 51
35.776864310284864
  0
ARC
  8
_0-1_レイヤ___3
  6
CONTINUOUS
 62
    7
 10
-4268.8078522340775
 20
10100.054739876003
 40
162.65530541513274
 50
35.649720744070684
 51
40.201386478045109
  0
ARC
  8
_0-1_レイヤ___3
  6
CONTINUOUS
 62
    7
 10
-4325.0235368896301
 20
10053.33922448892
 40
235.74627358302268
 50
40.05422816298821
 51
51.343586766425858
  0
ARC
  8
_0-1_レイヤ___3
  6
CONTINUOUS
 62
    7
 10
-4357.5478157618109
 20
10015.621078401622
 40
285.52275923749096
 50
50.974792361685537
 51
70.765150450440316
  0
ARC
  8
_0-1_レイヤ___3
  6
CONTINUOUS
 62
    7
 10
-4375.8269770371544
 20
9970.1725065434257
 40
334.4639357459223
 50
70.373519651520297
 51
85.910519893971738
  0
ARC
  8
_0-1_レイヤ___3
  6
CONTINUOUS
 62
    7
 10
-4383.9992004674614
 20
9903.8985793447791
 40
401.16654099226736
 50
85.421325868018101
 51
90.065086140256781
  0
ARC
  8
_0-1_レイヤ___3
  6
CONTINUOUS
 62
    7
 10
-4061.8622254001116
 20
10237.436075383321
 40
85.802528749285102
 50
212.71367058105758
 51
215.7756040283295
  0
ARC
  8
_0-1_レイヤ___3
  6
CONTINUOUS
 62
    7
 10
-3999.1870760191214
 20
10282.286544738772
 40
162.87201205520844
 50
215.68663731110288
 51
220.23440846731762
  0
ARC
  8
_0-1_レイヤ___3
  6
CONTINUOUS
 62
    7
 10
-3942.9175568337532
 20
10329.089688295313
 40
236.06034213028335
 50
220.0850184249372
 51
231.36454602664637
  0
ARC
  8
_0-1_レイヤ___3
  6
CONTINUOUS
 62
    7
 10
-3910.3895361090076
 20
10366.825234270487
 40
285.8521394627619
 50
230.99411895665307
 51
250.76855345956992
  0
ARC
  8
_0-1_レイヤ___3
  6
CONTINUOUS
 62
    7
 10
-3892.1624755039556
 20
10412.175246068236
 40
334.68285969358692
 50
250.37954526170159
 51
265.90970154733179
  0
ARC
  8
_0-1_レイヤ___3
  6
CONTINUOUS
 62
    7
 10
-3884.0090733106636
 20
10478.2707129091
 40
401.2061044525978
 50
265.42155495706544
 51
270.06485705120957
  0
ARC
  8
_0-1_レイヤ___3
  6
CONTINUOUS
 62
    7
 10
-3705.1521885971601
 20
10237.371115202024
 40
85.687131946292851
 50
324.22233369226649
 51
327.28839169836988
  0
ARC
  8
_0-1_レイヤ___3
  6
CONTINUOUS
 62
    7
 10
-3767.7432971834596
 20
10282.024680678292
 40
162.57352260626021
 50
319.79746805851795
 51
324.35142471935831
  0
ARC
  8
_0-1_レイヤ___3
  6
CONTINUOUS
 62
    7
 10
-3823.9651113374293
 20
10328.776075920003
 40
235.69226502682088
 50
308.64561282955856
 51
319.9393153507495
  0
ARC
  8
_0-1_レイヤ___3
  6
CONTINUOUS
 62
    7
 10
-3855.7380253157235
 20
10365.479091458477
 40
284.20673230090415
 50
290.99190648966862
 51
309.02750531113168
  0
ARC
  8
_0-1_レイヤ___3
  6
CONTINUOUS
 62
    7
 10
-3873.354801032342
 20
10406.382261696512
 40
328.71106488204566
 50
275.2398979032406
 51
291.3047107989762
  0
ARC
  8
_0-1_レイヤ___3
  6
CONTINUOUS
 62
    7
 10
-3882.8684690151194
 20
10472.60795705465
 40
395.54368721071808
 50
269.90056523732062
 51
275.73613941788807
  0
ARC
  8
_0-1_レイヤ___3
  6
CONTINUOUS
 62
    7
 10
-2290.8576774027965
 20
10144.758611797966
 40
85.687131946333949
 50
144.22233369227664
 51
147.28839169838002
  0
ARC
  8
_0-1_レイヤ___3
  6
CONTINUOUS
 62
    7
 10
-2228.2665688165407
 20
10100.105046321725
 40
162.57352260625143
 50
139.79746805852193
 51
144.35142471936226
  0
ARC
  8
_0-1_レイヤ___3
  6
CONTINUOUS
 62
    7
 10
-2172.0447551625703
 20
10053.353656136807
 40
235.69226138958453
 50
128.64561369218288
 51
139.93931621337379
  0
ARC
  8
_0-1_レイヤ___3
  6
CONTINUOUS
 62
    7
 10
-2140.2718416842758
 20
10016.650635541526
 40
284.20673230090256
 50
110.99190648966881
 51
129.02750531113188
  0
ARC
  8
_0-1_レイヤ___3
  6
CONTINUOUS
 62
    7
 10
-2122.6550654676571
 20
9975.747461760342
 40
328.71106836472364
 50
95.239897760050809
 51
111.30471065578642
  0
ARC
  8
_0-1_レイヤ___3
  6
CONTINUOUS
 62
    7
 10
-2113.1413974848801
 20
9909.5217797552341
 40
395.54367739998446
 50
89.900565307281127
 51
95.736139487848547
  0
ARC
  8
_0-1_レイヤ___3
  6
CONTINUOUS
 62
    7
 10
-1934.0522155972035
 20
10144.758611797955
 40
85.687131946339932
 50
32.711608301625859
 51
35.777666307729241
  0
ARC
  8
_0-1_レイヤ___3
  6
CONTINUOUS
 62
    7
 10
-1996.6433241834598
 20
10100.105046321725
 40
162.57352260625143
 50
35.648575280637729
 51
40.202531941478085
  0
ARC
  8
_0-1_レイヤ___3
  6
CONTINUOUS
 62
    7
 10
-2052.8651378374298
 20
10053.353656136811
 40
235.69226138958246
 50
40.060683786625717
 51
51.354386307816618
  0
ARC
  8
_0-1_レイヤ___3
  6
CONTINUOUS
 62
    7
 10
-2084.6380513157237
 20
10016.650635541526
 40
284.20673230090256
 50
50.972494688868125
 51
69.008093510331193
  0
ARC
  8
_0-1_レイヤ___3
  6
CONTINUOUS
 62
    7
 10
-2102.2548275323425
 20
9975.747461760342
 40
328.71106836472364
 50
68.695289344213577
 51
84.760102239949205
  0
ARC
  8
_0-1_レイヤ___3
  6
CONTINUOUS
 62
    7
 10
-2111.7684955151199
 20
9909.5217797552286
 40
395.54367739998997
 50
84.263860512151496
 51
90.09943469271893
  0
ARC
  8
_0-1_レイヤ___3
  6
CONTINUOUS
 62
    7
 10
-1789.8576854028386
 20
10237.371115202044
 40
85.687131946304817
 50
212.71160830164183
 51
215.77766630774522
  0
ARC
  8
_0-1_レイヤ___3
  6
CONTINUOUS
 62
    7
 10
-1727.2665768165405
 20
10282.024680678269
 40
162.57352260624702
 50
215.64857528063575
 51
220.20253194147608
  0
ARC
  8
_0-1_レイヤ___3
  6
CONTINUOUS
 62
    7
 10
-1671.0447626625705
 20
10328.776075920005
 40
235.69226502682301
 50
220.06068464925102
 51
231.35438717044192
  0
ARC
  8
_0-1_レイヤ___3
  6
CONTINUOUS
 62
    7
 10
-1639.2718491842761
 20
10365.479088307937
 40
284.20672953857877
 50
230.9724943672266
 51
249.00809318868966
  0
ARC
  8
_0-1_レイヤ___3
  6
CONTINUOUS
 62
    7
 10
-1621.6550734676571
 20
10406.382265239659
 40
328.71106836472364
 50
248.69528934421356
 51
264.76010223994922
  0
ARC
  8
_0-1_レイヤ___3
  6
CONTINUOUS
 62
    7
 10
-1612.1414054848799
 20
10472.607947244769
 40
395.54367739998446
 50
264.26386051215144
 51
270.09943469271889
  0
ARC
  8
_0-1_レイヤ___3
  6
CONTINUOUS
 62
    7
 10
-1433.0522225971606
 20
10237.371115202033
 40
85.68713194629882
 50
324.22233369226063
 51
327.28839169836402
  0
ARC
  8
_0-1_レイヤ___3
  6
CONTINUOUS
 62
    7
 10
-1495.6433311834594
 20
10282.024680678278
 40
162.57352260625143
 50
319.79746805852193
 51
324.35142471936229
  0
ARC
  8
_0-1_レイヤ___3
  6
CONTINUOUS
 62
    7
 10
-1551.8651453374298
 20
10328.77607592001
 40
235.69226502682505
 50
308.64561282955759
 51
319.93931535074847
  0
ARC
  8
_0-1_レイヤ___3
  6
CONTINUOUS
 62
    7
 10
-1583.6380588157244
 20
10365.479088307933
 40
284.20672953857724
 50
290.99190681131051
 51
309.02750563277357
  0
ARC
  8
_0-1_レイヤ___3
  6
CONTINUOUS
 62
    7
 10
-1601.2548345323426
 20
10406.382265239659
 40
328.71106836472171
 50
275.23989776005089
 51
291.30471065578649
  0
ARC
  8
_0-1_レイヤ___3
  6
CONTINUOUS
 62
    7
 10
-1610.7685030151197
 20
10472.60795705465
 40
395.54368721071808
 50
269.90056523732062
 51
275.73613941788807
  0
ARC
  8
_0-1_レイヤ___3
  6
CONTINUOUS
 62
    7
 10
-640.93049659558972
 20
10245.524901377827
 40
100.9705718426374
 50
212.64045269264682
 51
215.49730146255212
  0
ARC
  8
_0-1_レイヤ___3
  6
CONTINUOUS
 62
    7
 10
-552.66785194392128
 20
10307.947182752345
 40
209.0758271115559
 50
215.37936993240547
 51
221.38465549162268
  0
ARC
  8
_0-1_レイヤ___3
  6
CONTINUOUS
 62
    7
 10
-479.13235423571393
 20
10370.555274237853
 40
305.6439400285019
 50
221.07703081915608
 51
231.23007117872271
  0
ARC
  8
_0-1_レイヤ___3
  6
CONTINUOUS
 62
    7
 10
-442.10252755693944
 20
10414.013849938307
 40
362.7188131343749
 50
230.96826502924114
 51
251.34834199623455
  0
ARC
  8
_0-1_レイヤ___3
  6
CONTINUOUS
 62
    7
 10
-420.23152458832328
 20
10469.11676633332
 40
421.93378118613771
 50
250.92742234098728
 51
264.01237634896836
  0
ARC
  8
_0-1_レイヤ___3
  6
CONTINUOUS
 62
    7
 10
-409.52198446129643
 20
10543.581950562448
 40
497.11823018035136
 50
263.68004814851218
 51
270.12297957024816
  0
ARC
  8
_0-1_レイヤ___3
  6
CONTINUOUS
 62
    7
 10
-175.84591341847215
 20
10245.502223718271
 40
100.93010227783145
 50
324.50212566871295
 51
327.36012017608812
  0
ARC
  8
_0-1_レイヤ___3
  6
CONTINUOUS
 62
    7
 10
-264.07958312639153
 20
10307.897670728826
 40
208.9961945030376
 50
318.6141993796906
 51
324.62177519628352
  0
ARC
  8
_0-1_レイヤ___3
  6
CONTINUOUS
 62
    7
 10
-337.62051756901485
 20
10370.546918730302
 40
305.59542888809415
 50
308.76110525464964
 51
318.91711914959734
  0
ARC
  8
_0-1_レイヤ___3
  6
CONTINUOUS
 62
    7
 10
-374.71868033572463
 20
10414.072350149027
 40
362.76505364824902
 50
288.6444027766882
 51
309.02607137185748
  0
ARC
  8
_0-1_レイヤ___3
  6
CONTINUOUS
 62
    7
 10
-396.6608469280348
 20
10469.392110608376
 40
422.20787734973584
 50
275.98405353516426
 51
289.06580942457413
  0
ARC
  8
_0-1_レイヤ___3
  6
CONTINUOUS
 62
    7
 10
-407.38847434836458
 20
10543.953934779156
 40
497.49021243479353
 50
269.87717178965937
 51
276.31758418819595
  0
ARC
  8
_0-1_レイヤ___3
  6
CONTINUOUS
 62
    7
 10
-1276.0226190732164
 20
10136.86405511169
 40
100.7533113132661
 50
144.59559624777009
 51
147.4554239348
  0
ARC
  8
_0-1_レイヤ___3
  6
CONTINUOUS
 62
    7
 10
-1187.8515067695196
 20
10074.411363475117
 40
208.80176608438217
 50
138.63276352575733
 51
144.64423277713425
  0
ARC
  8
_0-1_レイヤ___3
  6
CONTINUOUS
 62
    7
 10
-1114.3625214196113
 20
10011.8442922704
 40
305.30820552446175
 50
128.77234981341056
 51
138.93522570002384
  0
ARC
  8
_0-1_レイヤ___3
  6
CONTINUOUS
 62
    7
 10
-1077.2630257264518
 20
9968.3715807244535
 40
362.43800051855146
 50
108.64653596687239
 51
129.04116488951158
  0
ARC
  8
_0-1_レイヤ___3
  6
CONTINUOUS
 62
    7
 10
-1055.2727247403093
 20
9912.976211014502
 40
421.96811857703125
 50
95.984238880830361
 51
109.07079194618402
  0
ARC
  8
_0-1_レイヤ___3
  6
CONTINUOUS
 62
    7
 10
-1044.5243282788269
 20
9838.2288048303435
 40
497.43720610568312
 50
89.876828286418601
 51
96.317927691436694
  0
ARC
  8
_0-1_レイヤ___3
  6
CONTINUOUS
 62
    7
 10
-810.8873059267836
 20
10136.864055111695
 40
100.75331131326293
 50
32.544576065197333
 51
35.404403752227225
  0
ARC
  8
_0-1_レイヤ___3
  6
CONTINUOUS
 62
    7
 10
-899.05841773048019
 20
10074.411372997445
 40
208.80176016648454
 50
35.355765171199238
 51
41.367234422576153
  0
ARC
  8
_0-1_レイヤ___3
  6
CONTINUOUS
 62
    7
 10
-972.5474030803889
 20
10011.84428664744
 40
305.30820959523527
 50
41.064775033949324
 51
51.22765092056261
  0
ARC
  8
_0-1_レイヤ___3
  6
CONTINUOUS
 62
    7
 10
-1009.6468992735483
 20
9968.3715807244535
 40
362.43800051855209
 50
50.958835110488486
 51
71.353464033127693
  0
ARC
  8
_0-1_レイヤ___3
  6
CONTINUOUS
 62
    7
 10
-1031.6372002596906
 20
9912.9762110145039
 40
421.96811857702994
 50
70.929208053815955
 51
84.015761119169611
  0
ARC
  8
_0-1_レイヤ___3
  6
CONTINUOUS
 62
    7
 10
-1042.385596721173
 20
9838.2288048303435
 40
497.43720610568312
 50
83.682072308563306
 51
90.123171713581399
  0
ARC
  8
_0-1_レイヤ___3
  6
CONTINUOUS
 62
    7
 10
-18.757711402796531
 20
10144.758611797961
 40
85.687131946336947
 50
144.22233369227371
 51
147.2883916983771
  0
ARC
  8
_0-1_レイヤ___3
  6
CONTINUOUS
 62
    7
 10
43.83339718345951
 20
10100.105046321722
 40
162.57352260625362
 50
139.79746805852093
 51
144.35142471936129
  0
ARC
  8
_0-1_レイヤ___3
  6
CONTINUOUS
 62
    7
 10
100.05521083742991
 20
10053.353656136809
 40
235.69226138958345
 50
128.64561369218313
 51
139.93931621337404
  0
ARC
  8
_0-1_レイヤ___3
  6
CONTINUOUS
 62
    7
 10
131.82812431572415
 20
10016.650635541526
 40
284.20673230090256
 50
110.99190648966881
 51
129.02750531113188
  0
ARC
  8
_0-1_レイヤ___3
  6
CONTINUOUS
 62
    7
 10
149.4449005323429
 20
9975.7474617603439
 40
328.71106836472256
 50
95.239897760050852
 51
111.30471065578647
  0
ARC
  8
_0-1_レイヤ___3
  6
CONTINUOUS
 62
    7
 10
158.95856851511979
 20
9909.5217797552305
 40
395.54367739998719
 50
89.900565307281099
 51
95.736139487848533
  0
ARC
  8
_0-1_レイヤ___3
  6
CONTINUOUS
 62
    7
 10
337.95232440006856
 20
10144.693651616688
 40
85.802528749315769
 50
32.713670581037185
 51
35.77560402830909
  0
ARC
  8
_0-1_レイヤ___3
  6
CONTINUOUS
 62
    7
 10
275.27717551912218
 20
10099.843194853276
 40
162.87200430350629
 50
35.686633815836018
 51
40.234404972050754
  0
ARC
  8
_0-1_レイヤ___3
  6
CONTINUOUS
 62
    7
 10
219.00765633375315
 20
10053.040033641475
 40
236.0603457731514
 50
40.085019287030654
 51
51.364546888739845
  0
ARC
  8
_0-1_レイヤ___3
  6
CONTINUOUS
 62
    7
 10
186.47963510900809
 20
10015.304492729518
 40
285.85213946276093
 50
50.994118956652962
 51
70.768553459569802
  0
ARC
  8
_0-1_レイヤ___3
  6
CONTINUOUS
 62
    7
 10
168.25257500395566
 20
9969.954484598471
 40
334.68285607188528
 50
70.379545131548312
 51
85.909701417178496
  0
ARC
  8
_0-1_レイヤ___3
  6
CONTINUOUS
 62
    7
 10
160.0991728106635
 20
9903.859001758221
 40
401.20611678583725
 50
85.421555026476128
 51
90.064857120620218
  0
ARC
  8
_0-1_レイヤ___3
  6
CONTINUOUS
 62
    7
 10
482.27936018747573
 20
10237.396356717345
 40
85.731971558109663
 50
212.71241029907154
 51
215.77686431030966
  0
ARC
  8
_0-1_レイヤ___3
  6
CONTINUOUS
 62
    7
 10
544.89795123407805
 20
10282.074987124
 40
162.65530541513496
 50
215.64972074407166
 51
220.20138647804609
  0
ARC
  8
_0-1_レイヤ___3
  6
CONTINUOUS
 62
    7
 10
601.11363638963041
 20
10328.790507569851
 40
235.74627722112217
 50
220.05422902587941
 51
231.34358762931706
  0
ARC
  8
_0-1_レイヤ___3
  6
CONTINUOUS
 62
    7
 10
633.63791526181126
 20
10366.508645732083
 40
285.52275669592325
 50
230.9747920774642
 51
250.76515016621897
  0
ARC
  8
_0-1_レイヤ___3
  6
CONTINUOUS
 62
    7
 10
651.91707603715417
 20
10411.957220456574
 40
334.46393574591974
 50
250.37351965152021
 51
265.91051989397164
  0
ARC
  8
_0-1_レイヤ___3
  6
CONTINUOUS
 62
    7
 10
660.08929996746156
 20
10478.231159986703
 40
401.16655332430651
 50
265.42132593742883
 51
270.06508620966753
  0
ARC
  8
_0-1_レイヤ___3
  6
CONTINUOUS
 62
    7
 10
838.94774340283914
 20
10237.371115202037
 40
85.687131946301065
 50
324.22233369225842
 51
327.28839169836181
  0
ARC
  8
_0-1_レイヤ___3
  6
CONTINUOUS
 62
    7
 10
776.3566348165408
 20
10282.024680678278
 40
162.57352260625197
 50
319.79746805852164
 51
324.351424719362
  0
ARC
  8
_0-1_レイヤ___3
  6
CONTINUOUS
 62
    7
 10
720.13482116257035
 20
10328.77607086319
 40
235.69226138958373
 50
308.64561369218308
 51
319.93931621337396
  0
ARC
  8
_0-1_レイヤ___3
  6
CONTINUOUS
 62
    7
 10
688.36190768427605
 20
10365.479091458476
 40
284.20673230090233
 50
290.99190648966885
 51
309.0275053111319
  0
ARC
  8
_0-1_レイヤ___3
  6
CONTINUOUS
 62
    7
 10
670.7451314676573
 20
10406.382265239659
 40
328.71106836472325
 50
275.23989776005084
 51
291.30471065578644
  0
ARC
  8
_0-1_レイヤ___3
  6
CONTINUOUS
 62
    7
 10
661.23146348488046
 20
10472.607947244771
 40
395.54367739998719
 50
269.90056530728111
 51
275.7361394878485
  0
ARC
  8
_0-1_レイヤ___3
  6
CONTINUOUS
 62
    7
 10
1631.0773369267383
 20
10245.265671888308
 40
100.75331131322702
 50
212.54457606521339
 51
215.4044037522433
  0
ARC
  8
_0-1_レイヤ___3
  6
CONTINUOUS
 62
    7
 10
1719.2484492304802
 20
10307.718363524884
 40
208.80176608438285
 50
215.35576722286598
 51
221.3672364742429
  0
ARC
  8
_0-1_レイヤ___3
  6
CONTINUOUS
 62
    7
 10
1792.7374350803889
 20
10370.285440352563
 40
305.30820959523629
 50
221.06477503394947
 51
231.22765092056275
  0
ARC
  8
_0-1_レイヤ___3
  6
CONTINUOUS
 62
    7
 10
1829.8369312735485
 20
10413.75814627555
 40
362.43800051855175
 50
230.95883511048842
 51
251.35346403312764
  0
ARC
  8
_0-1_レイヤ___3
  6
CONTINUOUS
 62
    7
 10
1851.8272322596908
 20
10469.153515985499
 40
421.96811857703062
 50
250.92920805381596
 51
264.01576111916961
  0
ARC
  8
_0-1_レイヤ___3
  6
CONTINUOUS
 62
    7
 10
1862.5756287211732
 20
10543.90092216966
 40
497.43720610568437
 50
263.68207230856331
 51
270.12317171358143
  0
ARC
  8
_0-1_レイヤ___3
  6
CONTINUOUS
 62
    7
 10
2096.2126510732619
 20
10245.26567188831
 40
100.75331131322829
 50
324.59559624775562
 51
327.45542393478553
  0
ARC
  8
_0-1_レイヤ___3
  6
CONTINUOUS
 62
    7
 10
2008.0415387695198
 20
10307.718363524888
 40
208.8017660843839
 50
318.63276352575673
 51
324.64423277713365
  0
ARC
  8
_0-1_レイヤ___3
  6
CONTINUOUS
 62
    7
 10
1934.5525534196111
 20
10370.285434729602
 40
305.30820552446175
 50
308.77234981341053
 51
318.93522570002381
  0
ARC
  8
_0-1_レイヤ___3
  6
CONTINUOUS
 62
    7
 10
1897.4530572264518
 20
10413.758149055178
 40
362.43800299241167
 50
288.64653575148515
 51
309.04116467412439
  0
ARC
  8
_0-1_レイヤ___3
  6
CONTINUOUS
 62
    7
 10
1875.4627562403095
 20
10469.153511626333
 40
421.96811429374577
 50
275.9842390100597
 51
289.07079207541335
  0
ARC
  8
_0-1_レイヤ___3
  6
CONTINUOUS
 62
    7
 10
1864.7143602788269
 20
10543.900922169654
 40
497.43720610568181
 50
269.87682828641857
 51
276.31792769143669
  0
ARC
  8
_0-1_レイヤ___3
  6
CONTINUOUS
 62
    7
 10
996.0359454185176
 20
10136.627503281727
 40
100.93010227787077
 50
144.50212566872608
 51
147.3601201761013
  0
ARC
  8
_0-1_レイヤ___3
  6
CONTINUOUS
 62
    7
 10
1084.269615126392
 20
10074.232056271174
 40
208.99619450303848
 50
138.61419937969035
 51
144.62177519628324
  0
ARC
  8
_0-1_レイヤ___3
  6
CONTINUOUS
 62
    7
 10
1157.8105495690149
 20
10011.582808269703
 40
305.59542888809329
 50
128.76110525464975
 51
138.91711914959751
  0
ARC
  8
_0-1_レイヤ___3
  6
CONTINUOUS
 62
    7
 10
1194.9087118357247
 20
9968.0573796324115
 40
362.76505117262718
 50
108.64440299195788
 51
129.02607158712718
  0
ARC
  8
_0-1_レイヤ___3
  6
CONTINUOUS
 62
    7
 10
1216.8508784280348
 20
9912.7376120308472
 40
422.20788163462692
 50
95.984053405987382
 51
109.06580929539723
  0
ARC
  8
_0-1_レイヤ___3
  6
CONTINUOUS
 62
    7
 10
1227.5785063483647
 20
9838.1757922208417
 40
497.49021243479706
 50
89.877171789659343
 51
96.317584188195951
  0
ARC
  8
_0-1_レイヤ___3
  6
CONTINUOUS
 62
    7
 10
1461.1205275955444
 20
10136.604825622167
 40
100.97057184267894
 50
32.640452692635513
 51
35.497301462540811
  0
ARC
  8
_0-1_レイヤ___3
  6
CONTINUOUS
 62
    7
 10
1372.8578834439213
 20
10074.182553779814
 40
209.07582118488511
 50
35.379367881899604
 51
41.384653441116832
  0
ARC
  8
_0-1_レイヤ___3
  6
CONTINUOUS
 62
    7
 10
1299.3223857357139
 20
10011.574447133708
 40
305.64394410371193
 50
41.077031552933882
 51
51.230071912500513
  0
ARC
  8
_0-1_レイヤ___3
  6
CONTINUOUS
 62
    7
 10
1262.2925590569398
 20
9968.1158798433516
 40
362.71881065871497
 50
50.968264813883259
 51
71.34834178087668
  0
ARC
  8
_0-1_レイヤ___3
  6
CONTINUOUS
 62
    7
 10
1240.4215560883235
 20
9913.0129563069768
 40
421.93378546990107
 50
70.92742247026915
 51
84.012376478250204
  0
ARC
  8
_0-1_レイヤ___3
  6
CONTINUOUS
 62
    7
 10
1229.7120159612969
 20
9838.5477853209923
 40
497.11822129585903
 50
83.680048093082036
 51
90.122979514817999
  0
ARC
  8
_0-1_レイヤ___3
  6
CONTINUOUS
 62
    7
 10
2253.2422545972036
 20
10144.758611797966
 40
85.687131946333949
 50
144.22233369227664
 51
147.28839169838002
  0
ARC
  8
_0-1_レイヤ___3
  6
CONTINUOUS
 62
    7
 10
2315.8333631834594
 20
10100.105046321722
 40
162.57352260625362
 50
139.79746805852093
 51
144.35142471936129
  0
ARC
  8
_0-1_レイヤ___3
  6
CONTINUOUS
 62
    7
 10
2372.0551768374298
 20
10053.353656136809
 40
235.69226138958345
 50
128.64561369218313
 51
139.93931621337404
  0
ARC
  8
_0-1_レイヤ___3
  6
CONTINUOUS
 62
    7
 10
2403.8280903157242
 20
10016.650635541526
 40
284.20673230090256
 50
110.99190648966881
 51
129.02750531113188
  0
ARC
  8
_0-1_レイヤ___3
  6
CONTINUOUS
 62
    7
 10
2421.444866532343
 20
9975.747461760342
 40
328.71106836472364
 50
95.239897760050809
 51
111.30471065578642
  0
ARC
  8
_0-1_レイヤ___3
  6
CONTINUOUS
 62
    7
 10
2430.9585345151199
 20
9909.5217797552323
 40
395.54367739998577
 50
89.900565307281113
 51
95.736139487848533
  0
ARC
  8
_0-1_レイヤ___3
  6
CONTINUOUS
 62
    7
 10
2610.0477174027969
 20
10144.758611797966
 40
85.687131946333949
 50
32.711608301619982
 51
35.777666307723365
  0
ARC
  8
_0-1_レイヤ___3
  6
CONTINUOUS
 62
    7
 10
2547.4566088165411
 20
10100.105046321722
 40
162.57352260625362
 50
35.648575280638724
 51
40.202531941479087
  0
ARC
  8
_0-1_レイヤ___3
  6
CONTINUOUS
 62
    7
 10
2491.2347946625705
 20
10053.353651079997
 40
235.69226502682244
 50
40.060684649250895
 51
51.354387170441797
  0
ARC
  8
_0-1_レイヤ___3
  6
CONTINUOUS
 62
    7
 10
2459.4618806842759
 20
10016.650635541524
 40
284.20673230090301
 50
50.972494688868174
 51
69.00809351033125
  0
ARC
  8
_0-1_レイヤ___3
  6
CONTINUOUS
 62
    7
 10
2441.8451049676569
 20
9975.7474653034842
 40
328.71106488205066
 50
68.695289201023982
 51
84.760102096759596
  0
ARC
  8
_0-1_レイヤ___3
  6
CONTINUOUS
 62
    7
 10
2432.3314369848804
 20
9909.5217699453588
 40
395.5436872107112
 50
84.263860582111889
 51
90.099434762679323
  0
ARC
  8
_0-1_レイヤ___3
  6
CONTINUOUS
 62
    7
 10
2754.242247097161
 20
10237.371096519384
 40
85.687121429294223
 50
212.7115979711987
 51
215.77765597730209
  0
ARC
  8
_0-1_レイヤ___3
  6
CONTINUOUS
 62
    7
 10
2816.8333551834594
 20
10282.024680678278
 40
162.57352260625251
 50
215.64857528063823
 51
220.20253194147855
  0
ARC
  8
_0-1_レイヤ___3
  6
CONTINUOUS
 62
    7
 10
2873.05516933743
 20
10328.776075920005
 40
235.69226502682244
 50
220.06068464925087
 51
231.35438717044178
  0
ARC
  8
_0-1_レイヤ___3
  6
CONTINUOUS
 62
    7
 10
2904.8280833157241
 20
10365.479091458477
 40
284.20673230090335
 50
230.97249468886821
 51
249.00809351033129
  0
ARC
  8
_0-1_レイヤ___3
  6
CONTINUOUS
 62
    7
 10
2922.4448590323432
 20
10406.382261696517
 40
328.71106488204964
 50
248.69528920102391
 51
264.76010209675957
  0
ARC
  8
_0-1_レイヤ___3
  6
CONTINUOUS
 62
    7
 10
2931.9585270151197
 20
10472.607957054643
 40
395.54368721071256
 50
264.26386058211187
 51
270.09943476267932
  0
ARC
  8
_0-1_レイヤ___3
  6
CONTINUOUS
 62
    7
 10
3111.0477094028392
 20
10237.371115202039
 40
85.687131946301804
 50
324.22233369225773
 51
327.28839169836107
  0
ARC
  8
_0-1_レイヤ___3
  6
CONTINUOUS
 62
    7
 10
3048.4566008165402
 20
10282.024680678278
 40
162.57352260625143
 50
319.79746805852193
 51
324.35142471936229
  0
ARC
  8
_0-1_レイヤ___3
  6
CONTINUOUS
 62
    7
 10
2992.2347871625702
 20
10328.77607086319
 40
235.69226138958345
 50
308.64561369218313
 51
319.93931621337401
  0
ARC
  8
_0-1_レイヤ___3
  6
CONTINUOUS
 62
    7
 10
2960.4618736842758
 20
10365.479091458477
 40
284.20673230090335
 50
290.99190648966874
 51
309.02750531113179
  0
ARC
  8
_0-1_レイヤ___3
  6
CONTINUOUS
 62
    7
 10
2942.8450974676571
 20
10406.382265239659
 40
328.71106836472256
 50
275.23989776005084
 51
291.30471065578644
  0
ARC
  8
_0-1_レイヤ___3
  6
CONTINUOUS
 62
    7
 10
2933.3314294848797
 20
10472.607947244771
 40
395.54367739998719
 50
269.90056530728111
 51
275.7361394878485
  0
ARC
  8
_0-1_レイヤ___3
  6
CONTINUOUS
 62
    7
 10
3903.1359024184721
 20
10245.502223718282
 40
100.9301022778378
 50
212.6398798239172
 51
215.49787433129242
  0
ARC
  8
_0-1_レイヤ___3
  6
CONTINUOUS
 62
    7
 10
3991.3695716263919
 20
10307.897661200306
 40
208.99618857862353
 50
215.37822275321037
 51
221.38579856980323
  0
ARC
  8
_0-1_レイヤ___3
  6
CONTINUOUS
 62
    7
 10
4064.9105060690144
 20
10370.546924357084
 40
305.59543296261558
 50
221.08288158398486
 51
231.23889547893262
  0
ARC
  8
_0-1_レイヤ___3
  6
CONTINUOUS
 62
    7
 10
4102.0086688357251
 20
10414.07234736759
 40
362.76505117262622
 50
230.97392841287277
 51
251.35559700804205
  0
ARC
  8
_0-1_レイヤ___3
  6
CONTINUOUS
 62
    7
 10
4123.9508354280351
 20
10469.392114969156
 40
422.20788163462777
 50
250.93419070460283
 51
264.01594659401269
  0
ARC
  8
_0-1_レイヤ___3
  6
CONTINUOUS
 62
    7
 10
4134.6784633483649
 20
10543.953934779158
 40
497.49021243479604
 50
263.68241581180405
 51
270.12282821034069
  0
ARC
  8
_0-1_レイヤ___3
  6
CONTINUOUS
 62
    7
 10
4368.2204845955894
 20
10245.524901377848
 40
100.97057184265014
 50
324.50269853743714
 51
327.35954730734244
  0
ARC
  8
_0-1_レイヤ___3
  6
CONTINUOUS
 62
    7
 10
4279.9578399439215
 20
10307.947182752338
 40
209.07582711155086
 50
318.61534450837905
 51
324.62063006759627
  0
ARC
  8
_0-1_レイヤ___3
  6
CONTINUOUS
 62
    7
 10
4206.4223422357136
 20
10370.555274237853
 40
305.6439400285019
 50
308.76992882127729
 51
318.92296918084389
  0
ARC
  8
_0-1_レイヤ___3
  6
CONTINUOUS
 62
    7
 10
4169.3925160569397
 20
10414.01384715665
 40
362.71881065871611
 50
288.65165821912319
 51
309.03173518611663
  0
ARC
  8
_0-1_レイヤ___3
  6
CONTINUOUS
 62
    7
 10
4147.5215130883234
 20
10469.116770693026
 40
421.93378546990107
 50
275.98762352174981
 51
289.07257752973084
  0
ARC
  8
_0-1_レイヤ___3
  6
CONTINUOUS
 62
    7
 10
4136.8119729612963
 20
10543.581941679005
 40
497.11822129585721
 50
269.87702048518202
 51
276.31995190691799
  0
ARC
  8
_0-1_レイヤ___3
  6
CONTINUOUS
 62
    7
 10
3268.0773129267836
 20
10136.864055111695
 40
100.75331131326293
 50
144.59559624777279
 51
147.4554239348027
  0
ARC
  8
_0-1_レイヤ___3
  6
CONTINUOUS
 62
    7
 10
3356.2484252304803
 20
10074.411363475112
 40
208.80176608438552
 50
138.63276352575616
 51
144.64423277713306
  0
ARC
  8
_0-1_レイヤ___3
  6
CONTINUOUS
 62
    7
 10
3429.7374105803892
 20
10011.8442922704
 40
305.30820552446175
 50
128.77234981341056
 51
138.93522570002384
  0
ARC
  8
_0-1_レイヤ___3
  6
CONTINUOUS
 62
    7
 10
3466.8369067735489
 20
9968.371577944823
 40
362.43800299241201
 50
108.64653575148515
 51
129.04116467412436
  0
ARC
  8
_0-1_レイヤ___3
  6
CONTINUOUS
 62
    7
 10
3488.8272077596912
 20
9912.9762153736719
 40
421.96811429374492
 50
95.984239010059753
 51
109.07079207541342
  0
ARC
  8
_0-1_レイヤ___3
  6
CONTINUOUS
 62
    7
 10
3499.5756037211731
 20
9838.2288048303435
 40
497.43720610568312
 50
89.876828286418601
 51
96.317927691436694
  0
ARC
  8
_0-1_レイヤ___3
  6
CONTINUOUS
 62
    7
 10
3733.2126270732165
 20
10136.864055111695
 40
100.75331131326293
 50
32.544576065197333
 51
35.404403752227225
  0
ARC
  8
_0-1_レイヤ___3
  6
CONTINUOUS
 62
    7
 10
3645.0415147695194
 20
10074.411363475116
 40
208.8017660843839
 50
35.355767222866348
 51
41.367236474243263
  0
ARC
  8
_0-1_レイヤ___3
  6
CONTINUOUS
 62
    7
 10
3571.5525289196112
 20
10011.844286647438
 40
305.30820959523646
 50
41.064775033949537
 51
51.227650920562823
  0
ARC
  8
_0-1_レイヤ___3
  6
CONTINUOUS
 62
    7
 10
3534.4530327264515
 20
9968.3715807244535
 40
362.43800051855209
 50
50.958835110488486
 51
71.353464033127693
  0
ARC
  8
_0-1_レイヤ___3
  6
CONTINUOUS
 62
    7
 10
3512.4627317403092
 20
9912.9762110145057
 40
421.96811857702875
 50
70.929208053815913
 51
84.015761119169582
  0
ARC
  8
_0-1_レイヤ___3
  6
CONTINUOUS
 62
    7
 10
3501.7143352788275
 20
9838.2288048303417
 40
497.43720610568568
 50
83.682072308563335
 51
90.123171713581428
  0
ARC
  8
_0-1_レイヤ___3
  6
CONTINUOUS
 62
    7
 10
4525.3422205972038
 20
10144.758611797966
 40
85.687131946333949
 50
144.22233369227664
 51
147.28839169838002
  0
ARC
  8
_0-1_レイヤ___3
  6
CONTINUOUS
 62
    7
 10
4587.9333291834591
 20
10100.105046321731
 40
162.57352260624702
 50
139.79746805852392
 51
144.35142471936425
  0
ARC
  8
_0-1_レイヤ___3
  6
CONTINUOUS
 62
    7
 10
4644.1551428374296
 20
10053.353656136806
 40
235.69226138958658
 50
128.64561369218239
 51
139.9393162133733
  0
ARC
  8
_0-1_レイヤ___3
  6
CONTINUOUS
 62
    7
 10
4675.9280563157245
 20
10016.650635541526
 40
284.20673230090256
 50
110.99190648966881
 51
129.02750531113188
  0
ARC
  8
_0-1_レイヤ___3
  6
CONTINUOUS
 62
    7
 10
4693.5448325323432
 20
9975.7474617603439
 40
328.71106836472171
 50
95.23989776005088
 51
111.30471065578651
  0
ARC
  8
_0-1_レイヤ___3
  6
CONTINUOUS
 62
    7
 10
4703.0585005151197
 20
9909.5217797552341
 40
395.54367739998446
 50
89.900565307281127
 51
95.736139487848547
  0
ARC
  8
_0-1_レイヤ___3
  6
CONTINUOUS
 62
    7
 10
4882.0522574000679
 20
10144.69365161669
 40
85.802528749314291
 50
32.713670581035714
 51
35.775604028307619
  0
ARC
  8
_0-1_レイヤ___3
  6
CONTINUOUS
 62
    7
 10
4819.3771080191218
 20
10099.843182261238
 40
162.87201205520404
 50
35.686637311100895
 51
40.234408467315632
  0
ARC
  8
_0-1_レイヤ___3
  6
CONTINUOUS
 62
    7
 10
4763.1075883337526
 20
10053.040033641475
 40
236.0603457731514
 50
40.085019287030654
 51
51.364546888739845
  0
ARC
  8
_0-1_レイヤ___3
  6
CONTINUOUS
 62
    7
 10
4730.5795676090074
 20
10015.304495598168
 40
285.85213691888589
 50
50.994118672633938
 51
70.768553175550778
  0
ARC
  8
_0-1_レイヤ___3
  6
CONTINUOUS
 62
    7
 10
4712.3525075039561
 20
9969.9544809317631
 40
334.68285969358885
 50
70.379545261701679
 51
85.909701547331878
  0
ARC
  8
_0-1_レイヤ___3
  6
CONTINUOUS
 62
    7
 10
4704.1991048106629
 20
9903.8590017582137
 40
401.2061167858443
 50
85.42155502647617
 51
90.06485712062026
  0
ARC
  8
_0-1_レイヤ___3
  6
CONTINUOUS
 62
    7
 10
5026.3422135971605
 20
10237.371115202033
 40
85.68713194629882
 50
212.71160830163598
 51
215.77766630773934
  0
ARC
  8
_0-1_レイヤ___3
  6
CONTINUOUS
 62
    7
 10
5088.9333216834584
 20
10282.024668103368
 40
162.57351487113877
 50
215.6485717820467
 51
220.20252844288706
  0
ARC
  8
_0-1_レイヤ___3
  6
CONTINUOUS
 62
    7
 10
5145.1551353374289
 20
10328.776075920005
 40
235.69226502682301
 50
220.06068464925102
 51
231.35438717044192
  0
ARC
  8
_0-1_レイヤ___3
  6
CONTINUOUS
 62
    7
 10
5176.9280493157239
 20
10365.479091458476
 40
284.20673230090256
 50
230.97249468886812
 51
249.00809351033121
  0
ARC
  8
_0-1_レイヤ___3
  6
CONTINUOUS
 62
    7
 10
5194.5448255323436
 20
10406.382265239663
 40
328.71106836472558
 50
248.69528934421368
 51
264.76010223994928
  0
ARC
  8
_0-1_レイヤ___3
  6
CONTINUOUS
 62
    7
 10
5204.0584935151201
 20
10472.607947244769
 40
395.54367739998446
 50
264.26386051215144
 51
270.09943469271889
  0
ARC
  8
_0-1_レイヤ___3
  6
CONTINUOUS
 62
    7
 10
5383.010595812525
 20
10237.39635671735
 40
85.731971558112647
 50
324.22313568968741
 51
327.28758970092554
  0
ARC
  8
_0-1_レイヤ___3
  6
CONTINUOUS
 62
    7
 10
5320.3920047659221
 20
10282.074987124006
 40
162.65530541513715
 50
319.79861352195292
 51
324.35027925592732
  0
ARC
  8
_0-1_レイヤ___3
  6
CONTINUOUS
 62
    7
 10
5264.1763201103695
 20
10328.790502511083
 40
235.74627358302268
 50
308.65641323357414
 51
319.94577183701176
  0
ARC
  8
_0-1_レイヤ___3
  6
CONTINUOUS
 62
    7
 10
5231.6520412381888
 20
10366.508648598377
 40
285.52275923748948
 50
289.23484954955984
 51
309.02520763831461
  0
ARC
  8
_0-1_レイヤ___3
  6
CONTINUOUS
 62
    7
 10
5213.3728799628461
 20
10411.957220456572
 40
334.46393574591821
 50
274.08948010602842
 51
289.62648034847984
  0
ARC
  8
_0-1_レイヤ___3
  6
CONTINUOUS
 62
    7
 10
5205.2006565325382
 20
10478.231147655228
 40
401.16654099227435
 50
269.93491385974318
 51
274.57867413198187
  0
ARC
  8
_0-1_レイヤ___3
  6
CONTINUOUS
 62
    7
 10
6175.1772699267367
 20
10245.265671888299
 40
100.75331131322194
 50
212.54457606520913
 51
215.40440375223901
  0
ARC
  8
_0-1_レイヤ___3
  6
CONTINUOUS
 62
    7
 10
6263.3483817304796
 20
10307.718354002554
 40
208.80176016648289
 50
215.35576517119864
 51
221.36723442257554
  0
ARC
  8
_0-1_レイヤ___3
  6
CONTINUOUS
 62
    7
 10
6336.8373670803885
 20
10370.285440352563
 40
305.30820959523527
 50
221.06477503394933
 51
231.22765092056261
  0
ARC
  8
_0-1_レイヤ___3
  6
CONTINUOUS
 62
    7
 10
6373.9368632735477
 20
10413.758146275548
 40
362.43800051855146
 50
230.95883511048842
 51
251.35346403312761
  0
ARC
  8
_0-1_レイヤ___3
  6
CONTINUOUS
 62
    7
 10
6395.9271642596905
 20
10469.153515985501
 40
421.96811857703369
 50
250.92920805381607
 51
264.01576111916972
  0
ARC
  8
_0-1_レイヤ___3
  6
CONTINUOUS
 62
    7
 10
6406.6755607211735
 20
10543.900922169661
 40
497.43720610568812
 50
263.68207230856331
 51
270.12317171358143
  0
ARC
  8
_0-1_レイヤ___3
  6
CONTINUOUS
 62
    7
 10
6640.3125830732624
 20
10245.265671888299
 40
100.75331131322194
 50
324.59559624776097
 51
327.45542393479087
  0
ARC
  8
_0-1_レイヤ___3
  6
CONTINUOUS
 62
    7
 10
6552.1414712695196
 20
10307.718354002558
 40
208.80176016648622
 50
318.63276557742324
 51
324.64423482880017
  0
ARC
  8
_0-1_レイヤ___3
  6
CONTINUOUS
 62
    7
 10
6478.6524859196106
 20
10370.285440352563
 40
305.30820959523527
 50
308.77234907943739
 51
318.93522496605067
  0
ARC
  8
_0-1_レイヤ___3
  6
CONTINUOUS
 62
    7
 10
6441.5529897264514
 20
10413.758146275548
 40
362.43800051855146
 50
288.64653596687236
 51
309.04116488951161
  0
ARC
  8
_0-1_レイヤ___3
  6
CONTINUOUS
 62
    7
 10
6419.5626887403087
 20
10469.153515985501
 40
421.96811857703369
 50
275.98423888083028
 51
289.07079194618393
  0
ARC
  8
_0-1_レイヤ___3
  6
CONTINUOUS
 62
    7
 10
6408.8142922788284
 20
10543.900922169647
 40
497.43720610567294
 50
269.87682828641869
 51
276.31792769143675
  0
ARC
  8
_0-1_レイヤ___3
  6
CONTINUOUS
 62
    7
 10
5540.1358774185173
 20
10136.627503281741
 40
100.93010227786282
 50
144.50212566873279
 51
147.36012017610801
  0
ARC
  8
_0-1_レイヤ___3
  6
CONTINUOUS
 62
    7
 10
5628.3695471263927
 20
10074.232056271167
 40
208.99619450304266
 50
138.6141993796889
 51
144.62177519628176
  0
ARC
  8
_0-1_レイヤ___3
  6
CONTINUOUS
 62
    7
 10
5701.9104815690162
 20
10011.582808269701
 40
305.59542888809415
 50
128.76110525464961
 51
138.91711914959737
  0
ARC
  8
_0-1_レイヤ___3
  6
CONTINUOUS
 62
    7
 10
5739.008644335725
 20
9968.0573768509767
 40
362.76505364824754
 50
108.64440277668834
 51
129.02607137185763
  0
ARC
  8
_0-1_レイヤ___3
  6
CONTINUOUS
 62
    7
 10
5760.9508109280341
 20
9912.7376163916269
 40
422.2078773497347
 50
95.984053535164293
 51
109.06580942457414
  0
ARC
  8
_0-1_レイヤ___3
  6
CONTINUOUS
 62
    7
 10
5771.6784383483646
 20
9838.1757922208435
 40
497.49021243479604
 50
89.877171789659343
 51
96.317584188195951
  0
ARC
  8
_0-1_レイヤ___3
  6
CONTINUOUS
 62
    7
 10
6005.2204605955449
 20
10136.604825622162
 40
100.97057184268152
 50
32.640452692637687
 51
35.497301462542985
  0
ARC
  8
_0-1_レイヤ___3
  6
CONTINUOUS
 62
    7
 10
5916.9578159439207
 20
10074.182544247664
 40
209.07582711155086
 50
35.379369932403733
 51
41.384655491620954
  0
ARC
  8
_0-1_レイヤ___3
  6
CONTINUOUS
 62
    7
 10
5843.4223182357146
 20
10011.574452762146
 40
305.6439400285019
 50
41.077030819156093
 51
51.230071178722717
  0
ARC
  8
_0-1_レイヤ___3
  6
CONTINUOUS
 62
    7
 10
5806.3924915569396
 20
9968.115877061693
 40
362.71881313437632
 50
50.968265029241259
 51
71.34834199623468
  0
ARC
  8
_0-1_レイヤ___3
  6
CONTINUOUS
 62
    7
 10
5784.5214885883233
 20
9913.0129606666815
 40
421.93378118613651
 50
70.927422340987263
 51
84.012376348968317
  0
ARC
  8
_0-1_レイヤ___3
  6
CONTINUOUS
 62
    7
 10
5773.8119484612971
 20
9838.5477764375537
 40
497.11823018035136
 50
83.680048148512199
 51
90.122979570248162
  0
ARC
  8
_0-1_レイヤ___3
  6
CONTINUOUS
 62
    7
 10
6797.3421865972032
 20
10144.758611797955
 40
85.687131946339932
 50
144.22233369227075
 51
147.28839169837414
  0
ARC
  8
_0-1_レイヤ___3
  6
CONTINUOUS
 62
    7
 10
6859.9332951834594
 20
10100.105046321725
 40
162.57352260625143
 50
139.79746805852193
 51
144.35142471936226
  0
ARC
  8
_0-1_レイヤ___3
  6
CONTINUOUS
 62
    7
 10
6916.1551093374292
 20
10053.353651079999
 40
235.69226502682088
 50
128.64561282955856
 51
139.93931535074947
  0
ARC
  8
_0-1_レイヤ___3
  6
CONTINUOUS
 62
    7
 10
6947.9280228157231
 20
10016.650638692066
 40
284.20672953857724
 50
110.99190681131051
 51
129.0275056327736
  0
ARC
  8
_0-1_レイヤ___3
  6
CONTINUOUS
 62
    7
 10
6965.5447985323426
 20
9975.7474617603402
 40
328.71106836472558
 50
95.239897760050724
 51
111.30471065578634
  0
ARC
  8
_0-1_レイヤ___3
  6
CONTINUOUS
 62
    7
 10
6975.0584670151202
 20
9909.5217699453515
 40
395.54368721071808
 50
89.900565237320635
 51
95.736139417888069
  0
ARC
  8
_0-1_レイヤ___3
  6
CONTINUOUS
 62
    7
 10
7154.1476494027975
 20
10144.758611797955
 40
85.687131946339932
 50
32.711608301625859
 51
35.777666307729241
  0
ARC
  8
_0-1_レイヤ___3
  6
CONTINUOUS
 62
    7
 10
7091.5565408165412
 20
10100.105046321725
 40
162.57352260625143
 50
35.648575280637729
 51
40.202531941478085
  0
ARC
  8
_0-1_レイヤ___3
  6
CONTINUOUS
 62
    7
 10
7035.3347266625697
 20
10053.353651079993
 40
235.69226502682505
 50
40.060684649251506
 51
51.354387170442408
  0
ARC
  8
_0-1_レイヤ___3
  6
CONTINUOUS
 62
    7
 10
7003.5618131842766
 20
10016.650638692066
 40
284.20672953857724
 50
50.972494367226417
 51
69.008093188689486
  0
ARC
  8
_0-1_レイヤ___3
  6
CONTINUOUS
 62
    7
 10
6985.945037467658
 20
9975.7474617603439
 40
328.71106836472171
 50
68.695289344213506
 51
84.760102239949134
  0
ARC
  8
_0-1_レイヤ___3
  6
CONTINUOUS
 62
    7
 10
6976.4313694848806
 20
9909.5217797552341
 40
395.54367739998446
 50
84.263860512151453
 51
90.099434692718887
  0
ARC
  8
_0-1_レイヤ___3
  6
CONTINUOUS
 62
    7
 10
1596.1558883272185
 20
1330.1336809881473
 40
14.353966669185485
 50
270.69217992976604
 51
305.5883550723147
  0
ARC
  8
_0-1_レイヤ___3
  6
CONTINUOUS
 62
    7
 10
1596.7109929482651
 20
1322.0491145586088
 40
6.2799635823633455
 50
189.05498517761177
 51
266.51536926708923
  0
ARC
  8
_0-1_レイヤ___3
  6
CONTINUOUS
 62
    7
 10
1607.190442101165
 20
1322.9091222521929
 40
16.783242236202732
 50
134.20218824527294
 51
186.32289207195609
  0
ARC
  8
_0-1_レイヤ___3
  6
CONTINUOUS
 62
    7
 10
1601.9485977282991
 20
1328.0035536708369
 40
9.4787900946113002
 50
93.867315890885379
 51
132.95692680628457
  0
ARC
  8
_0-1_レイヤ___3
  6
CONTINUOUS
 62
    7
 10
1600.6542952596012
 20
1327.872882265824
 40
9.6102243811286545
 50
326.72931217820667
 51
86.091918797203263
  0
ARC
  8
_0-1_レイヤ___3
  6
CONTINUOUS
 62
    7
 10
1594.6929078601934
 20
1332.552185992743
 40
17.173514227007683
 50
304.86187897455511
 51
324.58717663532582
  0
ARC
  8
_0-1_レイヤ___3
  6
CONTINUOUS
 62
    7
 10
1636.8293861331406
 20
1297.0703501971036
 40
3.6182520400108626
 50
309.05837836380897
 51
37.256074810928624
  0
ARC
  8
_0-1_レイヤ___3
  6
CONTINUOUS
 62
    7
 10
1636.899701341915
 20
1296.9808581132088
 40
3.6182520400108626
 50
39.058378363808991
 51
127.25607481092864
  0
ARC
  8
_0-1_レイヤ___3
  6
CONTINUOUS
 62
    7
 10
1637.3225226695613
 20
1297.0111738127332
 40
3.8664114634158162
 50
132.52257908629821
 51
213.79187408843936
  0
ARC
  8
_0-1_レイヤ___3
  6
CONTINUOUS
 62
    7
 10
1636.9588789704701
 20
1297.4740050178339
 40
3.8664193880687665
 50
222.52267986259631
 51
303.79177331214129
  0
ARC
  8
_0-1_レイヤ___3
  6
CONTINUOUS
 62
    7
 10
1658.9332544826814
 20
1331.8049254070297
 40
3.7833391457090917
 50
308.90463304820952
 51
32.914813110149417
  0
ARC
  8
_0-1_レイヤ___3
  6
CONTINUOUS
 62
    7
 10
1659.2943648058181
 20
1331.5363849790708
 40
3.6505507430265585
 50
39.54759155479649
 51
126.76686161992828
  0
ARC
  8
_0-1_レイヤ___3
  6
CONTINUOUS
 62
    7
 10
1659.278077068599
 20
1331.752161348403
 40
3.4698910153342917
 50
128.68441707201114
 51
217.06555023018524
  0
ARC
  8
_0-1_レイヤ___3
  6
CONTINUOUS
 62
    7
 10
1659.3450022353093
 20
1331.8750344945465
 40
3.5978156893103899
 50
217.98460655940082
 51
303.09074902453915
  0
ARC
  8
_0-1_レイヤ___3
  6
CONTINUOUS
 62
    7
 10
1628.8293861331406
 20
1245.4703501971035
 40
3.6182520400108626
 50
309.05837836380897
 51
37.256074810928624
  0
ARC
  8
_0-1_レイヤ___3
  6
CONTINUOUS
 62
    7
 10
1628.9607931903547
 20
1245.1727890465804
 40
3.7073227160381506
 50
42.151779176996023
 51
123.59818812519873
  0
ARC
  8
_0-1_レイヤ___3
  6
CONTINUOUS
 62
    7
 10
1629.2331952348766
 20
1245.3249368866791
 40
3.744276198382269
 50
128.36401523705868
 51
213.45543092128759
  0
ARC
  8
_0-1_レイヤ___3
  6
CONTINUOUS
 62
    7
 10
1628.9242147531318
 20
1245.5851365400156
 40
3.6505507430265101
 50
219.54759155480289
 51
306.76686161993467
  0
ARC
  8
_0-1_レイヤ___3
  6
CONTINUOUS
 62
    7
 10
1586.0221242256202
 20
1440.7755017823331
 40
15.349283860404555
 50
281.98424719857229
 51
305.37992825050515
  0
ARC
  8
_0-1_レイヤ___3
  6
CONTINUOUS
 62
    7
 10
1587.3951404509464
 20
1434.7124275796091
 40
9.1336466870359239
 50
253.81539971809781
 51
281.45644111005601
  0
ARC
  8
_0-1_レイヤ___3
  6
CONTINUOUS
 62
    7
 10
1586.7871320657284
 20
1431.5302090944697
 40
5.9158405017999041
 50
186.4976330235763
 51
250.87876819702052
  0
ARC
  8
_0-1_レイヤ___3
  6
CONTINUOUS
 62
    7
 10
1597.5527532646945
 20
1432.6271828108861
 40
16.736937013871227
 50
125.09847193578855
 51
186.05830228314753
  0
ARC
  8
_0-1_レイヤ___3
  6
CONTINUOUS
 62
    7
 10
1592.1581458933874
 20
1439.1356119081513
 40
8.3372391571258095
 50
93.086139853877157
 51
120.47914843666976
  0
ARC
  8
_0-1_レイヤ___3
  6
CONTINUOUS
 62
    7
 10
1590.8630644654975
 20
1437.7078276495063
 40
9.7895753436968249
 50
327.17232151222413
 51
85.041067925930122
  0
ARC
  8
_0-1_レイヤ___3
  6
CONTINUOUS
 62
    7
 10
1585.1049378334446
 20
1442.3400349997394
 40
17.156670644045334
 50
304.85211083309173
 51
324.59697245463519
  0
ARC
  8
_0-1_レイヤ___3
  6
CONTINUOUS
 62
    7
 10
1627.0960465211854
 20
1406.910348950538
 40
3.8664193880688176
 50
312.52267986258988
 51
33.791773312134858
  0
ARC
  8
_0-1_レイヤ___3
  6
CONTINUOUS
 62
    7
 10
1627.4943648058193
 20
1406.7363849790706
 40
3.6505507430265101
 50
39.547591554802921
 51
126.76686161993472
  0
ARC
  8
_0-1_レイヤ___3
  6
CONTINUOUS
 62
    7
 10
1627.5891934258104
 20
1406.8511713219827
 40
3.6182520400109111
 50
129.05837836380255
 51
217.25607481092217
  0
ARC
  8
_0-1_レイヤ___3
  6
CONTINUOUS
 62
    7
 10
1627.5157189703098
 20
1406.914336349829
 40
3.5992571805099471
 50
218.76463748711211
 51
307.54981568762548
  0
ARC
  8
_0-1_レイヤ___3
  6
CONTINUOUS
 62
    7
 10
1649.2405951456569
 20
1441.5170031156008
 40
3.9089713682246674
 50
313.05579255526999
 51
33.258660619467634
  0
ARC
  8
_0-1_レイヤ___3
  6
CONTINUOUS
 62
    7
 10
1649.5734649066114
 20
1441.3368543041418
 40
3.744276198382269
 50
38.364015237058673
 51
123.45543092128759
  0
ARC
  8
_0-1_レイヤ___3
  6
CONTINUOUS
 62
    7
 10
1650.0541919465402
 20
1441.6193714994956
 40
3.8144480969423733
 50
131.84935737826498
 51
214.46509579647261
  0
ARC
  8
_0-1_レイヤ___3
  6
CONTINUOUS
 62
    7
 10
1649.8451146523396
 20
1441.7846652149444
 40
3.744276198382269
 50
218.36401523705865
 51
303.45543092128759
  0
ARC
  8
_0-1_レイヤ___3
  6
CONTINUOUS
 62
    7
 10
1619.0960465211854
 20
1355.3103489505384
 40
3.8664193880688176
 50
312.52267986258988
 51
33.791773312134858
  0
ARC
  8
_0-1_レイヤ___3
  6
CONTINUOUS
 62
    7
 10
1619.4597005884807
 20
1354.847516501253
 40
3.8664193880687665
 50
42.522679862596327
 51
123.79177331214129
  0
ARC
  8
_0-1_レイヤ___3
  6
CONTINUOUS
 62
    7
 10
1619.5891934258102
 20
1355.2511713219833
 40
3.6182520400109111
 50
129.05837836380255
 51
217.25607481092217
  0
ARC
  8
_0-1_レイヤ___3
  6
CONTINUOUS
 62
    7
 10
1619.5188782170353
 20
1355.3406634058779
 40
3.6182520400108626
 50
219.05837836380897
 51
307.25607481092862
  0
ARC
  8
_0-1_レイヤ___3
  6
CONTINUOUS
 62
    7
 10
847.76696497883427
 20
1300.8869338271325
 40
13.706718025813382
 50
270.5113897731556
 51
306.44421582905477
  0
ARC
  8
_0-1_レイヤ___3
  6
CONTINUOUS
 62
    7
 10
848.28383575831344
 20
1293.4163311530438
 40
6.2480383098715455
 50
188.79729066978578
 51
266.37963468098303
  0
ARC
  8
_0-1_レイヤ___3
  6
CONTINUOUS
 62
    7
 10
858.11978063834454
 20
1294.5615733578911
 40
16.147719426038122
 50
125.29737441498415
 51
187.47534699669535
  0
ARC
  8
_0-1_レイヤ___3
  6
CONTINUOUS
 62
    7
 10
852.91146704020798
 20
1300.7331833469771
 40
8.1300923515696581
 50
91.424880523949028
 51
120.46591127788791
  0
ARC
  8
_0-1_レイヤ___3
  6
CONTINUOUS
 62
    7
 10
852.0543072596015
 20
1299.2728842658239
 40
9.610224381128214
 50
326.72931217820582
 51
86.091918797202382
  0
ARC
  8
_0-1_レイヤ___3
  6
CONTINUOUS
 62
    7
 10
846.09291410831565
 20
1303.9521869927421
 40
17.173518335313041
 50
304.86189281348197
 51
324.58719047425268
  0
ARC
  8
_0-1_レイヤ___3
  6
CONTINUOUS
 62
    7
 10
929.43269422195181
 20
1228.7188059905538
 40
60.298708179937101
 50
269.73071975892054
 51
276.93111676040752
  0
ARC
  8
_0-1_レイヤ___3
  6
CONTINUOUS
 62
    7
 10
929.43678521745574
 20
1201.144519327413
 40
32.72501833754739
 50
254.16886952992596
 51
269.49666034181604
  0
ARC
  8
_0-1_レイヤ___3
  6
CONTINUOUS
 62
    7
 10
920.80331134391008
 20
1171.8021762481435
 40
2.1615015776800877
 50
223.26413562485141
 51
262.18233760891496
  0
ARC
  8
_0-1_レイヤ___3
  6
CONTINUOUS
 62
    7
 10
919.85064883139353
 20
1170.8117565471343
 40
0.7919255497800549
 50
170.62455085101291
 51
218.316037349049
  0
ARC
  8
_0-1_レイヤ___3
  6
CONTINUOUS
 62
    7
 10
921.27957424688043
 20
1170.4875958939892
 40
2.2562503173495179
 50
142.51121188180494
 51
168.41333116505984
  0
ARC
  8
_0-1_レイヤ___3
  6
CONTINUOUS
 62
    7
 10
909.30258225600687
 20
1180.4657351925482
 40
13.334721144915193
 50
319.81140105481177
 51
330.5067109368639
  0
ARC
  8
_0-1_レイヤ___3
  6
CONTINUOUS
 62
    7
 10
920.07797407787075
 20
1174.1721716390123
 40
0.8745101397316862
 50
341.9194235400509
 51
76.015897752076398
  0
ARC
  8
_0-1_レイヤ___3
  6
CONTINUOUS
 62
    7
 10
918.61761042307967
 20
1170.975266851246
 40
4.3772819450082672
 50
67.54847266869217
 51
78.246069393291137
  0
ARC
  8
_0-1_レイヤ___3
  6
CONTINUOUS
 62
    7
 10
882.98617553782401
 20
1221.1440026058613
 40
58.644781161599575
 50
308.51984159193364
 51
314.11561028346131
  0
ARC
  8
_0-1_レイヤ___3
  6
CONTINUOUS
 62
    7
 10
941.07984977036017
 20
1161.4362665866656
 40
24.661511482780661
 50
123.1633889568261
 51
134.45137579507599
  0
ARC
  8
_0-1_レイヤ___3
  6
CONTINUOUS
 62
    7
 10
932.31044807174976
 20
1174.9275087860501
 40
8.5707805379006761
 50
95.363516773760537
 51
123.42480007836295
  0
ARC
  8
_0-1_レイヤ___3
  6
CONTINUOUS
 62
    7
 10
932.41738446887643
 20
1168.812270173642
 40
14.676613442457498
 50
59.214269380935256
 51
93.547322048008169
  0
ARC
  8
_0-1_レイヤ___3
  6
CONTINUOUS
 62
    7
 10
935.1488366837018
 20
1174.0881054077936
 40
8.753325420292505
 50
347.95032220049711
 51
56.898008146621329
  0
ARC
  8
_0-1_レイヤ___3
  6
CONTINUOUS
 62
    7
 10
940.53954741337429
 20
1173.0154233782941
 40
3.2583494598614386
 50
294.08591982248265
 51
346.60824337810305
  0
ARC
  8
_0-1_レイヤ___3
  6
CONTINUOUS
 62
    7
 10
938.25633738138799
 20
1177.3768676328211
 40
8.1775251347534663
 50
282.09141084637429
 51
296.21981404452208
  0
ARC
  8
_0-1_レイヤ___3
  6
CONTINUOUS
 62
    7
 10
933.36356797759754
 20
1200.3147746713705
 40
31.631451495804278
 50
276.07166465455123
 51
282.05404757410474
  0
ARC
  8
_0-1_レイヤ___3
  6
CONTINUOUS
 62
    7
 10
944.36846947291792
 20
1278.7500122593842
 40
3.7820689106496816
 50
224.46524843626531
 51
247.3058056729999
  0
ARC
  8
_0-1_レイヤ___3
  6
CONTINUOUS
 62
    7
 10
945.72360401190826
 20
1280.3705019926424
 40
5.8879592786687791
 50
208.50275588211142
 51
226.4825507839885
  0
ARC
  8
_0-1_レイヤ___3
  6
CONTINUOUS
 62
    7
 10
942.03205928337161
 20
1278.5066558218018
 40
1.7587755181970766
 50
168.38486753110735
 51
212.53495065480089
  0
ARC
  8
_0-1_レイヤ___3
  6
CONTINUOUS
 62
    7
 10
943.86556904091981
 20
1277.186455171551
 40
3.9306937823354127
 50
22.028973805358696
 51
154.78874565225487
  0
ARC
  8
_0-1_レイヤ___3
  6
CONTINUOUS
 62
    7
 10
945.225170955566
 20
1277.8084819608455
 40
2.4379551553465877
 50
292.78427653430595
 51
20.462115721524452
  0
ARC
  8
_0-1_レイヤ___3
  6
CONTINUOUS
 62
    7
 10
944.03731188635356
 20
1280.8656968648056
 40
5.7173165775099744
 50
258.62103314074284
 51
291.8945851971564
  0
ARC
  8
_0-1_レイヤ___3
  6
CONTINUOUS
 62
    7
 10
1048.9413271489318
 20
1264.0088028137279
 40
4.057278841385183
 50
173.60428572309814
 51
299.01557922493976
  0
ARC
  8
_0-1_レイヤ___3
  6
CONTINUOUS
 62
    7
 10
1049.2509572565145
 20
1262.1107857324837
 40
4.9368387633878585
 50
70.372004862848158
 51
151.57498197979504
  0
ARC
  8
_0-1_レイヤ___3
  6
CONTINUOUS
 62
    7
 10
1047.4106611313196
 20
1254.2942375514854
 40
12.948154239908794
 50
62.899140426291474
 51
74.32361391807477
  0
ARC
  8
_0-1_レイヤ___3
  6
CONTINUOUS
 62
    7
 10
1042.613097332272
 20
1245.0470910142058
 40
23.365661621859694
 50
55.316075504716949
 51
62.756411431132328
  0
ARC
  8
_0-1_レイヤ___3
  6
CONTINUOUS
 62
    7
 10
1024.8410425808847
 20
1299.9505738629466
 40
47.318065190094039
 50
303.42984518955814
 51
311.03982277359881
  0
ARC
  8
_0-1_レイヤ___3
  6
CONTINUOUS
 62
    7
 10
888.42939813314069
 20
1268.470350197103
 40
3.6182520400108142
 50
309.05837836381539
 51
37.25607481093504
  0
ARC
  8
_0-1_レイヤ___3
  6
CONTINUOUS
 62
    7
 10
888.51315615574117
 20
1268.4928815617586
 40
3.5380976387138432
 50
37.786786200401323
 51
128.52766697433628
  0
ARC
  8
_0-1_レイヤ___3
  6
CONTINUOUS
 62
    7
 10
888.58920542581041
 20
1268.4511733219836
 40
3.6182520400108142
 50
129.05837836381542
 51
217.25607481093505
  0
ARC
  8
_0-1_レイヤ___3
  6
CONTINUOUS
 62
    7
 10
888.55889097047088
 20
1268.8740050178335
 40
3.8664193880687665
 50
222.52267986259631
 51
303.79177331214129
  0
ARC
  8
_0-1_レイヤ___3
  6
CONTINUOUS
 62
    7
 10
765.11005108155223
 20
1286.3077466355053
 40
14.317143909077698
 50
272.15854599242789
 51
306.914763883837
  0
ARC
  8
_0-1_レイヤ___3
  6
CONTINUOUS
 62
    7
 10
765.77826400137405
 20
1278.5020047087078
 40
6.5025218663913673
 50
220.7111446827283
 51
268.86361614078095
  0
ARC
  8
_0-1_レイヤ___3
  6
CONTINUOUS
 62
    7
 10
765.80024186302603
 20
1277.8587182312924
 40
6.1202188424724921
 50
185.60684589154803
 51
216.00673613386496
  0
ARC
  8
_0-1_レイヤ___3
  6
CONTINUOUS
 62
    7
 10
776.35276526469488
 20
1279.0271848108864
 40
16.736937013871227
 50
125.09847193578855
 51
186.05830228314753
  0
ARC
  8
_0-1_レイヤ___3
  6
CONTINUOUS
 62
    7
 10
770.95815789338667
 20
1285.5356139081528
 40
8.3372391571243121
 50
93.086139853871629
 51
120.47914843666423
  0
ARC
  8
_0-1_レイヤ___3
  6
CONTINUOUS
 62
    7
 10
770.34940464645251
 20
1284.1232136088865
 40
9.7388609045975123
 50
8.9645880062385075
 51
89.059237294097272
  0
ARC
  8
_0-1_レイヤ___3
  6
CONTINUOUS
 62
    7
 10
769.97089521443763
 20
1285.0353744917811
 40
10.016719401949672
 50
322.23405390116864
 51
3.4649354965836716
  0
ARC
  8
_0-1_レイヤ___3
  6
CONTINUOUS
 62
    7
 10
764.35026916652623
 20
1288.7265450967038
 40
16.728761951784058
 50
304.01830207796598
 51
324.03020554744302
  0
ARC
  8
_0-1_レイヤ___3
  6
CONTINUOUS
 62
    7
 10
805.98492699900339
 20
1253.2756867331996
 40
3.6505507430264612
 50
309.54759155480934
 51
36.766861619941118
  0
ARC
  8
_0-1_レイヤ___3
  6
CONTINUOUS
 62
    7
 10
805.96255281496587
 20
1253.0685807313607
 40
3.7955051747338207
 50
39.069811775641384
 51
122.74963438270485
  0
ARC
  8
_0-1_レイヤ___3
  6
CONTINUOUS
 62
    7
 10
806.82029942706868
 20
1253.3754420418325
 40
4.0986555329406356
 50
135.25382105426903
 51
211.06063212048139
  0
ARC
  8
_0-1_レイヤ___3
  6
CONTINUOUS
 62
    7
 10
806.24512665233988
 20
1253.5846672149444
 40
3.744276198382269
 50
218.36401523705865
 51
303.45543092128759
  0
ARC
  8
_0-1_レイヤ___3
  6
CONTINUOUS
 62
    7
 10
891.4293991651025
 20
1186.8703511971034
 40
3.6182506132550092
 50
309.05837565265057
 51
37.256072099770186
  0
ARC
  8
_0-1_レイヤ___3
  6
CONTINUOUS
 62
    7
 10
891.45971258848044
 20
1186.4475185012532
 40
3.8664193880688176
 50
42.522679862589897
 51
123.79177331213485
  0
ARC
  8
_0-1_レイヤ___3
  6
CONTINUOUS
 62
    7
 10
891.58920439384906
 20
1186.8511743219829
 40
3.6182506132558201
 50
129.05837565265207
 51
217.25607209977173
  0
ARC
  8
_0-1_レイヤ___3
  6
CONTINUOUS
 62
    7
 10
891.51889021703505
 20
1186.940667405878
 40
3.6182520400108142
 50
219.05837836381539
 51
307.25607481093505
  0
ARC
  8
_0-1_レイヤ___3
  6
CONTINUOUS
 62
    7
 10
1002.0293961331404
 20
1199.6703501971028
 40
3.6182520400108142
 50
309.05837836381539
 51
37.25607481093504
  0
ARC
  8
_0-1_レイヤ___3
  6
CONTINUOUS
 62
    7
 10
1002.0597105884801
 20
1199.2475185012529
 40
3.8664193880687665
 50
42.522679862596327
 51
123.79177331214129
  0
ARC
  8
_0-1_レイヤ___3
  6
CONTINUOUS
 62
    7
 10
1002.2336745599475
 20
1199.6458367858868
 40
3.6505507430264612
 50
129.54759155480934
 51
216.76686161994112
  0
ARC
  8
_0-1_レイヤ___3
  6
CONTINUOUS
 62
    7
 10
1002.1188882170359
 20
1199.7406654058777
 40
3.6182520400108626
 50
219.05837836380897
 51
307.25607481092862
  0
ARC
  8
_0-1_レイヤ___3
  6
CONTINUOUS
 62
    7
 10
995.22939613314043
 20
1300.4703501971035
 40
3.6182520400109111
 50
309.05837836380255
 51
37.2560748109222
  0
ARC
  8
_0-1_レイヤ___3
  6
CONTINUOUS
 62
    7
 10
995.29971134191533
 20
1300.3808581132084
 40
3.6182520400108626
 50
39.058378363808991
 51
127.25607481092864
  0
ARC
  8
_0-1_レイヤ___3
  6
CONTINUOUS
 62
    7
 10
995.38920342581014
 20
1300.4511733219829
 40
3.6182520400109111
 50
129.05837836380255
 51
217.25607481092217
  0
ARC
  8
_0-1_レイヤ___3
  6
CONTINUOUS
 62
    7
 10
995.35888897046993
 20
1300.8740050178335
 40
3.8664193880687665
 50
222.52267986259631
 51
303.79177331214129
  0
ARC
  8
_0-1_レイヤ___3
  6
CONTINUOUS
 62
    7
 10
964.77344934885627
 20
1105.5505989846456
 40
15.799101721962863
 50
282.41197572281766
 51
305.32763914144232
  0
ARC
  8
_0-1_レイヤ___3
  6
CONTINUOUS
 62
    7
 10
966.25509674310842
 20
1099.1729540451961
 40
9.2523684660794743
 50
254.41509762252264
 51
281.94003700222385
  0
ARC
  8
_0-1_レイヤ___3
  6
CONTINUOUS
 62
    7
 10
965.5951363835286
 20
1095.660269617872
 40
5.6998546313771081
 50
184.01918724150437
 51
251.31709391914089
  0
ARC
  8
_0-1_レイヤ___3
  6
CONTINUOUS
 62
    7
 10
976.59045010116506
 20
1097.1091262521929
 40
16.783242236202732
 50
134.20218824527294
 51
186.32289207195609
  0
ARC
  8
_0-1_レイヤ___3
  6
CONTINUOUS
 62
    7
 10
971.3486067282995
 20
1102.2035548539266
 40
9.4787928376609898
 50
93.86730871160411
 51
132.95691962700329
  0
ARC
  8
_0-1_レイヤ___3
  6
CONTINUOUS
 62
    7
 10
970.05430525960128
 20
1102.0728862658239
 40
9.6102243811286545
 50
326.72931217820667
 51
86.091918797203263
  0
ARC
  8
_0-1_レイヤ___3
  6
CONTINUOUS
 62
    7
 10
964.09291210831589
 20
1106.7521889927434
 40
17.173518335314224
 50
304.86189281347811
 51
324.58719047424881
  0
ARC
  8
_0-1_レイヤ___3
  6
CONTINUOUS
 62
    7
 10
847.52930874318713
 20
772.25406615112263
 40
13.675128012874486
 50
52.20842718567836
 51
87.988521553518808
  0
ARC
  8
_0-1_レイヤ___3
  6
CONTINUOUS
 62
    7
 10
848.25446846174464
 20
779.70683518668125
 40
6.2187671384427654
 50
92.259395972416058
 51
171.17621334526447
  0
ARC
  8
_0-1_レイヤ___3
  6
CONTINUOUS
 62
    7
 10
858.28152269766883
 20
778.54419210892786
 40
16.310138882852996
 50
172.54365958129546
 51
234.40987389987592
  0
ARC
  8
_0-1_レイヤ___3
  6
CONTINUOUS
 62
    7
 10
853.17675058751797
 20
772.47044133948862
 40
8.4226530541552691
 50
238.60665098421163
 51
266.81850695911351
  0
ARC
  8
_0-1_レイヤ___3
  6
CONTINUOUS
 62
    7
 10
852.67079840659926
 20
773.88960265332798
 40
9.828908309861518
 50
270.22444877250155
 51
338.0825947512256
  0
ARC
  8
_0-1_レイヤ___3
  6
CONTINUOUS
 62
    7
 10
853.12833077675373
 20
772.8944825443989
 40
9.0642792744862355
 50
342.84411384665157
 51
26.371703252328576
  0
ARC
  8
_0-1_レイヤ___3
  6
CONTINUOUS
 62
    7
 10
848.70196750227797
 20
771.07861823382677
 40
13.840748965036758
 50
24.967109774230718
 51
47.854637315633184
  0
ARC
  8
_0-1_レイヤ___3
  6
CONTINUOUS
 62
    7
 10
843.67643975866804
 20
766.14986685066469
 40
20.871548826420351
 50
46.704636439998495
 51
54.119101864619132
  0
ARC
  8
_0-1_レイヤ___3
  6
CONTINUOUS
 62
    7
 10
930.59890454998572
 20
853.67309612037843
 40
50.955367251473511
 50
83.112709697369326
 51
96.501461530614407
  0
ARC
  8
_0-1_レイヤ___3
  6
CONTINUOUS
 62
    7
 10
930.18277233344884
 20
865.24006205339447
 40
39.42585924535593
 50
97.804059454885447
 51
104.20302224861354
  0
ARC
  8
_0-1_レイヤ___3
  6
CONTINUOUS
 62
    7
 10
920.9127111487785
 20
901.24581776967034
 40
2.251386811917957
 50
100.32215288810713
 51
138.39335419746095
  0
ARC
  8
_0-1_レイヤ___3
  6
CONTINUOUS
 62
    7
 10
919.92696267892052
 20
902.22224390513247
 40
0.8692512399804837
 50
143.37909017874605
 51
189.36692010152171
  0
ARC
  8
_0-1_レイヤ___3
  6
CONTINUOUS
 62
    7
 10
921.19681324979842
 20
902.52560644569428
 40
2.1735193840986859
 50
191.80976371491835
 51
218.22402324126585
  0
ARC
  8
_0-1_レイヤ___3
  6
CONTINUOUS
 62
    7
 10
909.79880335329676
 20
892.81218063518281
 40
12.803867002034316
 50
29.621726652104186
 51
40.813459284281244
  0
ARC
  8
_0-1_レイヤ___3
  6
CONTINUOUS
 62
    7
 10
920.12327007395106
 20
898.91986419371165
 40
0.8357544470162724
 50
281.45866127375371
 51
15.326334233825394
  0
ARC
  8
_0-1_レイヤ___3
  6
CONTINUOUS
 62
    7
 10
918.56946958643312
 20
902.30272238694226
 40
4.5402913411975154
 50
281.94649759275364
 51
292.25896034526306
  0
ARC
  8
_0-1_レイヤ___3
  6
CONTINUOUS
 62
    7
 10
1109.0884820557405
 20
1111.5288598332882
 40
285.64719351790427
 50
228.41863372291181
 51
230.49864259088108
  0
ARC
  8
_0-1_レイヤ___3
  6
CONTINUOUS
 62
    7
 10
932.47152504863402
 20
898.91923210508025
 40
9.3083317251903939
 50
236.90789800073009
 51
264.06659414757615
  0
ARC
  8
_0-1_レイヤ___3
  6
CONTINUOUS
 62
    7
 10
932.48139755082343
 20
904.55053141528253
 40
14.921462254110407
 50
266.26467081785881
 51
299.94313492144778
  0
ARC
  8
_0-1_レイヤ___3
  6
CONTINUOUS
 62
    7
 10
935.21382116479822
 20
898.94300901100166
 40
8.7092454041690317
 50
302.78128771752154
 51
12.720664968048268
  0
ARC
  8
_0-1_レイヤ___3
  6
CONTINUOUS
 62
    7
 10
940.53954741337384
 20
900.106108140792
 40
3.2583494598619338
 50
13.391756621889737
 51
65.914080177510144
  0
ARC
  8
_0-1_レイヤ___3
  6
CONTINUOUS
 62
    7
 10
938.25633738139027
 20
895.74466388626433
 40
8.1775251347527078
 50
63.780185955493224
 51
77.908589153640975
  0
ARC
  8
_0-1_レイヤ___3
  6
CONTINUOUS
 62
    7
 10
933.36356797758094
 20
872.80675684771609
 40
31.631451495806843
 50
77.945952425866068
 51
83.928335345419541
  0
ARC
  8
_0-1_レイヤ___3
  6
CONTINUOUS
 62
    7
 10
954.26555595730611
 20
708.24600647520583
 40
2.085405810073909
 50
11.471970494446838
 51
49.882589549119089
  0
ARC
  8
_0-1_レイヤ___3
  6
CONTINUOUS
 62
    7
 10
954.99090262964705
 20
709.01054002015997
 40
1.0352277310197637
 50
53.319393084954235
 51
95.632384921565276
  0
ARC
  8
_0-1_レイヤ___3
  6
CONTINUOUS
 62
    7
 10
955.73675601723971
 20
705.47297708587962
 40
4.6457412739517014
 50
100.51050036940738
 51
118.36956928695506
  0
ARC
  8
_0-1_レイヤ___3
  6
CONTINUOUS
 62
    7
 10
953.05928103664337
 20
710.28002687202729
 40
0.8592138339624427
 50
209.20621421519348
 51
303.1637351022726
  0
ARC
  8
_0-1_レイヤ___3
  6
CONTINUOUS
 62
    7
 10
955.10732433902467
 20
705.57895331115844
 40
5.1149675984804874
 50
123.16327986571318
 51
147.58567390775718
  0
ARC
  8
_0-1_レイヤ___3
  6
CONTINUOUS
 62
    7
 10
952.53068084371625
 20
707.31966636137884
 40
2.008635363801305
 50
150.10581418260216
 51
213.16733990064716
  0
ARC
  8
_0-1_レイヤ___3
  6
CONTINUOUS
 62
    7
 10
1386.3609663951761
 20
952.9021890012109
 40
500.52186201750328
 50
209.5279738846327
 51
209.86533119074574
  0
ARC
  8
_0-1_レイヤ___3
  6
CONTINUOUS
 62
    7
 10
954.00273445392054
 20
704.53559905507859
 40
1.9060554275628772
 50
207.32090149006703
 51
276.22154614721904
  0
ARC
  8
_0-1_レイヤ___3
  6
CONTINUOUS
 62
    7
 10
953.32923673982827
 20
709.54486439261473
 40
6.9599593142603915
 50
277.26430152069327
 51
299.0546794128777
  0
ARC
  8
_0-1_レイヤ___3
  6
CONTINUOUS
 62
    7
 10
953.86801192309213
 20
708.20177868725239
 40
5.527212890367962
 50
300.93426767312889
 51
321.76128676624472
  0
ARC
  8
_0-1_レイヤ___3
  6
CONTINUOUS
 62
    7
 10
956.6786618332319
 20
706.12233663327402
 40
2.0353511242963491
 50
318.76622427283826
 51
3.8999471787325231
  0
ARC
  8
_0-1_レイヤ___3
  6
CONTINUOUS
 62
    7
 10
957.23150975300291
 20
705.66393890488484
 40
1.5937598411975493
 50
21.992164493096023
 51
55.71458418760151
  0
ARC
  8
_0-1_レイヤ___3
  6
CONTINUOUS
 62
    7
 10
1190.2929047596056
 20
960.31717515478192
 40
343.62664881517924
 50
227.08411627679345
 51
227.4971038085059
  0
ARC
  8
_0-1_レイヤ___3
  6
CONTINUOUS
 62
    7
 10
943.53983057932942
 20
795.24979767705133
 40
2.4920565459547324
 50
104.65607033282188
 51
132.71622481465337
  0
ARC
  8
_0-1_レイヤ___3
  6
CONTINUOUS
 62
    7
 10
944.59067363559734
 20
793.75320898705127
 40
4.3113545439247609
 50
129.48303990027634
 51
173.23911501041439
  0
ARC
  8
_0-1_レイヤ___3
  6
CONTINUOUS
 62
    7
 10
944.11350572186075
 20
795.69524352727626
 40
4.0656738162689514
 50
200.66026872632554
 51
302.35489729824565
  0
ARC
  8
_0-1_レイヤ___3
  6
CONTINUOUS
 62
    7
 10
943.51354097215813
 20
795.32608063200655
 40
4.1353331138476754
 50
312.16205223508979
 51
345.07156565220714
  0
ARC
  8
_0-1_レイヤ___3
  6
CONTINUOUS
 62
    7
 10
945.13335448143243
 20
795.13191030690905
 40
2.5306136404279798
 50
339.86449148844014
 51
65.835032654854814
  0
ARC
  8
_0-1_レイヤ___3
  6
CONTINUOUS
 62
    7
 10
944.22388426831981
 20
792.87688336698068
 40
4.9612178202245287
 50
66.913237558588634
 51
105.36529719162849
  0
ARC
  8
_0-1_レイヤ___3
  6
CONTINUOUS
 62
    7
 10
1048.9518595112006
 20
809.07139671422101
 40
4.0884174083452054
 50
61.394442870642294
 51
188.58959752647507
  0
ARC
  8
_0-1_レイヤ___3
  6
CONTINUOUS
 62
    7
 10
1049.2151409000903
 20
810.77484577434348
 40
4.8882742163839756
 50
208.25481272273944
 51
289.28154510531044
  0
ARC
  8
_0-1_レイヤ___3
  6
CONTINUOUS
 62
    7
 10
1047.4018458589385
 20
817.86458442369621
 40
12.195358333625121
 50
286.32262966975924
 51
298.43764043418878
  0
ARC
  8
_0-1_レイヤ___3
  6
CONTINUOUS
 62
    7
 10
1043.0152224406604
 20
826.12228451234273
 40
21.545700058864078
 50
298.23814796443429
 51
306.75914392450187
  0
LINE
  8
_0-1_レイヤ___3
  6
CONTINUOUS
 62
    7
 10
1055.9092997794753
 20
808.8607677595428
 11
1050.9092997794753
 21
812.66076775954332
  0
ARC
  8
_0-1_レイヤ___3
  6
CONTINUOUS
 62
    7
 10
888.54051449035205
 20
804.55216934840337
 40
3.469891015334241
 50
322.93444976980805
 51
51.315582927982163
  0
ARC
  8
_0-1_レイヤ___3
  6
CONTINUOUS
 62
    7
 10
888.41469767222839
 20
804.52704342983452
 40
3.5564347432964776
 50
233.70120627968265
 51
324.47934756197111
  0
ARC
  8
_0-1_レイヤ___3
  6
CONTINUOUS
 62
    7
 10
888.63367655994784
 20
804.47569273319971
 40
3.6505507430264612
 50
143.23313838005888
 51
230.45240844519066
  0
ARC
  8
_0-1_レイヤ___3
  6
CONTINUOUS
 62
    7
 10
888.51889021703619
 20
804.38086411320853
 40
3.6182520400109111
 50
52.743925189077792
 51
140.94162163619743
  0
ARC
  8
_0-1_レイヤ___3
  6
CONTINUOUS
 62
    7
 10
900.02939813314106
 20
698.85118132198272
 40
3.6182520400108626
 50
322.74392518907138
 51
50.941621636191016
  0
ARC
  8
_0-1_レイヤ___3
  6
CONTINUOUS
 62
    7
 10
900.09971334191596
 20
698.9406734058781
 40
3.6182520400108142
 50
232.74392518906495
 51
320.94162163618461
  0
ARC
  8
_0-1_レイヤ___3
  6
CONTINUOUS
 62
    7
 10
900.18920542581009
 20
698.87035819710377
 40
3.6182520400108626
 50
142.7439251890714
 51
230.94162163619106
  0
ARC
  8
_0-1_レイヤ___3
  6
CONTINUOUS
 62
    7
 10
900.15889097046988
 20
698.44752650125315
 40
3.8664193880687145
 50
56.20822668785231
 51
137.47732013739727
  0
ARC
  8
_0-1_レイヤ___3
  6
CONTINUOUS
 62
    7
 10
891.42939813314092
 20
886.25117932198236
 40
3.6182520400108626
 50
322.74392518907138
 51
50.941621636191016
  0
ARC
  8
_0-1_レイヤ___3
  6
CONTINUOUS
 62
    7
 10
891.49971334191582
 20
886.34067140587774
 40
3.6182520400108142
 50
232.74392518906495
 51
320.94162163618461
  0
ARC
  8
_0-1_レイヤ___3
  6
CONTINUOUS
 62
    7
 10
891.58920542580995
 20
886.27035619710341
 40
3.6182520400108626
 50
142.7439251890714
 51
230.94162163619106
  0
ARC
  8
_0-1_レイヤ___3
  6
CONTINUOUS
 62
    7
 10
891.55889097046975
 20
885.84752450125279
 40
3.8664193880687145
 50
56.20822668785231
 51
137.47732013739727
  0
ARC
  8
_0-1_レイヤ___3
  6
CONTINUOUS
 62
    7
 10
1002.0293961331404
 20
873.45117932198377
 40
3.6182520400108142
 50
322.74392518906495
 51
50.941621636184593
  0
ARC
  8
_0-1_レイヤ___3
  6
CONTINUOUS
 62
    7
 10
1002.0997113419148
 20
873.54067140587802
 40
3.6182520400109111
 50
232.7439251890778
 51
320.94162163619745
  0
ARC
  8
_0-1_レイヤ___3
  6
CONTINUOUS
 62
    7
 10
1002.1892034258101
 20
873.47035619710255
 40
3.6182520400108142
 50
142.74392518906495
 51
230.94162163618458
  0
ARC
  8
_0-1_レイヤ___3
  6
CONTINUOUS
 62
    7
 10
1002.1188882170359
 20
873.3808641132083
 40
3.6182520400109111
 50
52.743925189077792
 51
140.94162163619743
  0
ARC
  8
_0-1_レイヤ___3
  6
CONTINUOUS
 62
    7
 10
995.22939613314043
 20
772.45118132198286
 40
3.6182520400109111
 50
322.7439251890778
 51
50.941621636197439
  0
ARC
  8
_0-1_レイヤ___3
  6
CONTINUOUS
 62
    7
 10
995.25971058848063
 20
772.87401301783348
 40
3.8664193880687665
 50
236.20822668785871
 51
317.47732013740369
  0
ARC
  8
_0-1_レイヤ___3
  6
CONTINUOUS
 62
    7
 10
995.38920342581014
 20
772.47035819710334
 40
3.6182520400109111
 50
142.74392518907783
 51
230.94162163619745
  0
ARC
  8
_0-1_レイヤ___3
  6
CONTINUOUS
 62
    7
 10
995.31888821703524
 20
772.38086611320853
 40
3.6182520400108626
 50
52.743925189071383
 51
140.94162163619103
  0
ARC
  8
_0-1_レイヤ___3
  6
CONTINUOUS
 62
    7
 10
965.31004708155228
 20
968.81378088358076
 40
14.317143909077698
 50
53.085236116163003
 51
87.841454007572139
  0
ARC
  8
_0-1_レイヤ___3
  6
CONTINUOUS
 62
    7
 10
965.97826000137366
 20
976.61952281037884
 40
6.5025218663910698
 50
91.136383859213524
 51
139.28885531726615
  0
ARC
  8
_0-1_レイヤ___3
  6
CONTINUOUS
 62
    7
 10
966.00023786302609
 20
977.26280928779317
 40
6.1202188424728767
 50
143.99326386612555
 51
174.39315410844247
  0
ARC
  8
_0-1_レイヤ___3
  6
CONTINUOUS
 62
    7
 10
976.55276126469425
 20
976.09434270820032
 40
16.736937013871227
 50
173.94169771685247
 51
234.90152806421145
  0
ARC
  8
_0-1_レイヤ___3
  6
CONTINUOUS
 62
    7
 10
971.15815389338741
 20
969.58591361093511
 40
8.3372391571258095
 50
239.52085156333024
 51
266.91386014612283
  0
ARC
  8
_0-1_レイヤ___3
  6
CONTINUOUS
 62
    7
 10
970.67079640659904
 20
971.08959865332849
 40
9.828908309862225
 50
270.22444877250234
 51
338.0825947512264
  0
ARC
  8
_0-1_レイヤ___3
  6
CONTINUOUS
 62
    7
 10
971.12832877675282
 20
970.09447854439827
 40
9.0642792744870597
 50
342.844113846656
 51
26.371703252333017
  0
ARC
  8
_0-1_レイヤ___3
  6
CONTINUOUS
 62
    7
 10
966.7019655022782
 20
968.27861423382899
 40
13.840748965035907
 50
24.967109774225946
 51
47.854637315628416
  0
ARC
  8
_0-1_レイヤ___3
  6
CONTINUOUS
 62
    7
 10
961.67643775867668
 20
963.34986285066009
 40
20.871548826418138
 50
46.704636440024785
 51
54.119101864645422
  0
ARC
  8
_0-1_レイヤ___3
  6
CONTINUOUS
 62
    7
 10
847.52930564528788
 20
523.66747636796447
 40
13.675129120993951
 50
272.01149127093885
 51
307.79158563877928
  0
ARC
  8
_0-1_レイヤ___3
  6
CONTINUOUS
 62
    7
 10
848.25446846174395
 20
516.21470633240506
 40
6.2187671384421703
 50
188.82378665474164
 51
267.74060402759005
  0
ARC
  8
_0-1_レイヤ___3
  6
CONTINUOUS
 62
    7
 10
858.41550496711852
 20
517.38829845466171
 40
16.444410364472105
 50
125.82972914007314
 51
187.43358675277494
  0
ARC
  8
_0-1_レイヤ___3
  6
CONTINUOUS
 62
    7
 10
852.91548427597922
 20
523.84214422770981
 40
8.021277873016075
 50
91.472918445199596
 51
120.95766809425777
  0
ARC
  8
_0-1_レイヤ___3
  6
CONTINUOUS
 62
    7
 10
852.67079840659926
 20
522.03193886575889
 40
9.828908309861518
 50
21.917405248774415
 51
89.77555122749844
  0
ARC
  8
_0-1_レイヤ___3
  6
CONTINUOUS
 62
    7
 10
853.12833077675259
 20
523.02705897468741
 40
9.0642792744877632
 50
333.62829674767221
 51
17.155886153349215
  0
ARC
  8
_0-1_レイヤ___3
  6
CONTINUOUS
 62
    7
 10
848.70197244225074
 20
524.84292428525919
 40
13.84074490880173
 50
312.14535029977651
 51
335.03287784117896
  0
ARC
  8
_0-1_レイヤ___3
  6
CONTINUOUS
 62
    7
 10
843.67643975866804
 20
529.77167666842206
 40
20.871548826420351
 50
305.88089813538085
 51
313.29536356000153
  0
ARC
  8
_0-1_レイヤ___3
  6
CONTINUOUS
 62
    7
 10
954.2655559573077
 20
587.67553504388047
 40
2.0854058100724222
 50
310.11741045085671
 51
348.52802950552893
  0
ARC
  8
_0-1_レイヤ___3
  6
CONTINUOUS
 62
    7
 10
954.99090262964637
 20
586.91100149892634
 40
1.0352277310199745
 50
264.36761507847672
 51
306.68060691508776
  0
ARC
  8
_0-1_レイヤ___3
  6
CONTINUOUS
 62
    7
 10
955.73675601723971
 20
590.44856443320668
 40
4.6457412739517014
 50
241.63043071304494
 51
259.4894996305926
  0
ARC
  8
_0-1_レイヤ___3
  6
CONTINUOUS
 62
    7
 10
953.05928103664337
 20
585.64151464705958
 40
0.8592138339623499
 50
56.836264897702257
 51
150.79378578478136
  0
ARC
  8
_0-1_レイヤ___3
  6
CONTINUOUS
 62
    7
 10
955.10732433902353
 20
590.34258820792843
 40
5.1149675984795309
 50
212.41432609225333
 51
236.83672013429737
  0
ARC
  8
_0-1_レイヤ___3
  6
CONTINUOUS
 62
    7
 10
952.53068084371671
 20
588.60187515770804
 40
2.008635363801849
 50
146.83266009935326
 51
209.89418581739827
  0
ARC
  8
_0-1_レイヤ___3
  6
CONTINUOUS
 62
    7
 10
1386.3609663949828
 20
343.01935251787569
 40
500.52186201733559
 50
150.13466880924329
 51
150.47202611535633
  0
ARC
  8
_0-1_レイヤ___3
  6
CONTINUOUS
 62
    7
 10
954.10432231565642
 20
591.32489710987727
 40
2.0243436628412379
 50
84.757198216296246
 51
152.46372111562724
  0
ARC
  8
_0-1_レイヤ___3
  6
CONTINUOUS
 62
    7
 10
953.69706603439204
 20
587.94462896056359
 40
5.4285447327796259
 50
56.297006569854886
 51
83.736780386338665
  0
ARC
  8
_0-1_レイヤ___3
  6
CONTINUOUS
 62
    7
 10
953.86801192309213
 20
587.71976283183335
 40
5.527212890367962
 50
38.238713233755263
 51
59.065732326871107
  0
ARC
  8
_0-1_レイヤ___3
  6
CONTINUOUS
 62
    7
 10
956.67866183323304
 20
589.79920488581229
 40
2.0353511242949458
 50
356.10005282128083
 51
41.2337757271751
  0
ARC
  8
_0-1_レイヤ___3
  6
CONTINUOUS
 62
    7
 10
957.23150975300291
 20
590.25760261420203
 40
1.5937598411975493
 50
304.28541581239847
 51
338.00783550690397
  0
ARC
  8
_0-1_レイヤ___3
  6
CONTINUOUS
 62
    7
 10
1190.2929047597629
 20
335.6043663643041
 40
343.62664881528622
 50
132.5028961915134
 51
132.91588372322585
  0
ARC
  8
_0-1_レイヤ___3
  6
CONTINUOUS
 62
    7
 10
944.40627957554193
 20
501.87139485136242
 40
3.9086485104861808
 50
224.72678362813039
 51
247.48088324512813
  0
ARC
  8
_0-1_レイヤ___3
  6
CONTINUOUS
 62
    7
 10
945.71427038316892
 20
503.44635922455041
 40
5.949594477619609
 50
208.57327337900614
 51
226.6387093357977
  0
ARC
  8
_0-1_レイヤ___3
  6
CONTINUOUS
 62
    7
 10
941.56272192952338
 20
501.3283360114383
 40
1.2967582436974159
 50
165.14577672475102
 51
214.12929950113232
  0
ARC
  8
_0-1_レイヤ___3
  6
CONTINUOUS
 62
    7
 10
944.11350572186075
 20
500.22629799181061
 40
4.0656738162689514
 50
57.645102701754361
 51
159.33973127367446
  0
ARC
  8
_0-1_レイヤ___3
  6
CONTINUOUS
 62
    7
 10
943.51354097215813
 20
500.59546088708032
 40
4.1353331138476754
 50
14.928434347792862
 51
47.837947764910226
  0
ARC
  8
_0-1_レイヤ___3
  6
CONTINUOUS
 62
    7
 10
945.13335448143175
 20
500.78963121217726
 40
2.530613640428748
 50
294.16496734515249
 51
20.135508511567195
  0
ARC
  8
_0-1_レイヤ___3
  6
CONTINUOUS
 62
    7
 10
944.22388426832094
 20
503.04465815210506
 40
4.961217820224471
 50
254.63470280836157
 51
293.08676244140145
  0
ARC
  8
_0-1_レイヤ___3
  6
CONTINUOUS
 62
    7
 10
1048.9518595112006
 20
486.85014480486558
 40
4.0884174083453875
 50
171.41040247352132
 51
298.60555712935411
  0
ARC
  8
_0-1_レイヤ___3
  6
CONTINUOUS
 62
    7
 10
1049.2151409000896
 20
485.14669574474311
 40
4.8882742163836586
 50
70.718454894680022
 51
151.74518727725098
  0
ARC
  8
_0-1_レイヤ___3
  6
CONTINUOUS
 62
    7
 10
1047.4018458589442
 20
478.05695709539037
 40
12.195358333623068
 50
61.562359565834583
 51
73.677370330264154
  0
ARC
  8
_0-1_レイヤ___3
  6
CONTINUOUS
 62
    7
 10
1043.0152224406525
 20
469.79925700674386
 40
21.545700058868196
 50
53.240856075480956
 51
61.761852035548557
  0
LINE
  8
_0-1_レイヤ___3
  6
CONTINUOUS
 62
    7
 10
1055.9092997794753
 20
487.06077375954266
 11
1050.9092997794753
 21
483.2607737595427
  0
ARC
  8
_0-1_レイヤ___3
  6
CONTINUOUS
 62
    7
 10
888.42939813314069
 20
491.47036219710287
 40
3.6182520400108142
 50
309.05837836381539
 51
37.25607481093504
  0
ARC
  8
_0-1_レイヤ___3
  6
CONTINUOUS
 62
    7
 10
888.4597125884809
 20
491.04753050125311
 40
3.8664193880687145
 50
42.522679862602743
 51
123.7917733121477
  0
ARC
  8
_0-1_レイヤ___3
  6
CONTINUOUS
 62
    7
 10
888.58920542581041
 20
491.45118532198296
 40
3.6182520400108142
 50
129.05837836381542
 51
217.25607481093505
  0
ARC
  8
_0-1_レイヤ___3
  6
CONTINUOUS
 62
    7
 10
888.5188902170355
 20
491.54067740587777
 40
3.6182520400108142
 50
219.05837836381539
 51
307.25607481093505
  0
ARC
  8
_0-1_レイヤ___3
  6
CONTINUOUS
 62
    7
 10
899.98492699900316
 20
597.07569673319938
 40
3.6505507430265101
 50
309.54759155480292
 51
36.766861619934701
  0
ARC
  8
_0-1_レイヤ___3
  6
CONTINUOUS
 62
    7
 10
900.09971334191528
 20
596.9808681132082
 40
3.6182520400109111
 50
39.058378363802568
 51
127.2560748109222
  0
ARC
  8
_0-1_レイヤ___3
  6
CONTINUOUS
 62
    7
 10
900.07808906859941
 20
597.15217334840304
 40
3.4698910153342917
 50
128.68441707201114
 51
217.06555023018524
  0
ARC
  8
_0-1_レイヤ___3
  6
CONTINUOUS
 62
    7
 10
900.24512665233965
 20
597.3846772149443
 40
3.744276198382269
 50
218.36401523705865
 51
303.45543092128759
  0
ARC
  8
_0-1_レイヤ___3
  6
CONTINUOUS
 62
    7
 10
1002.0293961331404
 20
422.47036219710282
 40
3.6182520400108142
 50
309.05837836381539
 51
37.25607481093504
  0
ARC
  8
_0-1_レイヤ___3
  6
CONTINUOUS
 62
    7
 10
1002.0997113419153
 20
422.380870113208
 40
3.6182520400108142
 50
39.058378363815415
 51
127.25607481093506
  0
ARC
  8
_0-1_レイヤ___3
  6
CONTINUOUS
 62
    7
 10
1002.1892034258101
 20
422.4511853219829
 40
3.6182520400108142
 50
129.05837836381542
 51
217.25607481093505
  0
ARC
  8
_0-1_レイヤ___3
  6
CONTINUOUS
 62
    7
 10
1002.1588889704699
 20
422.87401701783352
 40
3.8664193880687145
 50
222.52267986260273
 51
303.79177331214771
  0
ARC
  8
_0-1_レイヤ___3
  6
CONTINUOUS
 62
    7
 10
995.22939613314043
 20
523.47036019710401
 40
3.6182520400109111
 50
309.05837836380255
 51
37.2560748109222
  0
ARC
  8
_0-1_レイヤ___3
  6
CONTINUOUS
 62
    7
 10
995.25971058848108
 20
523.0475285012534
 40
3.8664193880687145
 50
42.522679862602743
 51
123.7917733121477
  0
ARC
  8
_0-1_レイヤ___3
  6
CONTINUOUS
 62
    7
 10
995.38920342581014
 20
523.45118332198297
 40
3.6182520400109111
 50
129.05837836380255
 51
217.25607481092217
  0
ARC
  8
_0-1_レイヤ___3
  6
CONTINUOUS
 62
    7
 10
995.31888821703456
 20
523.54067540587835
 40
3.6182520400108142
 50
219.05837836381539
 51
307.25607481093505
  0
ARC
  8
_0-1_レイヤ___3
  6
CONTINUOUS
 62
    7
 10
703.96496925716156
 20
1289.9308022054474
 40
15.302703891800103
 50
283.0075899114612
 51
306.69558180796537
  0
ARC
  8
_0-1_レイヤ___3
  6
CONTINUOUS
 62
    7
 10
705.52717793639795
 20
1283.6651643160064
 40
8.8469256381733388
 50
254.00450745418277
 51
282.28317645091647
  0
ARC
  8
_0-1_レイヤ___3
  6
CONTINUOUS
 62
    7
 10
704.92570857797068
 20
1280.4854168898112
 40
5.6324359597090705
 50
184.3238941295846
 51
250.97134715063589
  0
ARC
  8
_0-1_レイヤ___3
  6
CONTINUOUS
 62
    7
 10
715.4815246976691
 20
1282.1773394101588
 40
16.310138882852772
 50
125.59012610012587
 51
187.45634041870633
  0
ARC
  8
_0-1_レイヤ___3
  6
CONTINUOUS
 62
    7
 10
710.37675258751983
 20
1288.2510901795979
 40
8.4226530541559619
 50
93.181493040901657
 51
121.39334901580355
  0
ARC
  8
_0-1_レイヤ___3
  6
CONTINUOUS
 62
    7
 10
709.87080040659885
 20
1286.8319288657585
 40
9.8289083098618022
 50
21.91740524877196
 51
89.775551227495981
  0
ARC
  8
_0-1_レイヤ___3
  6
CONTINUOUS
 62
    7
 10
710.32833277675331
 20
1287.8270489746876
 40
9.0642792744862355
 50
333.62829674767141
 51
17.155886153348437
  0
ARC
  8
_0-1_レイヤ___3
  6
CONTINUOUS
 62
    7
 10
705.90196950227801
 20
1289.6429132852581
 40
13.840748965035907
 50
312.14536268437161
 51
335.03289022577405
  0
ARC
  8
_0-1_レイヤ___3
  6
CONTINUOUS
 62
    7
 10
700.87644175866808
 20
1294.5716646684264
 40
20.871548826423737
 50
305.88089813537317
 51
313.2953635599938
  0
ARC
  8
_0-1_レイヤ___3
  6
CONTINUOUS
 62
    7
 10
847.59795533790589
 20
1424.772674156867
 40
13.55815583799621
 50
271.73858690724632
 51
307.8077932781087
  0
ARC
  8
_0-1_レイヤ___3
  6
CONTINUOUS
 62
    7
 10
848.31576703064206
 20
1417.4725878812133
 40
6.2593350935281471
 50
187.45218628476772
 51
267.19360151252954
  0
ARC
  8
_0-1_レイヤ___3
  6
CONTINUOUS
 62
    7
 10
858.07588571923566
 20
1418.7635264228716
 40
16.10445374254655
 50
125.21505004561985
 51
187.50256087060964
  0
ARC
  8
_0-1_レイヤ___3
  6
CONTINUOUS
 62
    7
 10
852.92185651656519
 20
1425.020220663589
 40
8.0433480883169235
 50
91.514283246235024
 51
120.91630329322238
  0
ARC
  8
_0-1_レイヤ___3
  6
CONTINUOUS
 62
    7
 10
852.0543072596015
 20
1423.472882265824
 40
9.6102243811285089
 50
326.72931217820491
 51
86.091918797201501
  0
ARC
  8
_0-1_レイヤ___3
  6
CONTINUOUS
 62
    7
 10
846.09291410831565
 20
1428.1521849927417
 40
17.173518335313041
 50
304.86189281348197
 51
324.58719047425268
  0
ARC
  8
_0-1_レイヤ___3
  6
CONTINUOUS
 62
    7
 10
944.36846947291519
 20
1402.950010259384
 40
3.7820689106480709
 50
224.46524843630135
 51
247.30580567303593
  0
ARC
  8
_0-1_レイヤ___3
  6
CONTINUOUS
 62
    7
 10
945.72360401190986
 20
1404.5704999926415
 40
5.8879592786702233
 50
208.50275588210064
 51
226.48255078397773
  0
ARC
  8
_0-1_レイヤ___3
  6
CONTINUOUS
 62
    7
 10
942.03205928337206
 20
1402.7066538218014
 40
1.7587755181978202
 50
168.38486753110286
 51
212.5349506547964
  0
ARC
  8
_0-1_レイヤ___3
  6
CONTINUOUS
 62
    7
 10
943.86294437980177
 20
1401.2919653713043
 40
3.9695117499882979
 50
23.279129211012595
 51
153.53859024659192
  0
ARC
  8
_0-1_レイヤ___3
  6
CONTINUOUS
 62
    7
 10
945.225170955566
 20
1402.0084799608453
 40
2.4379551553462115
 50
292.78427653430208
 51
20.462115721520629
  0
ARC
  8
_0-1_レイヤ___3
  6
CONTINUOUS
 62
    7
 10
944.03731188635356
 20
1405.0656948648061
 40
5.7173165775099744
 50
258.62103314074284
 51
291.8945851971564
  0
ARC
  8
_0-1_レイヤ___3
  6
CONTINUOUS
 62
    7
 10
1048.9332660593832
 20
1388.1967091794054
 40
4.0506354517242391
 50
173.42161352490822
 51
299.19825142313726
  0
ARC
  8
_0-1_レイヤ___3
  6
CONTINUOUS
 62
    7
 10
1049.2509572565145
 20
1386.3107837324833
 40
4.9368387633878585
 50
70.372004862848158
 51
151.57498197979504
  0
ARC
  8
_0-1_レイヤ___3
  6
CONTINUOUS
 62
    7
 10
1047.4106611313196
 20
1378.4942355514852
 40
12.948154239908794
 50
62.899140426291474
 51
74.32361391807477
  0
ARC
  8
_0-1_レイヤ___3
  6
CONTINUOUS
 62
    7
 10
1042.613097332272
 20
1369.2470890142056
 40
23.365661621859694
 50
55.316075504716949
 51
62.756411431132328
  0
ARC
  8
_0-1_レイヤ___3
  6
CONTINUOUS
 62
    7
 10
1024.8410425808888
 20
1424.1505718629464
 40
47.31806519009146
 50
303.42984518955399
 51
311.03982277359466
  0
ARC
  8
_0-1_レイヤ___3
  6
CONTINUOUS
 62
    7
 10
888.42939813314069
 20
1392.6703481971026
 40
3.6182520400108142
 50
309.05837836381539
 51
37.25607481093504
  0
ARC
  8
_0-1_レイヤ___3
  6
CONTINUOUS
 62
    7
 10
888.49971334191514
 20
1392.5808561132085
 40
3.6182520400109111
 50
39.058378363802568
 51
127.2560748109222
  0
ARC
  8
_0-1_レイヤ___3
  6
CONTINUOUS
 62
    7
 10
888.58920542581041
 20
1392.6511713219838
 40
3.6182520400108142
 50
129.05837836381542
 51
217.25607481093505
  0
ARC
  8
_0-1_レイヤ___3
  6
CONTINUOUS
 62
    7
 10
888.51889021703619
 20
1392.740663405878
 40
3.6182520400109111
 50
219.05837836380257
 51
307.2560748109222
  0
ARC
  8
_0-1_レイヤ___3
  6
CONTINUOUS
 62
    7
 10
764.57345334885667
 20
1411.7505949846436
 40
15.799101721961552
 50
282.41197572281976
 51
305.32763914144442
  0
ARC
  8
_0-1_レイヤ___3
  6
CONTINUOUS
 62
    7
 10
766.05510074311019
 20
1405.3729500451959
 40
9.2523684660795134
 50
254.41509762251519
 51
281.9400370022164
  0
ARC
  8
_0-1_レイヤ___3
  6
CONTINUOUS
 62
    7
 10
765.395140383529
 20
1401.8602656178723
 40
5.6998546313771081
 50
184.01918724150437
 51
251.31709391914089
  0
ARC
  8
_0-1_レイヤ___3
  6
CONTINUOUS
 62
    7
 10
776.39045410116501
 20
1403.3091222521932
 40
16.783242236201904
 50
134.20218824527424
 51
186.3228920719574
  0
ARC
  8
_0-1_レイヤ___3
  6
CONTINUOUS
 62
    7
 10
771.14861072829945
 20
1408.4035508539262
 40
9.4787928376609898
 50
93.86730871160411
 51
132.95691962700329
  0
ARC
  8
_0-1_レイヤ___3
  6
CONTINUOUS
 62
    7
 10
769.85430925960168
 20
1408.2728822658237
 40
9.6102243811283614
 50
326.72931217820758
 51
86.091918797204144
  0
ARC
  8
_0-1_レイヤ___3
  6
CONTINUOUS
 62
    7
 10
763.89291610831401
 20
1412.9521849927432
 40
17.173518335315386
 50
304.86189281348203
 51
324.58719047425274
  0
ARC
  8
_0-1_レイヤ___3
  6
CONTINUOUS
 62
    7
 10
806.0293981331406
 20
1377.4703481971028
 40
3.6182520400108142
 50
309.05837836381539
 51
37.25607481093504
  0
ARC
  8
_0-1_レイヤ___3
  6
CONTINUOUS
 62
    7
 10
806.09971334191505
 20
1377.3808561132087
 40
3.6182520400108626
 50
39.058378363808991
 51
127.25607481092864
  0
ARC
  8
_0-1_レイヤ___3
  6
CONTINUOUS
 62
    7
 10
806.52253466956131
 20
1377.4111718127328
 40
3.8664114634157642
 50
132.52257908630463
 51
213.79187408844578
  0
ARC
  8
_0-1_レイヤ___3
  6
CONTINUOUS
 62
    7
 10
806.15889097047079
 20
1377.8740030178335
 40
3.8664193880687665
 50
222.52267986259631
 51
303.79177331214129
  0
ARC
  8
_0-1_レイヤ___3
  6
CONTINUOUS
 62
    7
 10
891.54051449035228
 20
1310.9693601706836
 40
3.4698910153338867
 50
308.68441707201032
 51
37.065550230184428
  0
ARC
  8
_0-1_レイヤ___3
  6
CONTINUOUS
 62
    7
 10
891.37347690661136
 20
1310.7368563041416
 40
3.744276198382269
 50
38.364015237058673
 51
123.45543092128759
  0
ARC
  8
_0-1_レイヤ___3
  6
CONTINUOUS
 62
    7
 10
891.63367655994784
 20
1311.0458367858864
 40
3.6505507430265101
 50
129.54759155480289
 51
216.76686161993467
  0
ARC
  8
_0-1_レイヤ___3
  6
CONTINUOUS
 62
    7
 10
891.51889021703573
 20
1311.1406654058778
 40
3.6182520400108626
 50
219.05837836380897
 51
307.25607481092862
  0
ARC
  8
_0-1_レイヤ___3
  6
CONTINUOUS
 62
    7
 10
1002.0293961331404
 20
1323.6703481971028
 40
3.6182520400108142
 50
309.05837836381539
 51
37.25607481093504
  0
ARC
  8
_0-1_レイヤ___3
  6
CONTINUOUS
 62
    7
 10
1002.0997113419148
 20
1323.5808561132085
 40
3.6182520400108626
 50
39.058378363808991
 51
127.25607481092864
  0
ARC
  8
_0-1_レイヤ___3
  6
CONTINUOUS
 62
    7
 10
1002.1892034258101
 20
1323.6511713219834
 40
3.6182520400108142
 50
129.05837836381542
 51
217.25607481093505
  0
ARC
  8
_0-1_レイヤ___3
  6
CONTINUOUS
 62
    7
 10
1002.1588889704706
 20
1324.0740030178335
 40
3.8664193880687665
 50
222.52267986259631
 51
303.79177331214129
  0
ARC
  8
_0-1_レイヤ___3
  6
CONTINUOUS
 62
    7
 10
995.22939613314043
 20
1424.6703481971031
 40
3.6182520400109111
 50
309.05837836380255
 51
37.2560748109222
  0
ARC
  8
_0-1_レイヤ___3
  6
CONTINUOUS
 62
    7
 10
995.29971134191533
 20
1424.5808561132083
 40
3.6182520400109111
 50
39.058378363802568
 51
127.2560748109222
  0
ARC
  8
_0-1_レイヤ___3
  6
CONTINUOUS
 62
    7
 10
995.38920342581014
 20
1424.6511713219832
 40
3.6182520400109111
 50
129.05837836380255
 51
217.25607481092217
  0
ARC
  8
_0-1_レイヤ___3
  6
CONTINUOUS
 62
    7
 10
995.31888821703524
 20
1424.740663405878
 40
3.6182520400109111
 50
219.05837836380257
 51
307.2560748109222
  0
ARC
  8
_0-1_レイヤ___3
  6
CONTINUOUS
 62
    7
 10
704.20898836508536
 20
1414.2054789043523
 40
15.381339112631798
 50
282.00896928279889
 51
305.35520616627849
  0
ARC
  8
_0-1_レイヤ___3
  6
CONTINUOUS
 62
    7
 10
705.61279822470419
 20
1407.9746264450387
 40
8.9950918926940417
 50
253.7074883454558
 51
281.52062359377351
  0
ARC
  8
_0-1_レイヤ___3
  6
CONTINUOUS
 62
    7
 10
704.97686507263529
 20
1404.7030324603857
 40
5.6847916543737895
 50
184.46207946103934
 51
250.60753882672196
  0
ARC
  8
_0-1_レイヤ___3
  6
CONTINUOUS
 62
    7
 10
715.4815246976691
 20
1406.3773374101584
 40
16.310138882852772
 50
125.59012610012587
 51
187.45634041870633
  0
ARC
  8
_0-1_レイヤ___3
  6
CONTINUOUS
 62
    7
 10
710.37675258751983
 20
1412.4510881795977
 40
8.4226530541559619
 50
93.181493040901657
 51
121.39334901580355
  0
ARC
  8
_0-1_レイヤ___3
  6
CONTINUOUS
 62
    7
 10
709.06307646549726
 20
1411.1078276495061
 40
9.7895753436968249
 50
327.17232151222413
 51
85.041067925930122
  0
ARC
  8
_0-1_レイヤ___3
  6
CONTINUOUS
 62
    7
 10
703.30494983344443
 20
1415.7400349997392
 40
17.156670644045334
 50
304.85211083309173
 51
324.59697245463519
  0
ARC
  8
_0-1_レイヤ___3
  6
CONTINUOUS
 62
    7
 10
795.48694005758057
 20
1027.8287496555879
 40
59.408632652217513
 50
269.7322348830246
 51
276.98277311599929
  0
ARC
  8
_0-1_レイヤ___3
  6
CONTINUOUS
 62
    7
 10
795.56327465005188
 20
1002.0444317805772
 40
33.625529192670292
 50
254.37983191944636
 51
269.39684142880537
  0
ARC
  8
_0-1_レイヤ___3
  6
CONTINUOUS
 62
    7
 10
786.80331334390962
 20
971.80217824814349
 40
2.161501577679696
 50
223.2641356248715
 51
262.18233760893509
  0
ARC
  8
_0-1_レイヤ___3
  6
CONTINUOUS
 62
    7
 10
785.85065083139375
 20
970.81175854713422
 40
0.7919255497800549
 50
170.62455085101291
 51
218.316037349049
  0
ARC
  8
_0-1_レイヤ___3
  6
CONTINUOUS
 62
    7
 10
787.27957624688065
 20
970.487597893989
 40
2.2562503173495179
 50
142.51121188180494
 51
168.41333116505984
  0
ARC
  8
_0-1_レイヤ___3
  6
CONTINUOUS
 62
    7
 10
775.30258425600641
 20
980.46573719254525
 40
13.334721144913452
 50
319.81140105482257
 51
330.5067109368747
  0
ARC
  8
_0-1_レイヤ___3
  6
CONTINUOUS
 62
    7
 10
786.07797607787029
 20
974.17217363901159
 40
0.8745101397313463
 50
341.91942354006324
 51
76.015897752088705
  0
ARC
  8
_0-1_レイヤ___3
  6
CONTINUOUS
 62
    7
 10
784.61761242307625
 20
970.97526885124807
 40
4.3772819450062501
 50
67.54847266864229
 51
78.246069393241257
  0
ARC
  8
_0-1_レイヤ___3
  6
CONTINUOUS
 62
    7
 10
748.98617753782423
 20
1021.1440046058613
 40
58.644781161599575
 50
308.51984159193364
 51
314.11561028346131
  0
ARC
  8
_0-1_レイヤ___3
  6
CONTINUOUS
 62
    7
 10
807.07985177036312
 20
961.43626858666551
 40
24.661511482782473
 50
123.16338895683131
 51
134.45137579508122
  0
ARC
  8
_0-1_レイヤ___3
  6
CONTINUOUS
 62
    7
 10
798.31045007174885
 20
974.92751078605068
 40
8.570780537900287
 50
95.363516773753133
 51
123.42480007835555
  0
ARC
  8
_0-1_レイヤ___3
  6
CONTINUOUS
 62
    7
 10
798.03149593740932
 20
967.78631193975116
 40
15.683149852226117
 50
58.656764678072904
 51
91.908102185802605
  0
ARC
  8
_0-1_レイヤ___3
  6
CONTINUOUS
 62
    7
 10
801.35907658774636
 20
974.12013877805293
 40
8.5547372124777912
 50
347.44656066391349
 51
55.623690993605365
  0
ARC
  8
_0-1_レイヤ___3
  6
CONTINUOUS
 62
    7
 10
806.53954941337497
 20
973.01542537829391
 40
3.2583494598609448
 50
294.08591982247543
 51
346.60824337809584
  0
ARC
  8
_0-1_レイヤ___3
  6
CONTINUOUS
 62
    7
 10
804.25633938139049
 20
977.37686963282215
 40
8.1775251347527078
 50
282.09141084635905
 51
296.21981404450679
  0
ARC
  8
_0-1_レイヤ___3
  6
CONTINUOUS
 62
    7
 10
799.36356997758116
 20
1000.3147766713704
 40
31.631451495806843
 50
276.07166465458045
 51
282.05404757413396
  0
ARC
  8
_0-1_レイヤ___3
  6
CONTINUOUS
 62
    7
 10
820.14611013154627
 20
1164.9184588875023
 40
2.2110818473835483
 50
311.43375933522191
 51
348.05336633768582
  0
ARC
  8
_0-1_レイヤ___3
  6
CONTINUOUS
 62
    7
 10
820.94334360018615
 20
1164.1386192879959
 40
1.1018759573546126
 50
265.10402028590585
 51
307.18465727466321
  0
ARC
  8
_0-1_レイヤ___3
  6
CONTINUOUS
 62
    7
 10
817.39613825733477
 20
1145.4569658549708
 40
17.919662024142585
 50
78.889459295264189
 51
86.37443856150648
  0
ARC
  8
_0-1_レイヤ___3
  6
CONTINUOUS
 62
    7
 10
819.12770013052204
 20
1162.6441650551506
 40
0.9183301919773746
 50
130.66352815019874
 51
153.02201867515558
  0
ARC
  8
_0-1_レイヤ___3
  6
CONTINUOUS
 62
    7
 10
821.10732633902353
 20
1167.3425802079294
 40
5.1149675984804759
 50
212.41432609226408
 51
236.83672013430811
  0
ARC
  8
_0-1_レイヤ___3
  6
CONTINUOUS
 62
    7
 10
818.53068284371625
 20
1165.6018671577071
 40
2.008635363801305
 50
146.83266009935284
 51
209.89418581739784
  0
ARC
  8
_0-1_レイヤ___3
  6
CONTINUOUS
 62
    7
 10
1252.3609683951768
 20
920.01934451777856
 40
500.5218620175512
 50
150.13466880924466
 51
150.47202611535769
  0
ARC
  8
_0-1_レイヤ___3
  6
CONTINUOUS
 62
    7
 10
820.10432431565641
 20
1168.3248891098776
 40
2.0243436628405456
 50
84.757198216290504
 51
152.4637211156215
  0
ARC
  8
_0-1_レイヤ___3
  6
CONTINUOUS
 62
    7
 10
819.69706803439317
 20
1164.944620960564
 40
5.4285447327792147
 50
56.297006569866767
 51
83.736780386350546
  0
ARC
  8
_0-1_レイヤ___3
  6
CONTINUOUS
 62
    7
 10
821.27590663125466
 20
1166.2889213378348
 40
3.4806904486167998
 50
9.4559880790126041
 51
65.681195978641199
  0
ARC
  8
_0-1_レイヤ___3
  6
CONTINUOUS
 62
    7
 10
823.67159192238637
 20
1166.9481661841182
 40
1.0413841420544752
 50
309.16625348834617
 51
355.18555374313547
  0
ARC
  8
_0-1_レイヤ___3
  6
CONTINUOUS
 62
    7
 10
834.59825688595879
 20
1151.739162976748
 40
17.687779512589387
 50
125.49048805624892
 51
134.00896648428758
  0
ARC
  8
_0-1_レイヤ___3
  6
CONTINUOUS
 62
    7
 10
810.36847147291633
 20
1078.7500142593835
 40
3.782068910648877
 50
224.46524843628333
 51
247.30580567301791
  0
ARC
  8
_0-1_レイヤ___3
  6
CONTINUOUS
 62
    7
 10
811.7236060119094
 20
1080.370503992644
 40
5.88795927867133
 50
208.50275588211468
 51
226.4825507839918
  0
ARC
  8
_0-1_レイヤ___3
  6
CONTINUOUS
 62
    7
 10
808.03206128337229
 20
1078.5066578218011
 40
1.758775518197683
 50
168.38486753107864
 51
212.53495065477219
  0
ARC
  8
_0-1_レイヤ___3
  6
CONTINUOUS
 62
    7
 10
810.06523324820387
 20
1077.3402705846809
 40
4.0520267388789213
 50
56.030628102182739
 51
157.96069028788935
  0
ARC
  8
_0-1_レイヤ___3
  6
CONTINUOUS
 62
    7
 10
809.31514449211613
 20
1077.5960061129335
 40
4.327200503457699
 50
14.244576480482745
 51
45.848294013134257
  0
ARC
  8
_0-1_レイヤ___3
  6
CONTINUOUS
 62
    7
 10
811.22517295556668
 20
1077.8084839608459
 40
2.4379551553463736
 50
292.78427653429327
 51
20.462115721511779
  0
ARC
  8
_0-1_レイヤ___3
  6
CONTINUOUS
 62
    7
 10
810.03731388635265
 20
1080.8656988648063
 40
5.7173165775100667
 50
258.62103314075273
 51
291.89458519716629
  0
ARC
  8
_0-1_レイヤ___3
  6
CONTINUOUS
 62
    7
 10
1009.7989035499827
 20
988.44844591851881
 40
50.955375829721859
 50
263.49853843691142
 51
276.88729027015648
  0
ARC
  8
_0-1_レイヤ___3
  6
CONTINUOUS
 62
    7
 10
1009.3827703334487
 20
976.88147146569179
 40
39.42585924535593
 50
255.79697775138646
 51
262.19594054511458
  0
ARC
  8
_0-1_レイヤ___3
  6
CONTINUOUS
 62
    7
 10
1000.1127091487795
 20
940.87571574941535
 40
2.2513868119176248
 50
221.60664580250889
 51
259.67784711186266
  0
ARC
  8
_0-1_レイヤ___3
  6
CONTINUOUS
 62
    7
 10
999.12696067892034
 20
939.89928961395492
 40
0.8692512399806551
 50
170.6330798985249
 51
216.62090982130056
  0
ARC
  8
_0-1_レイヤ___3
  6
CONTINUOUS
 62
    7
 10
1000.3968112497987
 20
939.59592707339141
 40
2.1735193840992122
 50
141.77597675870442
 51
168.19023628505192
  0
ARC
  8
_0-1_レイヤ___3
  6
CONTINUOUS
 62
    7
 10
988.99880135329704
 20
949.30935288390401
 40
12.803867002034316
 50
319.18654071571876
 51
330.3782733478958
  0
ARC
  8
_0-1_レイヤ___3
  6
CONTINUOUS
 62
    7
 10
999.32326807395179
 20
943.20166932537461
 40
0.8357544470156097
 50
344.67366576620253
 51
78.541338726274248
  0
ARC
  8
_0-1_レイヤ___3
  6
CONTINUOUS
 62
    7
 10
997.76946758643339
 20
939.81881113214342
 40
4.5402913411975154
 50
67.741039654736937
 51
78.05350240724637
  0
ARC
  8
_0-1_レイヤ___3
  6
CONTINUOUS
 62
    7
 10
962.18617353781815
 20
990.14400460585591
 40
58.644781161599042
 50
308.51984159194171
 51
314.11561028346932
  0
ARC
  8
_0-1_レイヤ___3
  6
CONTINUOUS
 62
    7
 10
1020.2798477703604
 20
930.436268586663
 40
24.66151148278292
 50
123.16338895682188
 51
134.45137579507178
  0
ARC
  8
_0-1_レイヤ___3
  6
CONTINUOUS
 62
    7
 10
1011.5104470717504
 20
943.92750678438802
 40
8.5707844285683947
 50
95.363507617472834
 51
123.42479092207523
  0
ARC
  8
_0-1_レイヤ___3
  6
CONTINUOUS
 62
    7
 10
1011.6173844688765
 20
937.81227217364233
 40
14.676613442457498
 50
59.214269380935256
 51
93.547322048008169
  0
ARC
  8
_0-1_レイヤ___3
  6
CONTINUOUS
 62
    7
 10
1014.3488366837014
 20
943.08810740779393
 40
8.7533254202923132
 50
347.9503222004941
 51
56.898008146618288
  0
ARC
  8
_0-1_レイヤ___3
  6
CONTINUOUS
 62
    7
 10
1019.7395474133739
 20
942.01542537829368
 40
3.2583494598610292
 50
294.08591982249135
 51
346.60824337811175
  0
ARC
  8
_0-1_レイヤ___3
  6
CONTINUOUS
 62
    7
 10
1017.4563373813905
 20
946.37686963282192
 40
8.1775251347527078
 50
282.09141084635905
 51
296.21981404450679
  0
ARC
  8
_0-1_レイヤ___3
  6
CONTINUOUS
 62
    7
 10
1012.5635679775862
 20
969.31477667137585
 40
31.631451495811373
 50
276.07166465456919
 51
282.05404757412265
  0
ARC
  8
_0-1_レイヤ___3
  6
CONTINUOUS
 62
    7
 10
1033.3562121503733
 20
1133.9125648765184
 40
2.1999796789726309
 50
311.33805324828364
 51
348.1490724246882
  0
ARC
  8
_0-1_レイヤ___3
  6
CONTINUOUS
 62
    7
 10
1034.1494181611599
 20
1133.1176275319081
 40
1.0815078707909938
 50
264.68835518066425
 51
307.60032237982574
  0
ARC
  8
_0-1_レイヤ___3
  6
CONTINUOUS
 62
    7
 10
1034.6570430915458
 20
1136.1437787730961
 40
4.1477806276135336
 50
242.61656047857065
 51
261.57454450895312
  0
ARC
  8
_0-1_レイヤ___3
  6
CONTINUOUS
 62
    7
 10
1032.2278635194957
 20
1131.7496685714191
 40
0.8817891696972799
 50
53.74791992015524
 51
144.57677417131956
  0
ARC
  8
_0-1_レイヤ___3
  6
CONTINUOUS
 62
    7
 10
1034.3073243390236
 20
1136.5425802079278
 40
5.1149675984795309
 50
212.41432609225333
 51
236.83672013429737
  0
ARC
  8
_0-1_レイヤ___3
  6
CONTINUOUS
 62
    7
 10
1031.730680843717
 20
1134.8018671577074
 40
2.008635363801849
 50
146.83266009935326
 51
209.89418581739827
  0
ARC
  8
_0-1_レイヤ___3
  6
CONTINUOUS
 62
    7
 10
1465.5609663951761
 20
889.21934451787536
 40
500.52186201750328
 50
150.13466880925426
 51
150.4720261153673
  0
ARC
  8
_0-1_レイヤ___3
  6
CONTINUOUS
 62
    7
 10
1033.2027344539201
 20
1137.5859344640076
 40
1.9060554275624344
 50
83.778453852788118
 51
152.67909850994013
  0
ARC
  8
_0-1_レイヤ___3
  6
CONTINUOUS
 62
    7
 10
1032.5292367398279
 20
1132.5766691264716
 40
6.9599593142603915
 50
60.945320587122325
 51
82.735698479306762
  0
ARC
  8
_0-1_レイヤ___3
  6
CONTINUOUS
 62
    7
 10
1033.0680119230899
 20
1133.9197548318339
 40
5.5272128903690003
 50
38.23871323374302
 51
59.065732326858871
  0
ARC
  8
_0-1_レイヤ___3
  6
CONTINUOUS
 62
    7
 10
1035.8786618332326
 20
1135.9991968858121
 40
2.0353511242949458
 50
356.10005282128083
 51
41.2337757271751
  0
ARC
  8
_0-1_レイヤ___3
  6
CONTINUOUS
 62
    7
 10
1036.4828432802094
 20
1136.2713874898036
 40
1.4843820236552858
 50
306.66883313338815
 51
343.94085980419169
  0
ARC
  8
_0-1_レイヤ___3
  6
CONTINUOUS
 62
    7
 10
1041.5749556825917
 20
1128.3742699448521
 40
7.9160975778415876
 50
122.09190821190143
 51
140.01771933000481
  0
ARC
  8
_0-1_レイヤ___3
  6
CONTINUOUS
 62
    7
 10
1022.7641563931011
 20
1047.0358386474538
 40
2.657035483854882
 50
228.66529522958569
 51
255.73178721055791
  0
ARC
  8
_0-1_レイヤ___3
  6
CONTINUOUS
 62
    7
 10
1023.4620276122919
 20
1048.1543443940195
 40
3.9636152354820027
 50
184.24769660936948
 51
231.77065680664438
  0
ARC
  8
_0-1_レイヤ___3
  6
CONTINUOUS
 62
    7
 10
1023.313505721861
 20
1046.4262899918106
 40
4.0656738162689514
 50
57.645102701754361
 51
159.33973127367446
  0
ARC
  8
_0-1_レイヤ___3
  6
CONTINUOUS
 62
    7
 10
1022.7135409721584
 20
1046.7954528870796
 40
4.1353331138481995
 50
14.928434347804734
 51
47.837947764922099
  0
ARC
  8
_0-1_レイヤ___3
  6
CONTINUOUS
 62
    7
 10
1024.3333544814325
 20
1046.9896232121778
 40
2.530613640428526
 50
294.16496734514016
 51
20.135508511554836
  0
ARC
  8
_0-1_レイヤ___3
  6
CONTINUOUS
 62
    7
 10
1023.4238842683201
 20
1049.2446501521056
 40
4.9612178202245287
 50
254.63470280837151
 51
293.08676244141134
  0
ARC
  8
_0-1_レイヤ___3
  6
CONTINUOUS
 62
    7
 10
1017.3989035499856
 20
692.64845191851919
 40
50.955375829721852
 50
263.49853843690869
 51
276.88729027015376
  0
ARC
  8
_0-1_レイヤ___3
  6
CONTINUOUS
 62
    7
 10
1016.9827703334486
 20
681.08147746569216
 40
39.42585924535593
 50
255.79697775138646
 51
262.19594054511458
  0
ARC
  8
_0-1_レイヤ___3
  6
CONTINUOUS
 62
    7
 10
1007.7130838219634
 20
645.26791939535372
 40
2.4407788292989872
 50
223.72781571647477
 51
260.4776422216168
  0
ARC
  8
_0-1_レイヤ___3
  6
CONTINUOUS
 62
    7
 10
1006.6278870917258
 20
644.09467171402866
 40
0.8512190690812027
 50
170.11703250646468
 51
217.1369572133608
  0
ARC
  8
_0-1_レイヤ___3
  6
CONTINUOUS
 62
    7
 10
1007.8227938832529
 20
643.83980784444589
 40
2.0726481445989151
 50
141.12068962415267
 51
168.84552341960367
  0
ARC
  8
_0-1_レイヤ___3
  6
CONTINUOUS
 62
    7
 10
995.47174408246951
 20
654.46506673334341
 40
14.221025951201367
 50
319.02955483065028
 51
329.37563911340828
  0
ARC
  8
_0-1_レイヤ___3
  6
CONTINUOUS
 62
    7
 10
1006.9105979283713
 20
647.42497052547435
 40
0.8243917654636316
 50
345.65876887455437
 51
81.721366177375756
  0
ARC
  8
_0-1_レイヤ___3
  6
CONTINUOUS
 62
    7
 10
1005.2392695143217
 20
643.67067270993573
 40
4.9081578696484645
 50
68.610564081907441
 51
77.407789334216773
  0
ARC
  8
_0-1_レイヤ___3
  6
CONTINUOUS
 62
    7
 10
1144.4549898910177
 20
499.19695032017501
 40
203.38121861931518
 50
130.13796013142644
 51
132.78467829343683
  0
ARC
  8
_0-1_レイヤ___3
  6
CONTINUOUS
 62
    7
 10
1019.5698188193537
 20
646.43800681518769
 40
10.326567584746085
 50
98.130785271251497
 51
127.04055217754386
  0
ARC
  8
_0-1_レイヤ___3
  6
CONTINUOUS
 62
    7
 10
1019.0444006398477
 20
641.82869001109225
 40
14.86152762280769
 50
59.401047741948055
 51
93.607485696460031
  0
ARC
  8
_0-1_レイヤ___3
  6
CONTINUOUS
 62
    7
 10
1021.8275016582666
 20
647.36198709076177
 40
8.6922677768577401
 50
347.36584918772689
 51
56.624692795388363
  0
ARC
  8
_0-1_レイヤ___3
  6
CONTINUOUS
 62
    7
 10
1027.4063728643287
 20
645.90215915675969
 40
2.9362914550678991
 50
296.77855720104418
 51
351.35444827859266
  0
ARC
  8
_0-1_レイヤ___3
  6
CONTINUOUS
 62
    7
 10
1025.3685695192664
 20
649.56605245343269
 40
7.1273600500373204
 50
282.97874071794138
 51
298.13334972123369
  0
ARC
  8
_0-1_レイヤ___3
  6
CONTINUOUS
 62
    7
 10
1020.8175503000584
 20
669.66086675737756
 40
27.731043239471404
 50
275.57025924058206
 51
282.81690525663845
  0
ARC
  8
_0-1_レイヤ___3
  6
CONTINUOUS
 62
    7
 10
1040.8825332852123
 20
838.06082765610029
 40
2.065872779988708
 50
309.23846076575808
 51
348.83402617013473
  0
ARC
  8
_0-1_レイヤ___3
  6
CONTINUOUS
 62
    7
 10
1041.6362106422232
 20
837.24966887717926
 40
0.9634690276048991
 50
260.0237776611956
 51
305.03383775703077
  0
ARC
  8
_0-1_レイヤ___3
  6
CONTINUOUS
 62
    7
 10
1036.9300738164541
 20
821.27540417130945
 40
15.696054386437364
 50
73.190210981123144
 51
81.059785899678005
  0
ARC
  8
_0-1_レイヤ___3
  6
CONTINUOUS
 62
    7
 10
1039.8789764022079
 20
836.10103050357338
 40
0.8495957844252654
 50
126.86308258416813
 51
154.94919964344183
  0
ARC
  8
_0-1_レイヤ___3
  6
CONTINUOUS
 62
    7
 10
1041.9073243390235
 20
840.74258420792944
 40
5.1149675984804759
 50
212.41432609226408
 51
236.83672013430811
  0
ARC
  8
_0-1_レイヤ___3
  6
CONTINUOUS
 62
    7
 10
1039.3306808437158
 20
839.00187115770734
 40
2.0086353638007619
 50
146.83266009935241
 51
209.89418581739739
  0
ARC
  8
_0-1_レイヤ___3
  6
CONTINUOUS
 62
    7
 10
1473.1609663952734
 20
593.41934851777808
 40
500.52186201763504
 50
150.13466880925014
 51
150.47202611536318
  0
ARC
  8
_0-1_レイヤ___3
  6
CONTINUOUS
 62
    7
 10
1040.7972800010814
 20
841.79213754717296
 40
1.8983665806089858
 50
84.194603609919739
 51
152.76976788417934
  0
ARC
  8
_0-1_レイヤ___3
  6
CONTINUOUS
 62
    7
 10
1040.2636784128149
 20
837.93583901484851
 40
5.7905727393220818
 50
58.26697106131865
 51
82.801294921949832
  0
ARC
  8
_0-1_レイヤ___3
  6
CONTINUOUS
 62
    7
 10
1040.5686043205403
 20
838.44307847038067
 40
5.1987873830545883
 50
18.129552708419073
 51
58.18490046630567
  0
ARC
  8
_0-1_レイヤ___3
  6
CONTINUOUS
 62
    7
 10
1044.2082226754449
 20
840.45265677912028
 40
1.3588151582525207
 50
305.08718095029269
 51
343.23751314114742
  0
ARC
  8
_0-1_レイヤ___3
  6
CONTINUOUS
 62
    7
 10
1050.7565299710361
 20
830.07276847475282
 40
10.915894595741321
 50
121.89290902983963
 51
135.96217815573985
  0
ARC
  8
_0-1_レイヤ___3
  6
CONTINUOUS
 62
    7
 10
1030.2130105622914
 20
751.19749252326642
 40
2.5862495882491499
 50
230.53864132263172
 51
258.76900679348728
  0
ARC
  8
_0-1_レイヤ___3
  6
CONTINUOUS
 62
    7
 10
1030.8520527044757
 20
752.16874852545232
 40
3.7443101996881119
 50
181.65253012487091
 51
232.43513956987101
  0
ARC
  8
_0-1_レイヤ___3
  6
CONTINUOUS
 62
    7
 10
1030.7092997794755
 20
750.52824573536327
 40
3.9126244241799353
 50
23.059508695981474
 51
156.94049130401854
  0
ARC
  8
_0-1_レイヤ___3
  6
CONTINUOUS
 62
    7
 10
1031.7407082087359
 20
751.32349481599306
 40
2.6723093008972332
 50
291.71185854267446
 51
16.015316568569688
  0
ARC
  8
_0-1_レイヤ___3
  6
CONTINUOUS
 62
    7
 10
1030.9534378136207
 20
753.21134274220583
 40
4.7175834829445558
 50
254.70887812734748
 51
292.11301178337447
  0
ARC
  8
_0-1_レイヤ___3
  6
CONTINUOUS
 62
    7
 10
779.19890754998301
 20
885.6484479185184
 40
50.955375829721859
 50
263.49853843691142
 51
276.88729027015648
  0
ARC
  8
_0-1_レイヤ___3
  6
CONTINUOUS
 62
    7
 10
778.78277433344897
 20
874.08147346569137
 40
39.42585924535593
 50
255.79697775138646
 51
262.19594054511458
  0
ARC
  8
_0-1_レイヤ___3
  6
CONTINUOUS
 62
    7
 10
769.51308782196429
 20
838.26791539535407
 40
2.4407788293002057
 50
223.72781571646595
 51
260.47764222160799
  0
ARC
  8
_0-1_レイヤ___3
  6
CONTINUOUS
 62
    7
 10
768.42789109172622
 20
837.09466771402788
 40
0.8512190690810349
 50
170.11703250641807
 51
217.13695721331419
  0
ARC
  8
_0-1_レイヤ___3
  6
CONTINUOUS
 62
    7
 10
769.62279788325441
 20
836.83980384444737
 40
2.0726481445994889
 50
141.12068962419627
 51
168.84552341964726
  0
ARC
  8
_0-1_レイヤ___3
  6
CONTINUOUS
 62
    7
 10
757.27174808246991
 20
847.4650627333466
 40
14.22102595120321
 50
319.02955483064
 51
329.37563911339799
  0
ARC
  8
_0-1_レイヤ___3
  6
CONTINUOUS
 62
    7
 10
768.7106019283724
 20
840.42496652547413
 40
0.8243917654632076
 50
345.65876887460593
 51
81.721366177427328
  0
ARC
  8
_0-1_レイヤ___3
  6
CONTINUOUS
 62
    7
 10
767.03927351431412
 20
836.67066870993551
 40
4.9081578696506307
 50
68.610564081824691
 51
77.407789334134023
  0
ARC
  8
_0-1_レイヤ___3
  6
CONTINUOUS
 62
    7
 10
957.68848405574067
 20
627.79267568579826
 40
285.64719351790427
 50
129.50135740911892
 51
131.58136627708819
  0
ARC
  8
_0-1_レイヤ___3
  6
CONTINUOUS
 62
    7
 10
781.07152804863426
 20
840.40229927397206
 40
9.3083357396728417
 50
95.933397095814115
 51
123.09209324266017
  0
ARC
  8
_0-1_レイヤ___3
  6
CONTINUOUS
 62
    7
 10
781.01743412969904
 20
835.08601037811104
 40
14.603022066017902
 50
59.133760537266085
 51
93.565401193218165
  0
ARC
  8
_0-1_レイヤ___3
  6
CONTINUOUS
 62
    7
 10
783.81323977407624
 20
840.48772950414559
 40
8.54009671466142
 50
346.27002082095896
 51
56.640932994875698
  0
ARC
  8
_0-1_レイヤ___3
  6
CONTINUOUS
 62
    7
 10
789.20637686432792
 20
838.90215515676061
 40
2.9362914550691288
 50
296.77855720103167
 51
351.35444827858015
  0
ARC
  8
_0-1_レイヤ___3
  6
CONTINUOUS
 62
    7
 10
787.16857351926842
 20
842.56604845342849
 40
7.127360050032526
 50
282.97874071793728
 51
298.13334972122959
  0
ARC
  8
_0-1_レイヤ___3
  6
CONTINUOUS
 62
    7
 10
782.61755430005428
 20
862.66086275737791
 40
27.731043239472125
 50
275.57025924059121
 51
282.8169052566476
  0
ARC
  8
_0-1_レイヤ___3
  6
CONTINUOUS
 62
    7
 10
914.94132914893248
 20
1064.0088048137284
 40
4.0572788413847398
 50
173.60428572309942
 51
299.01557922494101
  0
ARC
  8
_0-1_レイヤ___3
  6
CONTINUOUS
 62
    7
 10
915.25095925651522
 20
1062.1107877324839
 40
4.9368387633874518
 50
70.372004862849963
 51
151.57498197979686
  0
ARC
  8
_0-1_レイヤ___3
  6
CONTINUOUS
 62
    7
 10
913.41066313131682
 20
1054.2942395514847
 40
12.948154239909833
 50
62.899140426279708
 51
74.323613918063003
  0
ARC
  8
_0-1_レイヤ___3
  6
CONTINUOUS
 62
    7
 10
908.61309933227653
 20
1045.0470930142058
 40
23.365661621857441
 50
55.316075504726165
 51
62.756411431141537
  0
ARC
  8
_0-1_レイヤ___3
  6
CONTINUOUS
 62
    7
 10
890.84104458088882
 20
1099.9505758629466
 40
47.31806519009146
 50
303.42984518955399
 51
311.03982277359466
  0
ARC
  8
_0-1_レイヤ___3
  6
CONTINUOUS
 62
    7
 10
754.42940013314092
 20
1068.4703521971032
 40
3.6182520400108626
 50
309.05837836380897
 51
37.256074810928624
  0
ARC
  8
_0-1_レイヤ___3
  6
CONTINUOUS
 62
    7
 10
754.49971534191513
 20
1068.3808601132087
 40
3.6182520400108626
 50
39.058378363808991
 51
127.25607481092864
  0
ARC
  8
_0-1_レイヤ___3
  6
CONTINUOUS
 62
    7
 10
754.58920742580995
 20
1068.4511753219829
 40
3.6182520400108626
 50
129.05837836380894
 51
217.2560748109286
  0
ARC
  8
_0-1_レイヤ___3
  6
CONTINUOUS
 62
    7
 10
754.51889221703573
 20
1068.5406674058777
 40
3.6182520400108626
 50
219.05837836380897
 51
307.25607481092862
  0
ARC
  8
_0-1_レイヤ___3
  6
CONTINUOUS
 62
    7
 10
766.0294001331406
 20
1174.2703521971039
 40
3.6182520400108626
 50
309.05837836380897
 51
37.256074810928624
  0
ARC
  8
_0-1_レイヤ___3
  6
CONTINUOUS
 62
    7
 10
766.0597145884808
 20
1173.8475205012533
 40
3.8664193880687145
 50
42.522679862602743
 51
123.7917733121477
  0
ARC
  8
_0-1_レイヤ___3
  6
CONTINUOUS
 62
    7
 10
766.18920742580963
 20
1174.2511753219828
 40
3.6182520400108626
 50
129.05837836380894
 51
217.2560748109286
  0
ARC
  8
_0-1_レイヤ___3
  6
CONTINUOUS
 62
    7
 10
766.10385210678169
 20
1174.2153331537656
 40
3.5286923396879177
 50
217.63187134119735
 51
308.68258183355306
  0
ARC
  8
_0-1_レイヤ___3
  6
CONTINUOUS
 62
    7
 10
757.42940013314092
 20
986.87035419710298
 40
3.6182520400108626
 50
309.05837836380897
 51
37.256074810928624
  0
ARC
  8
_0-1_レイヤ___3
  6
CONTINUOUS
 62
    7
 10
757.50193637228767
 20
986.79937069964751
 40
3.6048882612167583
 50
38.852194132857726
 51
127.46225904186706
  0
ARC
  8
_0-1_レイヤ___3
  6
CONTINUOUS
 62
    7
 10
757.58920742581017
 20
986.85117732198307
 40
3.6182520400108626
 50
129.05837836380894
 51
217.2560748109286
  0
ARC
  8
_0-1_レイヤ___3
  6
CONTINUOUS
 62
    7
 10
757.51889221703573
 20
986.94066940587788
 40
3.6182520400109111
 50
219.05837836380257
 51
307.2560748109222
  0
ARC
  8
_0-1_レイヤ___3
  6
CONTINUOUS
 62
    7
 10
867.98492699900316
 20
999.47569073319983
 40
3.6505507430265101
 50
309.54759155480292
 51
36.766861619934701
  0
ARC
  8
_0-1_レイヤ___3
  6
CONTINUOUS
 62
    7
 10
867.97347690661149
 20
999.33686030414208
 40
3.744276198382269
 50
38.364015237058673
 51
123.45543092128759
  0
ARC
  8
_0-1_レイヤ___3
  6
CONTINUOUS
 62
    7
 10
868.57798577930885
 20
999.6045236795635
 40
3.9089631758833585
 50
133.05569143367879
 51
213.25876174105878
  0
ARC
  8
_0-1_レイヤ___3
  6
CONTINUOUS
 62
    7
 10
868.25605074398504
 20
999.85294678772561
 40
3.7955051747338207
 50
219.06981177564137
 51
302.74963438270481
  0
ARC
  8
_0-1_レイヤ___3
  6
CONTINUOUS
 62
    7
 10
861.22939813314042
 20
1100.4703521971028
 40
3.6182520400108142
 50
309.05837836381539
 51
37.25607481093504
  0
ARC
  8
_0-1_レイヤ___3
  6
CONTINUOUS
 62
    7
 10
861.29971334191487
 20
1100.3808601132084
 40
3.6182520400108626
 50
39.058378363808991
 51
127.25607481092864
  0
ARC
  8
_0-1_レイヤ___3
  6
CONTINUOUS
 62
    7
 10
861.38920542581013
 20
1100.4511753219833
 40
3.6182520400108142
 50
129.05837836381542
 51
217.25607481093505
  0
ARC
  8
_0-1_レイヤ___3
  6
CONTINUOUS
 62
    7
 10
861.31889021703591
 20
1100.5406674058777
 40
3.6182520400108626
 50
219.05837836380897
 51
307.25607481092862
  0
ARC
  8
_0-1_レイヤ___3
  6
CONTINUOUS
 62
    7
 10
830.81767147559185
 20
904.81701500656072
 40
15.179989746805294
 50
282.910438901237
 51
306.79273281819894
  0
ARC
  8
_0-1_レイヤ___3
  6
CONTINUOUS
 62
    7
 10
832.38196770623949
 20
898.65312020780379
 40
8.8236420261821618
 50
253.31966211296876
 51
281.9521787151844
  0
ARC
  8
_0-1_レイヤ___3
  6
CONTINUOUS
 62
    7
 10
831.85124318957128
 20
895.82354427254188
 40
5.9685329122481425
 50
185.41049055581914
 51
250.40216358860431
  0
ARC
  8
_0-1_レイヤ___3
  6
CONTINUOUS
 62
    7
 10
842.35267984628172
 20
897.01210322049576
 40
16.53637983794248
 50
124.74028093250328
 51
186.07948473510297
  0
ARC
  8
_0-1_レイヤ___3
  6
CONTINUOUS
 62
    7
 10
836.901381542423
 20
903.70599275582947
 40
7.9570936902265181
 50
91.38322222688933
 51
119.94624382456985
  0
ARC
  8
_0-1_レイヤ___3
  6
CONTINUOUS
 62
    7
 10
836.05430725960196
 20
902.07289026582373
 40
9.6102243811283614
 50
326.72931217820758
 51
86.091918797204144
  0
ARC
  8
_0-1_レイヤ___3
  6
CONTINUOUS
 62
    7
 10
830.09291410831588
 20
906.75219299274374
 40
17.173518335314224
 50
304.86189281347811
 51
324.58719047424881
  0
ARC
  8
_0-1_レイヤ___3
  6
CONTINUOUS
 62
    7
 10
857.16690642359958
 20
651.7950203207397
 40
14.179211572147757
 50
126.71890803799654
 51
161.64217587725216
  0
ARC
  8
_0-1_レイヤ___3
  6
CONTINUOUS
 62
    7
 10
852.14160705607151
 20
657.74109011320661
 40
6.4258337351445283
 50
44.697268368567592
 51
122.49690587004591
  0
ARC
  8
_0-1_レイヤ___3
  6
CONTINUOUS
 62
    7
 10
844.03764525526731
 20
651.29476871915585
 40
16.75780587920967
 50
339.84532568663047
 51
40.872781711226978
  0
ARC
  8
_0-1_レイヤ___3
  6
CONTINUOUS
 62
    7
 10
852.37811424908364
 20
648.94388330358197
 40
8.1453880050216014
 50
307.25736268556938
 51
335.14953311782597
  0
ARC
  8
_0-1_レイヤ___3
  6
CONTINUOUS
 62
    7
 10
851.68482578462226
 20
650.45388446768072
 40
9.7736677343603233
 50
237.61019921136779
 51
305.13272113405236
  0
ARC
  8
_0-1_レイヤ___3
  6
CONTINUOUS
 62
    7
 10
851.93984921690139
 20
649.54853098053434
 40
9.1725501760565891
 50
190.09491868875492
 51
233.231404555425
  0
ARC
  8
_0-1_レイヤ___3
  6
CONTINUOUS
 62
    7
 10
856.28427236162133
 20
650.56257241033791
 40
13.629514911608924
 50
168.06677028241126
 51
191.09065959950226
  0
ARC
  8
_0-1_レイヤ___3
  6
CONTINUOUS
 62
    7
 10
862.9428411130275
 20
649.64497465763259
 40
20.3395619452772
 50
161.01822784030261
 51
169.41632007445898
  0
ARC
  8
_0-1_レイヤ___3
  6
CONTINUOUS
 62
    7
 10
805.69380668034819
 20
538.69819965091096
 40
2.1539603466237507
 50
165.41031575631757
 51
202.87893172588491
  0
ARC
  8
_0-1_レイヤ___3
  6
CONTINUOUS
 62
    7
 10
804.62749152165861
 20
538.90061364105691
 40
1.0735072876596223
 50
118.8623660469818
 51
161.52649176848783
  0
ARC
  8
_0-1_レイヤ___3
  6
CONTINUOUS
 62
    7
 10
797.28897514043092
 20
556.6391793756884
 40
18.13017798868621
 50
292.0976594466872
 51
299.76395347862297
  0
ARC
  8
_0-1_レイヤ___3
  6
CONTINUOUS
 62
    7
 10
805.39687142275261
 20
541.13090677935986
 40
0.9216257748929892
 50
345.53991444497848
 51
8.1004253154433545
  0
ARC
  8
_0-1_レイヤ___3
  6
CONTINUOUS
 62
    7
 10
806.40863048409551
 20
536.59396199956234
 40
4.6678666998333256
 50
64.892342350671655
 51
91.219303272447789
  0
ARC
  8
_0-1_レイヤ___3
  6
CONTINUOUS
 62
    7
 10
807.39013107309893
 20
538.99741771400102
 40
2.0791734116894309
 50
0.0924274695363421
 51
61.277918709635607
  0
ARC
  8
_0-1_レイヤ___3
  6
CONTINUOUS
 62
    7
 10
521.12963609800977
 20
513.98304394880427
 40
289.42295954210618
 50
4.3748797109119852
 51
4.9588370319686916
  0
ARC
  8
_0-1_レイヤ___3
  6
CONTINUOUS
 62
    7
 10
807.79536920957617
 20
535.80034663949277
 40
1.9315690837437196
 50
299.59487371197093
 51
7.7485400777029065
  0
ARC
  8
_0-1_レイヤ___3
  6
CONTINUOUS
 62
    7
 10
806.07030684345796
 20
539.18463182603432
 40
5.7288474094025954
 50
272.39094799294037
 51
297.88072301454099
  0
ARC
  8
_0-1_レイヤ___3
  6
CONTINUOUS
 62
    7
 10
806.43013371201482
 20
539.88949223593579
 40
6.4298559330295735
 50
250.1735183182341
 51
268.92321579377875
  0
ARC
  8
_0-1_レイヤ___3
  6
CONTINUOUS
 62
    7
 10
804.8251922714237
 20
535.84383902883701
 40
2.084209285084631
 50
214.58537544865064
 51
253.95982810573213
  0
ARC
  8
_0-1_レイヤ___3
  6
CONTINUOUS
 62
    7
 10
804.33863909147726
 20
535.10077175954336
 40
1.3057067920016165
 50
160.30687787833679
 51
199.69312212166318
  0
ARC
  8
_0-1_レイヤ___3
  6
CONTINUOUS
 62
    7
 10
795.50402837270235
 20
538.74523901991495
 40
8.2528052209274492
 50
337.15196910321384
 51
353.84769736369009
  0
ARC
  8
_0-1_レイヤ___3
  6
CONTINUOUS
 62
    7
 10
807.51004908155232
 20
463.90775863550658
 40
14.317143909078595
 50
272.15854599242658
 51
306.91476388383575
  0
ARC
  8
_0-1_レイヤ___3
  6
CONTINUOUS
 62
    7
 10
808.1782620013737
 20
456.1020167087068
 40
6.5025218663904392
 50
220.71114468273126
 51
268.8636161407839
  0
ARC
  8
_0-1_レイヤ___3
  6
CONTINUOUS
 62
    7
 10
808.20023986302635
 20
455.45873023129303
 40
6.1202188424728767
 50
185.60684589155753
 51
216.00673613387445
  0
ARC
  8
_0-1_レイヤ___3
  6
CONTINUOUS
 62
    7
 10
818.75276326469452
 20
456.62719681088589
 40
16.736937013871227
 50
125.09847193578855
 51
186.05830228314753
  0
ARC
  8
_0-1_レイヤ___3
  6
CONTINUOUS
 62
    7
 10
813.35815589338745
 20
463.1356259081511
 40
8.3372391571258095
 50
93.086139853877157
 51
120.47914843666976
  0
ARC
  8
_0-1_レイヤ___3
  6
CONTINUOUS
 62
    7
 10
812.87079840659908
 20
461.63194086575942
 40
9.828908309861518
 50
21.917405248774415
 51
89.77555122749844
  0
ARC
  8
_0-1_レイヤ___3
  6
CONTINUOUS
 62
    7
 10
813.32833077675241
 20
462.62706097468737
 40
9.0642792744877632
 50
333.62829674767221
 51
17.155886153349215
  0
ARC
  8
_0-1_レイヤ___3
  6
CONTINUOUS
 62
    7
 10
808.90196750227778
 20
464.44292528525949
 40
13.840748965036758
 50
312.14536268436683
 51
335.03289022576928
  0
ARC
  8
_0-1_レイヤ___3
  6
CONTINUOUS
 62
    7
 10
803.87643975867695
 20
469.37167666842157
 40
20.871548826414745
 50
305.88089813536226
 51
313.29536355998289
  0
ARC
  8
_0-1_レイヤ___3
  6
CONTINUOUS
 62
    7
 10
903.61591105352068
 20
440.46497145934524
 40
2.6530168895433799
 50
231.08299603295504
 51
258.99142430544686
  0
ARC
  8
_0-1_レイヤ___3
  6
CONTINUOUS
 62
    7
 10
904.63922873898332
 20
441.84345914891111
 40
4.3689575115416268
 50
187.66434270170771
 51
231.9978675558713
  0
ARC
  8
_0-1_レイヤ___3
  6
CONTINUOUS
 62
    7
 10
904.00930177947566
 20
439.53709941260314
 40
4.081795346939626
 50
24.978831144491817
 51
155.02116885550819
  0
ARC
  8
_0-1_レイヤ___3
  6
CONTINUOUS
 62
    7
 10
905.14071020873621
 20
440.52349881599326
 40
2.6723093008966603
 50
291.71185854265832
 51
16.015316568553533
  0
ARC
  8
_0-1_レイヤ___3
  6
CONTINUOUS
 62
    7
 10
904.35343981362075
 20
442.41134674220604
 40
4.7175834829436711
 50
254.7088781273481
 51
292.1130117833751
  0
ARC
  8
_0-1_レイヤ___3
  6
CONTINUOUS
 62
    7
 10
848.54051449035205
 20
430.96937217068358
 40
3.469891015334241
 50
308.68441707201782
 51
37.065550230191946
  0
ARC
  8
_0-1_レイヤ___3
  6
CONTINUOUS
 62
    7
 10
848.37347690661113
 20
430.73686830414232
 40
3.7442761983822024
 50
38.364015237065018
 51
123.45543092129392
  0
ARC
  8
_0-1_レイヤ___3
  6
CONTINUOUS
 62
    7
 10
848.97798577930848
 20
431.00453167956317
 40
3.9089631758833061
 50
133.05569143368521
 51
213.2587617410652
  0
ARC
  8
_0-1_レイヤ___3
  6
CONTINUOUS
 62
    7
 10
848.51704609405238
 20
431.12530971434495
 40
3.6071527867037849
 50
218.88729104984466
 51
307.42716212489296
  0
ARC
  8
_0-1_レイヤ___3
  6
CONTINUOUS
 62
    7
 10
765.81319723321508
 20
478.18140989655404
 40
2.2238894097174993
 50
162.75301616590542
 51
198.90761480661951
  0
ARC
  8
_0-1_レイヤ___3
  6
CONTINUOUS
 62
    7
 10
764.76853072337371
 20
478.43077707483104
 40
1.1544817356333537
 50
118.9729421033966
 51
159.1982914565325
  0
ARC
  8
_0-1_レイヤ___3
  6
CONTINUOUS
 62
    7
 10
757.43240709383394
 20
495.89111209888245
 40
17.791569918548277
 50
292.38974733977165
 51
299.85549569832625
  0
ARC
  8
_0-1_レイヤ___3
  6
CONTINUOUS
 62
    7
 10
765.36684043683999
 20
480.70739692667559
 40
0.9548620869380997
 50
345.03188595726613
 51
9.2433035904779288
  0
ARC
  8
_0-1_レイヤ___3
  6
CONTINUOUS
 62
    7
 10
766.41745986406158
 20
475.68155418246562
 40
5.1803487494774414
 50
66.18381840146273
 51
91.196316650536687
  0
ARC
  8
_0-1_レイヤ___3
  6
CONTINUOUS
 62
    7
 10
767.54712247706289
 20
478.55105580089031
 40
2.1027691512918181
 50
1.3548299766751037
 51
62.769057388920366
  0
ARC
  8
_0-1_レイヤ___3
  6
CONTINUOUS
 62
    7
 10
661.47306248859741
 20
467.55267078823664
 40
108.73895235418996
 50
4.2762196665736631
 51
5.831432433559697
  0
ARC
  8
_0-1_レイヤ___3
  6
CONTINUOUS
 62
    7
 10
768.0122385887953
 20
475.4365231736827
 40
1.910273452401392
 50
298.68998125372354
 51
6.7416041590645426
  0
ARC
  8
_0-1_レイヤ___3
  6
CONTINUOUS
 62
    7
 10
766.13669571874516
 20
478.88207591236011
 40
5.8332148530049466
 50
273.66237396233873
 51
298.60330709860187
  0
ARC
  8
_0-1_レイヤ___3
  6
CONTINUOUS
 62
    7
 10
765.86151035398962
 20
477.26444000733551
 40
4.2532865227882528
 50
236.42468060565631
 51
278.76048233955254
  0
ARC
  8
_0-1_レイヤ___3
  6
CONTINUOUS
 62
    7
 10
764.36961910842592
 20
474.776192521729
 40
1.361635497775215
 50
202.24260611680677
 51
230.81510461721837
  0
ARC
  8
_0-1_レイヤ___3
  6
CONTINUOUS
 62
    7
 10
764.18592940663621
 20
474.64475850034347
 40
1.1430516271053301
 50
157.57656878401124
 51
199.62906916138439
  0
ARC
  8
_0-1_レイヤ___3
  6
CONTINUOUS
 62
    7
 10
754.83194981247743
 20
478.94655841520859
 40
9.1537082025608889
 50
335.01891919001889
 51
348.11118316414695
  0
ARC
  8
_0-1_レイヤ___3
  6
CONTINUOUS
 62
    7
 10
762.73060169351334
 20
477.0570333423521
 40
1.0587086934282948
 50
0.2024263764356995
 51
22.417438571510775
  0
ARC
  8
_0-1_レイヤ___3
  6
CONTINUOUS
 62
    7
 10
764.97116781415593
 20
616.08365553411659
 40
2.7873075301278489
 50
85.098912060872593
 51
112.39341246421525
  0
ARC
  8
_0-1_レイヤ___3
  6
CONTINUOUS
 62
    7
 10
765.06783426023753
 20
614.86415632683759
 40
3.9991184705897576
 50
40.488616000670739
 51
87.972728750632371
  0
ARC
  8
_0-1_レイヤ___3
  6
CONTINUOUS
 62
    7
 10
764.04996962294013
 20
616.39043883781028
 40
4.1980717428075316
 50
292.09878782006825
 51
14.77110982577576
  0
ARC
  8
_0-1_レイヤ___3
  6
CONTINUOUS
 62
    7
 10
764.73767017809018
 20
616.16478188779581
 40
3.7709389678248111
 50
225.81272876094388
 51
283.67703383293741
  0
ARC
  8
_0-1_レイヤ___3
  6
CONTINUOUS
 62
    7
 10
763.5576012715776
 20
615.43711690616362
 40
2.4502052494024209
 50
145.04923227378541
 51
233.76543947062166
  0
ARC
  8
_0-1_レイヤ___3
  6
CONTINUOUS
 62
    7
 10
765.35322969519734
 20
614.34831837432284
 40
4.5477660724571045
 50
108.51193802328963
 51
146.76590663357516
  0
ARC
  8
_0-1_レイヤ___3
  6
CONTINUOUS
 62
    7
 10
804.994883233878
 20
655.45356048674478
 40
3.6281880594160305
 50
163.88258379737618
 51
249.24751855678568
  0
ARC
  8
_0-1_レイヤ___3
  6
CONTINUOUS
 62
    7
 10
804.75389957774814
 20
655.78570163588211
 40
3.86863051266507
 50
254.33469396596752
 51
336.78523637768211
  0
ARC
  8
_0-1_レイヤ___3
  6
CONTINUOUS
 62
    7
 10
804.57253434750533
 20
655.23723892547196
 40
3.8622432435883787
 50
345.35529373531
 51
69.750329418123712
  0
ARC
  8
_0-1_レイヤ___3
  6
CONTINUOUS
 62
    7
 10
805.17846848000181
 20
654.96729747524569
 40
3.9614698964170576
 50
79.368869284730408
 51
157.85205004720723
  0
ARC
  8
_0-1_レイヤ___3
  6
CONTINUOUS
 62
    7
 10
855.59488323387859
 20
561.85356248674452
 40
3.6281880594164049
 50
163.88258379737326
 51
249.24751855678275
  0
ARC
  8
_0-1_レイヤ___3
  6
CONTINUOUS
 62
    7
 10
855.32506249984499
 20
562.12223037883405
 40
3.7997432889377807
 50
254.49493791026757
 51
340.61068524318307
  0
ARC
  8
_0-1_レイヤ___3
  6
CONTINUOUS
 62
    7
 10
855.47149513875956
 20
561.84014995551593
 40
3.5745903471163887
 50
344.09856307463974
 51
73.122356257299032
  0
ARC
  8
_0-1_レイヤ___3
  6
CONTINUOUS
 62
    7
 10
855.5299235835023
 20
561.82296511882726
 40
3.5745903471165521
 50
74.098563074630889
 51
163.12235625729019
  0
ARC
  8
_0-1_レイヤ___3
  6
CONTINUOUS
 62
    7
 10
755.99488523387868
 20
720.85356048674441
 40
3.628188059416217
 50
163.88258379736732
 51
249.24751855677684
  0
ARC
  8
_0-1_レイヤ___3
  6
CONTINUOUS
 62
    7
 10
755.75390157774814
 20
721.18570163588174
 40
3.8686305126646814
 50
254.3346939659703
 51
336.78523637768484
  0
ARC
  8
_0-1_レイヤ___3
  6
CONTINUOUS
 62
    7
 10
755.57253634750487
 20
720.63723892547159
 40
3.8622432435883787
 50
345.35529373531
 51
69.750329418123712
  0
ARC
  8
_0-1_レイヤ___3
  6
CONTINUOUS
 62
    7
 10
755.92992558350284
 20
720.82296311882772
 40
3.5745903471163887
 50
74.098563074639742
 51
163.12235625729903
  0
ARC
  8
_0-1_レイヤ___3
  6
CONTINUOUS
 62
    7
 10
712.17907484567513
 20
887.02118256156382
 40
15.269856783945643
 50
53.278570041456938
 51
77.018258239125956
  0
ARC
  8
_0-1_レイヤ___3
  6
CONTINUOUS
 62
    7
 10
713.70891190016187
 20
893.12297200099636
 40
8.9811573682749035
 50
77.784004376523683
 51
105.89427727028098
  0
ARC
  8
_0-1_レイヤ___3
  6
CONTINUOUS
 62
    7
 10
713.13416168843764
 20
896.21114731845978
 40
5.860970600256671
 50
108.75940156606143
 51
173.63635370080698
  0
ARC
  8
_0-1_レイヤ___3
  6
CONTINUOUS
 62
    7
 10
724.30986218723342
 20
894.98767522896117
 40
17.103434210815848
 50
173.7126083148865
 51
225.34667051466297
  0
ARC
  8
_0-1_レイヤ___3
  6
CONTINUOUS
 62
    7
 10
718.7738296693758
 20
889.6672289623649
 40
9.4299049315747894
 50
226.55519412753966
 51
265.95901411793216
  0
ARC
  8
_0-1_レイヤ___3
  6
CONTINUOUS
 62
    7
 10
718.07080040659935
 20
890.08960065332815
 40
9.8289083098619408
 50
270.2244487724999
 51
338.08259475122389
  0
ARC
  8
_0-1_レイヤ___3
  6
CONTINUOUS
 62
    7
 10
718.52833277675336
 20
889.09448054439849
 40
9.0642792744869993
 50
342.84411384665117
 51
26.371703252328189
  0
ARC
  8
_0-1_レイヤ___3
  6
CONTINUOUS
 62
    7
 10
714.10196950227805
 20
887.27861623382694
 40
13.840748965036758
 50
24.967109774230718
 51
47.854637315633184
  0
ARC
  8
_0-1_レイヤ___3
  6
CONTINUOUS
 62
    7
 10
709.07644175866812
 20
882.34986485066031
 40
20.871548826423737
 50
46.704636440006176
 51
54.11910186462682
  0
ARC
  8
_0-1_レイヤ___3
  6
CONTINUOUS
 62
    7
 10
733.16440161241053
 20
1115.7021520195913
 40
3.8144480969423733
 50
311.84935737826498
 51
34.465095796472617
  0
ARC
  8
_0-1_レイヤ___3
  6
CONTINUOUS
 62
    7
 10
733.36255481496642
 20
1115.4685827313608
 40
3.7955051747337536
 50
39.069811775647729
 51
122.74963438271121
  0
ARC
  8
_0-1_レイヤ___3
  6
CONTINUOUS
 62
    7
 10
733.63367855994761
 20
1115.8458387858866
 40
3.6505507430265101
 50
129.54759155480289
 51
216.76686161993467
  0
ARC
  8
_0-1_レイヤ___3
  6
CONTINUOUS
 62
    7
 10
733.64512865233928
 20
1115.9846692149445
 40
3.7442761983822024
 50
218.36401523706502
 51
303.4554309212939
  0
ARC
  8
_0-1_レイヤ___3
  6
CONTINUOUS
 62
    7
 10
696.78128637688837
 20
1020.2062658528018
 40
14.193218563277586
 50
271.8896548173081
 51
306.93090994550579
  0
ARC
  8
_0-1_レイヤ___3
  6
CONTINUOUS
 62
    7
 10
697.54393681005604
 20
1012.3054569730817
 40
6.2915937783872629
 50
187.71566450762427
 51
267.31587798266634
  0
ARC
  8
_0-1_レイヤ___3
  6
CONTINUOUS
 62
    7
 10
708.01629396260955
 20
1013.3061804576244
 40
16.808601262069601
 50
133.39066550698857
 51
186.30320453009884
  0
ARC
  8
_0-1_レイヤ___3
  6
CONTINUOUS
 62
    7
 10
702.55911192183908
 20
1018.8566818730237
 40
9.0275011635203981
 50
94.127774603944786
 51
132.42185630108136
  0
ARC
  8
_0-1_レイヤ___3
  6
CONTINUOUS
 62
    7
 10
702.08099460570475
 20
1018.0361762315408
 40
9.8260896155869002
 50
23.540988729735332
 51
91.00117755200921
  0
ARC
  8
_0-1_レイヤ___3
  6
CONTINUOUS
 62
    7
 10
702.5212574769987
 20
1019.0256669117514
 40
9.0568329281094346
 50
335.29757061668971
 51
18.909581795531555
  0
ARC
  8
_0-1_レイヤ___3
  6
CONTINUOUS
 62
    7
 10
698.32526734639464
 20
1020.6523967909038
 40
13.551473414729003
 50
313.2430193495926
 51
336.46314105876633
  0
ARC
  8
_0-1_レイヤ___3
  6
CONTINUOUS
 62
    7
 10
693.42780829434241
 20
1025.4314113927762
 40
20.390101315722418
 50
305.64130549726423
 51
314.06777816685576
  0
ARC
  8
_0-1_レイヤ___3
  6
CONTINUOUS
 62
    7
 10
723.47260995310558
 20
767.67646835139885
 40
15.139157975310633
 50
137.62085009422699
 51
161.57750021080244
  0
ARC
  8
_0-1_レイヤ___3
  6
CONTINUOUS
 62
    7
 10
718.75994678847201
 20
771.76839101035227
 40
8.9011457084711036
 50
108.27119107308283
 51
136.63088694713065
  0
ARC
  8
_0-1_レイヤ___3
  6
CONTINUOUS
 62
    7
 10
717.47050716858348
 20
774.78941676531008
 40
5.6349983995946209
 50
38.027121897711766
 51
105.45057764823706
  0
ARC
  8
_0-1_レイヤ___3
  6
CONTINUOUS
 62
    7
 10
710.1138345085601
 20
767.31841199339328
 40
16.089384351289283
 50
340.17139289523931
 51
42.851299872115106
  0
ARC
  8
_0-1_レイヤ___3
  6
CONTINUOUS
 62
    7
 10
717.72818320849774
 20
765.22259671275492
 40
8.2382725802513637
 50
307.20234233279928
 51
335.91608015320679
  0
ARC
  8
_0-1_レイヤ___3
  6
CONTINUOUS
 62
    7
 10
717.13942656789504
 20
766.86885565477837
 40
9.9194861870789772
 50
236.67167135428235
 51
304.16019467888805
  0
ARC
  8
_0-1_レイヤ___3
  6
CONTINUOUS
 62
    7
 10
717.29529532421134
 20
765.79468201523184
 40
9.1360643185364108
 50
188.90297215824569
 51
232.14892199031536
  0
ARC
  8
_0-1_レイヤ___3
  6
CONTINUOUS
 62
    7
 10
721.83882166761828
 20
766.82494090067848
 40
13.787885562470596
 50
167.28034248375101
 51
190.2107542708861
  0
ARC
  8
_0-1_レイヤ___3
  6
CONTINUOUS
 62
    7
 10
728.70172425539954
 20
765.63548408928568
 40
20.747227877140858
 50
160.79352434259414
 51
168.24919932656053
  0
ARC
  8
_0-1_レイヤ___3
  6
CONTINUOUS
 62
    7
 10
692.24977495051439
 20
659.91311745965902
 40
3.4465112874355626
 50
226.31524014304765
 51
250.6762264185391
  0
ARC
  8
_0-1_レイヤ___3
  6
CONTINUOUS
 62
    7
 10
692.91622175137968
 20
660.94287963143472
 40
4.6571415135457883
 50
188.42214370511709
 51
229.1374689036806
  0
ARC
  8
_0-1_レイヤ___3
  6
CONTINUOUS
 62
    7
 10
691.86557304092025
 20
658.58646317155035
 40
3.9306937823357222
 50
22.028973805358824
 51
154.78874565225502
  0
ARC
  8
_0-1_レイヤ___3
  6
CONTINUOUS
 62
    7
 10
693.2076182754688
 20
659.20765831257199
 40
2.454700653910364
 50
292.55842948108432
 51
20.337043173130436
  0
ARC
  8
_0-1_レイヤ___3
  6
CONTINUOUS
 62
    7
 10
692.16187963556672
 20
661.87566046482402
 40
5.3200564847426239
 50
258.58870958090245
 51
291.93608121831551
  0
ARC
  8
_0-1_レイヤ___3
  6
CONTINUOUS
 62
    7
 10
750.02703032072441
 20
581.10781733600163
 40
3.6488958131124463
 50
308.71666423886552
 51
32.358691345087642
  0
ARC
  8
_0-1_レイヤ___3
  6
CONTINUOUS
 62
    7
 10
750.16513813198821
 20
580.68473646274924
 40
3.7833391457090917
 50
38.904633048209504
 51
122.91481311014941
  0
ARC
  8
_0-1_レイヤ___3
  6
CONTINUOUS
 62
    7
 10
750.43320923487636
 20
580.92494688667898
 40
3.7442761983822024
 50
128.36401523706499
 51
213.4554309212939
  0
ARC
  8
_0-1_レイヤ___3
  6
CONTINUOUS
 62
    7
 10
750.124228753132
 20
581.18514654001558
 40
3.6505507430265101
 50
219.54759155480289
 51
306.76686161993467
  0
ARC
  8
_0-1_レイヤ___3
  6
CONTINUOUS
 62
    7
 10
713.57209625763153
 20
485.35654176143822
 40
14.039351979878949
 50
271.29466081927626
 51
306.43038184022646
  0
ARC
  8
_0-1_レイヤ___3
  6
CONTINUOUS
 62
    7
 10
714.21931185242238
 20
477.47610084973786
 40
6.1641671712800141
 50
187.60071822288731
 51
266.93111604773583
  0
ARC
  8
_0-1_レイヤ___3
  6
CONTINUOUS
 62
    7
 10
724.11978263834362
 20
478.76158535789074
 40
16.147719426037398
 50
125.29737441498517
 51
187.47534699669637
  0
ARC
  8
_0-1_レイヤ___3
  6
CONTINUOUS
 62
    7
 10
718.91146904020866
 20
484.9331953469769
 40
8.130092351569969
 50
91.424880523956716
 51
120.4659112778956
  0
ARC
  8
_0-1_レイヤ___3
  6
CONTINUOUS
 62
    7
 10
718.05430925960172
 20
483.47289626582352
 40
9.6102243811283614
 50
326.72931217820758
 51
86.091918797204144
  0
ARC
  8
_0-1_レイヤ___3
  6
CONTINUOUS
 62
    7
 10
712.09291610831406
 20
488.15219899274354
 40
17.173518335315386
 50
304.86189281348203
 51
324.58719047425274
  0
ARC
  8
_0-1_レイヤ___3
  6
CONTINUOUS
 62
    7
 10
1441.3884358864348
 20
295.38212593638747
 40
342.42194271086311
 50
132.39619492784894
 51
146.67573532335516
  0
ARC
  8
_0-1_レイヤ___3
  6
CONTINUOUS
 62
    7
 10
1512.3507250997998
 20
244.63832362695968
 40
429.60728092114658
 50
146.22025137353097
 51
157.06351555597016
  0
ARC
  8
_0-1_レイヤ___3
  6
CONTINUOUS
 62
    7
 10
1430.8006820432288
 20
295.77398908508854
 40
317.42559890868915
 50
132.21707671721234
 51
146.82670116226845
  0
ARC
  8
_0-1_レイヤ___3
  6
CONTINUOUS
 62
    7
 10
1498.3389934700906
 20
247.34048938739221
 40
400.47403264085085
 50
146.31384251677107
 51
155.71264082500079
  0
ARC
  8
_0-1_レイヤ___3
  6
CONTINUOUS
 62
    7
 10
1434.2707764912789
 20
285.88610643668659
 40
310.35920584026962
 50
132.6217710829342
 51
145.46296823746155
  0
ARC
  8
_0-1_レイヤ___3
  6
CONTINUOUS
 62
    7
 10
1485.9468129368374
 20
247.43220818881838
 40
374.73641564864926
 50
145.09912907197707
 51
153.93960582892302
  0
ARC
  8
_0-1_レイヤ___3
  6
CONTINUOUS
 62
    7
 10
1425.5850979924676
 20
285.98237360981017
 40
288.6066380706913
 50
132.47199795813282
 51
145.68532935696095
  0
ARC
  8
_0-1_レイヤ___3
  6
CONTINUOUS
 62
    7
 10
1483.6871913409457
 20
242.9295134694101
 40
360.87771125635402
 50
145.23992562655482
 51
151.98031967185807
  0
ARC
  8
_0-1_レイヤ___3
  6
CONTINUOUS
 62
    7
 10
1426.9936455471227
 20
277.75070996471896
 40
280.49447693810561
 50
132.82918732657311
 51
146.14781854118502
  0
ARC
  8
_0-1_レイヤ___3
  6
CONTINUOUS
 62
    7
 10
1473.4972365307906
 20
243.72318586332568
 40
338.07796575340649
 50
145.74884304804604
 51
150.13716337926294
  0
ARC
  8
_0-1_レイヤ___3
  6
CONTINUOUS
 62
    7
 10
1420.3197408126484
 20
276.89075120419062
 40
262.08589861137204
 50
132.12978967263996
 51
145.83279704210281
  0
ARC
  8
_0-1_レイヤ___3
  6
CONTINUOUS
 62
    7
 10
1475.4484960470561
 20
235.32246475358562
 40
331.0625085946478
 50
145.2386774871548
 51
147.73392467698508
  0
ARC
  8
_0-1_レイヤ___3
  6
CONTINUOUS
 62
    7
 10
1419.7141862553294
 20
270.50059682907005
 40
252.59843604345744
 50
131.50851159522367
 51
145.91543592712117
  0
ARC
  8
_0-1_レイヤ___3
  6
CONTINUOUS
 62
    7
 10
1407.6126425595796
 20
275.80319682682699
 40
227.43736759840027
 50
133.68985042871856
 51
143.19458014307605
  0
LINE
  8
_0-1_レイヤ___3
  6
CONTINUOUS
 62
    7
 10
1249.3092957794752
 20
417.66077375954325
 11
1244.5092957794757
 21
412.46077375954343
  0
LINE
  8
_0-1_レイヤ___3
  6
CONTINUOUS
 62
    7
 10
1094.5092977794754
 20
412.06077375954266
 11
1092.7092977794755
 21
566.86077175954324
  0
ARC
  8
_0-1_レイヤ___3
  6
CONTINUOUS
 62
    7
 10
1251.5369639370156
 20
616.71074036634934
 40
166.46695439981636
 50
193.99218465804717
 51
197.42509099998298
  0
ARC
  8
_0-1_レイヤ___3
  6
CONTINUOUS
 62
    7
 10
1392.0373949988268
 20
651.33101119250739
 40
311.16960690705525
 50
189.12913937050487
 51
193.92249278455614
  0
ARC
  8
_0-1_レイヤ___3
  6
CONTINUOUS
 62
    7
 10
1620.6957172577959
 20
690.29941371555083
 40
543.11874414710235
 50
174.04349030073502
 51
189.36078574245829
  0
ARC
  8
_0-1_レイヤ___3
  6
CONTINUOUS
 62
    7
 10
1100.563370549361
 20
744.72995520556367
 40
20.146808171562796
 50
162.87964524773628
 51
174.50048980421079
  0
LINE
  8
_0-1_レイヤ___3
  6
CONTINUOUS
 62
    7
 10
1081.3092977794756
 20
750.66076975954275
 11
1129.7092977794753
 21
776.06076975954352
  0
LINE
  8
_0-1_レイヤ___3
  6
CONTINUOUS
 62
    7
 10
1129.7092977794753
 20
776.06076975954352
 11
1129.7092977794753
 21
673.26076975954322
  0
LINE
  8
_0-1_レイヤ___3
  6
CONTINUOUS
 62
    7
 10
1129.7092977794753
 20
673.26076975954322
 11
1133.709297779475
 21
671.46076975954315
  0
LINE
  8
_0-1_レイヤ___3
  6
CONTINUOUS
 62
    7
 10
1133.709297779475
 20
671.46076975954315
 11
1251.9092957794751
 21
737.86076975954359
  0
LINE
  8
_0-1_レイヤ___3
  6
CONTINUOUS
 62
    7
 10
1251.9092957794751
 20
737.86076975954359
 11
1252.5092957794757
 21
737.86076975954359
  0
LINE
  8
_0-1_レイヤ___3
  6
CONTINUOUS
 62
    7
 10
1252.5092957794757
 20
737.86076975954359
 11
1252.5092957794757
 21
412.46077375954343
  0
ARC
  8
_0-1_レイヤ___3
  6
CONTINUOUS
 62
    7
 10
1509.1903501642232
 20
565.25215659026173
 40
461.00821171293751
 50
155.79581294188247
 51
158.89372164075905
  0
ARC
  8
_0-1_レイヤ___3
  6
CONTINUOUS
 62
    7
 10
1556.3449474062647
 20
547.8644100258316
 40
497.36093741513235
 50
154.05539857167486
 51
164.05930032834817
  0
ARC
  8
_0-1_レイヤ___3
  6
CONTINUOUS
 62
    7
 10
1549.6425998480461
 20
550.72691700350617
 40
476.54541846642223
 50
151.88973649643674
 51
169.6112112435282
  0
ARC
  8
_0-1_レイヤ___3
  6
CONTINUOUS
 62
    7
 10
1556.6426235144204
 20
548.09210462833846
 40
470.81591328301784
 50
154.89343828644067
 51
175.15459232646759
  0
ARC
  8
_0-1_レイヤ___3
  6
CONTINUOUS
 62
    7
 10
1580.8638394120303
 20
575.65713624930993
 40
502.20998531220141
 50
194.43555330731613
 51
198.96293516067109
  0
ARC
  8
_0-1_レイヤ___3
  6
CONTINUOUS
 62
    7
 10
1560.0901897463777
 20
547.26469194645517
 40
461.38127701860418
 50
179.92597691162391
 51
195.6940583951739
  0
ARC
  8
_0-1_レイヤ___3
  6
CONTINUOUS
 62
    7
 10
1560.9184028675256
 20
547.7588370881557
 40
462.20911632828432
 50
158.96534049662313
 51
179.98736410361113
  0
ARC
  8
_0-1_レイヤ___3
  6
CONTINUOUS
 62
    7
 10
1551.7798135058879
 20
546.41027320997921
 40
440.67290292985427
 50
179.81140752109576
 51
195.09356582075847
  0
ARC
  8
_0-1_レイヤ___3
  6
CONTINUOUS
 62
    7
 10
1563.6870891738467
 20
547.89304630199467
 40
452.5777925451639
 50
163.78648074441654
 51
180.00408591649918
  0
ARC
  8
_0-1_レイヤ___3
  6
CONTINUOUS
 62
    7
 10
1557.9184208468664
 20
547.22756485830303
 40
434.80958413265648
 50
179.91656095645726
 51
193.26465684010486
  0
ARC
  8
_0-1_レイヤ___3
  6
CONTINUOUS
 62
    7
 10
1557.6653099491009
 20
547.78276789909
 40
434.55601917056686
 50
162.63757530509838
 51
179.98971526841984
  0
ARC
  8
_0-1_レイヤ___3
  6
CONTINUOUS
 62
    7
 10
1559.6143622085688
 20
547.89587439672232
 40
424.70506587974103
 50
180.00473559918166
 51
191.54991415015198
  0
ARC
  8
_0-1_レイヤ___3
  6
CONTINUOUS
 62
    7
 10
1560.3308554050298
 20
547.87384348880892
 40
425.42155782637877
 50
161.07359481401494
 51
180.00176050062387
  0
ARC
  8
_0-1_レイヤ___3
  6
CONTINUOUS
 62
    7
 10
1554.2305138125309
 20
546.7761310198415
 40
407.92265803142254
 50
179.84765393959634
 51
189.84034708293547
  0
ARC
  8
_0-1_レイヤ___3
  6
CONTINUOUS
 62
    7
 10
1559.7156269135323
 20
547.76469050605897
 40
413.40634029935177
 50
159.33446707105014
 51
179.98668368182123
  0
ARC
  8
_0-1_レイヤ___3
  6
CONTINUOUS
 62
    7
 10
1571.3312475732639
 20
548.26055972401036
 40
413.82214290870087
 50
180.05535268476984
 51
187.97299898682729
  0
ARC
  8
_0-1_レイヤ___3
  6
CONTINUOUS
 62
    7
 10
1559.0112645537872
 20
547.75149179007826
 40
401.50198164610833
 50
159.02692533042892
 51
179.98440535439627
  0
ARC
  8
_0-1_レイヤ___3
  6
CONTINUOUS
 62
    7
 10
1565.0169663923739
 20
547.23630324872488
 40
396.70816010916946
 50
179.90980920363467
 51
186.3062529470821
  0
ARC
  8
_0-1_レイヤ___3
  6
CONTINUOUS
 62
    7
 10
1561.5652753973543
 20
547.74853203829423
 40
393.25599363512396
 50
162.30773619702515
 51
179.98364713440435
  0
ARC
  8
_0-1_レイヤ___3
  6
CONTINUOUS
 62
    7
 10
1575.6166851561884
 20
547.49567127403282
 40
396.70755538257856
 50
179.94726916695402
 51
184.45792715657777
  0
ARC
  8
_0-1_レイヤ___3
  6
CONTINUOUS
 62
    7
 10
1563.525231567618
 20
547.91359871111752
 40
384.61593741603031
 50
165.89248027098458
 51
180.00786956827531
  0
ARC
  8
_0-1_レイヤ___3
  6
CONTINUOUS
 62
    7
 10
1741.9280347194181
 20
548.49643326817443
 40
552.81910239917306
 50
180.06588182193983
 51
182.18072360621213
  0
ARC
  8
_0-1_レイヤ___3
  6
CONTINUOUS
 62
    7
 10
1569.7963233417997
 20
547.86160637794751
 40
380.68702556323944
 50
169.98570153049499
 51
180.00012561529243
  0
LINE
  8
_0-1_レイヤ___3
  6
CONTINUOUS
 62
    7
 10
1199.1092957794754
 20
540.66077175954376
 11
1199.1092957794754
 21
547.86077175954347
  0
ARC
  8
_0-1_レイヤ___3
  6
CONTINUOUS
 62
    7
 10
1567.6921057715126
 20
548.5103712471323
 40
368.5833824267184
 50
174.02767370858692
 51
180.10097939857104
  0
ARC
  8
_0-1_レイヤ___3
  6
CONTINUOUS
 62
    7
 10
1506.9939264579293
 20
547.66272308256987
 40
298.29272923919564
 50
177.00257480088183
 51
179.5777971108333
  0
ARC
  8
_0-1_レイヤ___3
  6
CONTINUOUS
 62
    7
 10
1710.8265131131056
 20
725.91871835888298
 40
527.55131060467795
 50
182.80948064300472
 51
209.68475655355391
  0
ARC
  8
_0-1_レイヤ___3
  6
CONTINUOUS
 62
    7
 10
1705.1267285546212
 20
724.3909584828026
 40
507.49327416796916
 50
181.88917363735104
 51
206.94084944751467
  0
ARC
  8
_0-1_レイヤ___3
  6
CONTINUOUS
 62
    7
 10
1706.2276693326837
 20
724.67083198325042
 40
494.8040969689888
 50
181.06653961408622
 51
203.51356021760876
  0
ARC
  8
_0-1_レイヤ___3
  6
CONTINUOUS
 62
    7
 10
1705.8143498011102
 20
724.65318323730628
 40
480.91100489154968
 50
180.28503352830654
 51
199.50771239730111
  0
ARC
  8
_0-1_レイヤ___3
  6
CONTINUOUS
 62
    7
 10
1703.9865174671102
 20
725.20629006941135
 40
466.07800496441087
 50
179.89495726717718
 51
194.37926641757511
  0
LINE
  8
_0-1_レイヤ___3
  6
CONTINUOUS
 62
    7
 10
1237.9092957794753
 20
726.06076975954352
 11
1237.9092957794753
 21
730.26076975954311
  0
ARC
  8
_0-1_レイヤ___3
  6
CONTINUOUS
 62
    7
 10
1732.7445833064305
 20
725.68085351069954
 40
482.03543724248158
 50
179.95484232444545
 51
184.95322102460892
  0
ARC
  8
_0-1_レイヤ___3
  6
CONTINUOUS
 62
    7
 10
1420.4600654764372
 20
728.63129172924289
 40
169.77023118293624
 50
177.08638064591383
 51
180.86755897675229
  0
ARC
  8
_0-1_レイヤ___3
  6
CONTINUOUS
 62
    7
 10
1504.9852038194351
 20
939.30591377247026
 40
20.311773081001686
 50
7.7949550823909286
 51
28.060884441627366
  0
ARC
  8
_0-1_レイヤ___3
  6
CONTINUOUS
 62
    7
 10
1506.6736002738762
 20
939.42447252984607
 40
18.778746193018208
 50
30.165442623282441
 51
40.985153632064588
  0
ARC
  8
_0-1_レイヤ___3
  6
CONTINUOUS
 62
    7
 10
1498.9478897807774
 20
932.83903426085317
 40
28.930033929415401
 50
40.795424988950863
 51
49.570680982737812
  0
ARC
  8
_0-1_レイヤ___3
  6
CONTINUOUS
 62
    7
 10
1497.0775332204378
 20
963.22622818704133
 40
29.557507692771843
 50
314.26843659212199
 51
330.92085014506335
  0
ARC
  8
_0-1_レイヤ___3
  6
CONTINUOUS
 62
    7
 10
1506.582927687348
 20
958.25043259332347
 40
18.833905800924114
 50
330.09580389485092
 51
349.63158924864962
  0
ARC
  8
_0-1_レイヤ___3
  6
CONTINUOUS
 62
    7
 10
1531.5129993793162
 20
950.84576231328924
 40
25.463453447377994
 50
149.78339245574779
 51
168.18200579474274
  0
ARC
  8
_0-1_レイヤ___3
  6
CONTINUOUS
 62
    7
 10
1539.872065128578
 20
948.73631392530513
 40
34.079181276547523
 50
167.58890063235208
 51
207.00740379939049
  0
ARC
  8
_0-1_レイヤ___3
  6
CONTINUOUS
 62
    7
 10
1522.5750022836908
 20
940.46949734159682
 40
14.922419441969605
 50
208.88679597599602
 51
233.07124372319655
  0
ARC
  8
_0-1_レイヤ___3
  6
CONTINUOUS
 62
    7
 10
1518.3184842464757
 20
935.43368628755275
 40
8.3479846128688457
 50
235.65939874701175
 51
311.49327000297268
  0
ARC
  8
_0-1_レイヤ___3
  6
CONTINUOUS
 62
    7
 10
1514.1867552080466
 20
940.24372390240046
 40
14.688555268127121
 50
311.13440038828401
 51
331.61451871678941
  0
ARC
  8
_0-1_レイヤ___3
  6
CONTINUOUS
 62
    7
 10
1505.1055841796333
 20
946.07576920579675
 40
25.463453447379646
 50
329.78339245574921
 51
348.18200579474416
  0
ARC
  8
_0-1_レイヤ___3
  6
CONTINUOUS
 62
    7
 10
1496.7465184303742
 20
948.18521759378143
 40
34.079181276546691
 50
347.58890063235225
 51
27.00740379939068
  0
ARC
  8
_0-1_レイヤ___3
  6
CONTINUOUS
 62
    7
 10
1514.0435812752573
 20
956.45203417748803
 40
14.922419441972544
 50
28.886795975993103
 51
53.071243723193632
  0
ARC
  8
_0-1_レイヤ___3
  6
CONTINUOUS
 62
    7
 10
1518.3000993124758
 20
961.48784523153438
 40
8.3479846128684425
 50
55.659398747018258
 51
131.49327000297916
  0
ARC
  8
_0-1_レイヤ___3
  6
CONTINUOUS
 62
    7
 10
1522.4318283509044
 20
956.67780761668553
 40
14.688555268127121
 50
131.13440038828401
 51
151.61451871678941
  0
ARC
  8
_0-1_レイヤ___3
  6
CONTINUOUS
 62
    7
 10
1531.5989195381767
 20
949.96188506534736
 40
20.989936329230105
 50
150.61615920360865
 51
170.62578826963824
  0
ARC
  8
_0-1_レイヤ___3
  6
CONTINUOUS
 62
    7
 10
1536.8501348402324
 20
948.74649458563511
 40
26.371231327691092
 50
169.87873690679643
 51
206.78912705745603
  0
ARC
  8
_0-1_レイヤ___3
  6
CONTINUOUS
 62
    7
 10
1523.2190265015161
 20
942.51010451939578
 40
11.406922051315876
 50
209.68658742505141
 51
236.65747608633822
  0
ARC
  8
_0-1_レイヤ___3
  6
CONTINUOUS
 62
    7
 10
1520.122908901528
 20
938.39736029490723
 40
6.2778453308377857
 50
239.63369174373588
 51
309.89359163771644
  0
ARC
  8
_0-1_レイヤ___3
  6
CONTINUOUS
 62
    7
 10
1516.9927233749102
 20
942.4039757585075
 40
11.360700067119243
 50
309.04575445535971
 51
330.79547761736171
  0
ARC
  8
_0-1_レイヤ___3
  6
CONTINUOUS
 62
    7
 10
1509.699760266162
 20
946.84430674800353
 40
19.895704701668588
 50
329.88125294014026
 51
350.61735048451925
  0
ARC
  8
_0-1_レイヤ___3
  6
CONTINUOUS
 62
    7
 10
1503.1057893577272
 20
948.29735184233755
 40
26.640758249279322
 50
349.84607345060527
 51
26.683667357800868
  0
ARC
  8
_0-1_レイヤ___3
  6
CONTINUOUS
 62
    7
 10
1516.9995570574335
 20
954.61142699969002
 40
11.406922051316766
 50
29.686587425047222
 51
56.657476086334029
  0
ARC
  8
_0-1_レイヤ___3
  6
CONTINUOUS
 62
    7
 10
1520.095674657422
 20
958.72417122417971
 40
6.277845330837744
 50
59.633691743731411
 51
129.89359163771198
  0
ARC
  8
_0-1_レイヤ___3
  6
CONTINUOUS
 62
    7
 10
1523.2258601840433
 20
954.71755576057888
 40
11.360700067121547
 50
129.04575445536949
 51
150.79547761737149
  0
ARC
  8
_0-1_レイヤ___3
  6
CONTINUOUS
 62
    7
 10
1583.3852018194355
 20
1154.1059117724722
 40
20.311773081001189
 50
7.7949550823865934
 51
28.060884441623031
  0
ARC
  8
_0-1_レイヤ___3
  6
CONTINUOUS
 62
    7
 10
1585.0735992738762
 20
1154.224481089351
 40
18.778740022306543
 50
30.16541630140614
 51
40.98512731018829
  0
ARC
  8
_0-1_レイヤ___3
  6
CONTINUOUS
 62
    7
 10
1577.3478897807811
 20
1147.6390322608568
 40
28.930033929410147
 50
40.795424988950892
 51
49.570680982737848
  0
ARC
  8
_0-1_レイヤ___3
  6
CONTINUOUS
 62
    7
 10
1572.4361948262892
 20
1181.2040969067498
 40
33.956050831491453
 50
314.20029016411974
 51
328.89231207150891
  0
ARC
  8
_0-1_レイヤ___3
  6
CONTINUOUS
 62
    7
 10
1583.3113175326375
 20
1173.0600878418222
 40
20.482028393213199
 50
332.68346897542153
 51
350.44663337873442
  0
ARC
  8
_0-1_レイヤ___3
  6
CONTINUOUS
 62
    7
 10
1609.9129993793158
 20
1165.6457603132894
 40
25.463453447377994
 50
149.78339245574779
 51
168.18200579474274
  0
ARC
  8
_0-1_レイヤ___3
  6
CONTINUOUS
 62
    7
 10
1618.2720651285777
 20
1163.5363119253054
 40
34.079181276547523
 50
167.58890063235208
 51
207.00740379939049
  0
ARC
  8
_0-1_レイヤ___3
  6
CONTINUOUS
 62
    7
 10
1600.9490030024879
 20
1155.2469112202107
 40
14.888746895088738
 50
208.85903322484879
 51
233.09900647433008
  0
ARC
  8
_0-1_レイヤ___3
  6
CONTINUOUS
 62
    7
 10
1596.7665806720177
 20
1150.3286101434337
 40
8.4535078335543066
 50
235.75317298167016
 51
311.33049933562796
  0
ARC
  8
_0-1_レイヤ___3
  6
CONTINUOUS
 62
    7
 10
1592.4904564578926
 20
1155.5233323773173
 40
15.179838100545268
 50
310.50157399019253
 51
330.55350631311984
  0
ARC
  8
_0-1_レイヤ___3
  6
CONTINUOUS
 62
    7
 10
1582.9493100791556
 20
1160.7618089122916
 40
26.064021637712035
 50
330.83660829171134
 51
348.71367284595567
  0
ARC
  8
_0-1_レイヤ___3
  6
CONTINUOUS
 62
    7
 10
1573.8998073872856
 20
1162.9824062727835
 40
35.375453644398192
 50
348.05517970361336
 51
25.947355411375774
  0
ARC
  8
_0-1_レイヤ___3
  6
CONTINUOUS
 62
    7
 10
1592.3452283240633
 20
1170.7588698311861
 40
15.42456834623593
 50
29.955443884573143
 51
53.642302063134998
  0
ARC
  8
_0-1_レイヤ___3
  6
CONTINUOUS
 62
    7
 10
1596.7466269705446
 20
1176.1312189827277
 40
8.4964070099978972
 50
56.068849772225114
 51
131.02851554752965
  0
ARC
  8
_0-1_レイヤ___3
  6
CONTINUOUS
 62
    7
 10
1600.8056328875919
 20
1171.4987363055075
 40
14.655560045513345
 50
131.11109663332039
 51
151.63782247174527
  0
ARC
  8
_0-1_レイヤ___3
  6
CONTINUOUS
 62
    7
 10
1608.8930999671336
 20
1165.1350571706603
 40
19.844468123858064
 50
149.98842226779689
 51
170.35235546621828
  0
ARC
  8
_0-1_レイヤ___3
  6
CONTINUOUS
 62
    7
 10
1615.4865098235725
 20
1163.5977863157905
 40
26.605424360924719
 50
169.46818781023171
 51
206.65830452116268
  0
ARC
  8
_0-1_レイヤ___3
  6
CONTINUOUS
 62
    7
 10
1601.6190265015175
 20
1157.310102519396
 40
11.406922051316766
 50
209.68658742504721
 51
236.65747608633404
  0
ARC
  8
_0-1_レイヤ___3
  6
CONTINUOUS
 62
    7
 10
1598.522907901528
 20
1153.1973568736298
 40
6.277843599017995
 50
239.63369306088092
 51
309.89359295486145
  0
ARC
  8
_0-1_レイヤ___3
  6
CONTINUOUS
 62
    7
 10
1595.3927213749089
 20
1157.2039737585089
 40
11.360700067121364
 50
309.0457544553588
 51
330.7954776173608
  0
ARC
  8
_0-1_レイヤ___3
  6
CONTINUOUS
 62
    7
 10
1588.1254815918178
 20
1161.5864703484249
 40
19.844468123857517
 50
329.98842226780124
 51
350.35235546622266
  0
ARC
  8
_0-1_レイヤ___3
  6
CONTINUOUS
 62
    7
 10
1581.5319108274698
 20
1163.1237184080096
 40
26.605578391605466
 50
349.46829941073298
 51
26.65819292065764
  0
ARC
  8
_0-1_レイヤ___3
  6
CONTINUOUS
 62
    7
 10
1595.3995550574334
 20
1169.4114249996892
 40
11.406922051317599
 50
29.686587425051687
 51
56.657476086338491
  0
ARC
  8
_0-1_レイヤ___3
  6
CONTINUOUS
 62
    7
 10
1598.4956736574227
 20
1173.5241706454553
 40
6.2778435990185297
 50
59.633693060885008
 51
129.89359295486557
  0
ARC
  8
_0-1_レイヤ___3
  6
CONTINUOUS
 62
    7
 10
1601.6258601840409
 20
1169.5175537605803
 40
11.360700067118273
 50
129.04575445536554
 51
150.79547761736754
  0
LINE
  8
_0-1_レイヤ___3
  6
CONTINUOUS
 62
    7
 10
1311.1092957794754
 20
885.86076775954268
 11
1314.9092957794753
 21
882.86076775954314
  0
LINE
  8
_0-1_レイヤ___3
  6
CONTINUOUS
 62
    7
 10
1314.9092957794753
 20
882.86076775954314
 11
1258.7092957794753
 21
851.0607677595425
  0
LINE
  8
_0-1_レイヤ___3
  6
CONTINUOUS
 62
    7
 10
1258.7092957794753
 20
851.0607677595425
 11
1258.5092957794755
 21
743.66076975954286
  0
LINE
  8
_0-1_レイヤ___3
  6
CONTINUOUS
 62
    7
 10
1258.5092957794755
 20
743.66076975954286
 11
1134.9092977794758
 21
672.46076975954281
  0
LINE
  8
_0-1_レイヤ___3
  6
CONTINUOUS
 62
    7
 10
1134.9092977794758
 20
672.46076975954281
 11
1130.9092977794753
 21
674.26076975954345
  0
LINE
  8
_0-1_レイヤ___3
  6
CONTINUOUS
 62
    7
 10
1130.9092977794753
 20
674.26076975954345
 11
1130.9092977794753
 21
781.66076975954297
  0
LINE
  8
_0-1_レイヤ___3
  6
CONTINUOUS
 62
    7
 10
1130.9092977794753
 20
781.66076975954297
 11
1311.1092957794754
 21
885.86076775954268
  0
LINE
  8
_0-1_レイヤ___3
  6
CONTINUOUS
 62
    7
 10
1134.5092977794754
 20
672.260769759543
 11
1134.5092977794754
 21
779.66076975954309
  0
LINE
  8
_0-1_レイヤ___3
  6
CONTINUOUS
 62
    7
 10
1134.5092977794754
 20
779.66076975954309
 11
1130.9092977794753
 21
781.66076975954297
  0
LINE
  8
_0-1_レイヤ___3
  6
CONTINUOUS
 62
    7
 10
1130.9092977794753
 20
781.66076975954297
 11
1130.9092977794753
 21
674.26076975954345
  0
LINE
  8
_0-1_レイヤ___3
  6
CONTINUOUS
 62
    7
 10
1130.9092977794753
 20
674.26076975954345
 11
1134.5092977794754
 21
672.260769759543
  0
LINE
  8
_0-1_レイヤ___3
  6
CONTINUOUS
 62
    7
 10
1385.9092937794755
 20
959.46076575954351
 11
1385.9092937794755
 21
941.46076575954339
  0
LINE
  8
_0-1_レイヤ___3
  6
CONTINUOUS
 62
    7
 10
1385.9092937794755
 20
941.46076575954339
 11
1407.3092937794754
 21
915.26076775954323
  0
LINE
  8
_0-1_レイヤ___3
  6
CONTINUOUS
 62
    7
 10
1407.3092937794754
 20
915.26076775954323
 11
1407.3092937794754
 21
850.46076775954305
  0
LINE
  8
_0-1_レイヤ___3
  6
CONTINUOUS
 62
    7
 10
1379.1092937794756
 20
963.46076575954328
 11
1385.9092937794755
 21
959.46076575954351
  0
LINE
  8
_0-1_レイヤ___3
  6
CONTINUOUS
 62
    7
 10
1388.5092937794755
 20
832.66076775954332
 11
1394.5092937794752
 21
829.26076775954357
  0
LINE
  8
_0-1_レイヤ___3
  6
CONTINUOUS
 62
    7
 10
1379.3092937794754
 20
942.86076575954326
 11
1401.5092937794757
 21
915.46076775954305
  0
LINE
  8
_0-1_レイヤ___3
  6
CONTINUOUS
 62
    7
 10
1401.5092937794757
 20
915.46076775954305
 11
1401.5092937794757
 21
856.0607677595425
  0
LINE
  8
_0-1_レイヤ___3
  6
CONTINUOUS
 62
    7
 10
1394.1092937794756
 20
847.26076775954368
 11
1394.1092937794756
 21
829.46076775954339
  0
LINE
  8
_0-1_レイヤ___3
  6
CONTINUOUS
 62
    7
 10
1394.1092937794756
 20
847.26076775954368
 11
1407.1092937794751
 21
850.66076775954286
  0
LINE
  8
_0-1_レイヤ___3
  6
CONTINUOUS
 62
    7
 10
1388.5092937794755
 20
848.26076775954334
 11
1388.5092937794755
 21
832.66076775954332
  0
LINE
  8
_0-1_レイヤ___3
  6
CONTINUOUS
 62
    7
 10
1068.9092977794755
 20
973.86076575954291
 11
1068.9092977794755
 21
412.06077375954266
  0
LINE
  8
_0-1_レイヤ___3
  6
CONTINUOUS
 62
    7
 10
1538.1092917794754
 20
1169.660763759543
 11
1503.1092917794754
 21
1189.8607617595435
  0
LINE
  8
_0-1_レイヤ___3
  6
CONTINUOUS
 62
    7
 10
1503.1092917794754
 20
1189.8607617595435
 11
1503.1092917794754
 21
1076.2607637595431
  0
ARC
  8
_0-1_レイヤ___3
  6
CONTINUOUS
 62
    7
 10
1557.2057342689984
 20
1192.8359438692178
 40
24.518100714328646
 50
148.46122273970667
 51
165.87146890445823
  0
ARC
  8
_0-1_レイヤ___3
  6
CONTINUOUS
 62
    7
 10
1567.3327932115401
 20
1189.740471103034
 40
35.098420018011019
 50
165.00650460592158
 51
201.1076783768581
  0
ARC
  8
_0-1_レイヤ___3
  6
CONTINUOUS
 62
    7
 10
1579.8819191524362
 20
1193.337681083209
 40
48.115066024286072
 50
199.72220792833809
 51
209.75195793720428
  0
LINE
  8
_0-1_レイヤ___3
  6
CONTINUOUS
 62
    7
 10
1538.1092917794754
 20
1169.4607637595432
 11
1538.1092917794754
 21
1158.0607637595431
  0
LINE
  8
_0-1_レイヤ___3
  6
CONTINUOUS
 62
    7
 10
1510.7092917794753
 20
1180.2607637595429
 11
1532.7092917794753
 21
1167.660763759543
  0
LINE
  8
_0-1_レイヤ___3
  6
CONTINUOUS
 62
    7
 10
1532.7092917794753
 20
1167.660763759543
 11
1532.7092917794753
 21
1160.8607637595435
  0
LINE
  8
_0-1_レイヤ___3
  6
CONTINUOUS
 62
    7
 10
1532.7092917794753
 20
1160.8607637595435
 11
1538.1092917794754
 21
1157.8607637595433
  0
LINE
  8
_0-1_レイヤ___3
  6
CONTINUOUS
 62
    7
 10
1510.7092917794753
 20
1179.660763759543
 11
1510.1092917794754
 21
1080.4607637595432
  0
LINE
  8
_0-1_レイヤ___3
  6
CONTINUOUS
 62
    7
 10
1642.7092897794753
 20
969.66076575954332
 11
1642.7092897794753
 21
720.46076975954293
  0
LINE
  8
_0-1_レイヤ___3
  6
CONTINUOUS
 62
    7
 10
1509.9092917794756
 20
1080.0607637595431
 11
1642.9092897794758
 21
968.6607657595431
  0
LINE
  8
_0-1_レイヤ___3
  6
CONTINUOUS
 62
    7
 10
1625.5092897794757
 20
730.46076975954293
 11
1642.9092897794758
 21
720.46076975954293
  0
LINE
  8
_0-1_レイヤ___3
  6
CONTINUOUS
 62
    7
 10
1637.7092897794753
 20
964.66076575954332
 11
1637.7092897794753
 21
729.06076975954363
  0
LINE
  8
_0-1_レイヤ___3
  6
CONTINUOUS
 62
    7
 10
1503.509291779475
 20
1076.4607637595436
 11
1637.7092897794753
 21
964.66076575954332
  0
LINE
  8
_0-1_レイヤ___3
  6
CONTINUOUS
 62
    7
 10
1630.9092897794753
 20
732.66076975954263
 11
1637.7092897794753
 21
728.66076975954286
  0
LINE
  8
_0-1_レイヤ___3
  6
CONTINUOUS
 62
    7
 10
1625.3092897794759
 20
748.0607697595434
 11
1625.3092897794759
 21
730.46076975954293
  0
LINE
  8
_0-1_レイヤ___3
  6
CONTINUOUS
 62
    7
 10
1630.7092897794755
 20
744.86076975954347
 11
1630.7092897794755
 21
732.66076975954263
  0
LINE
  8
_0-1_レイヤ___3
  6
CONTINUOUS
 62
    7
 10
1625.5092897794757
 20
748.0607697595434
 11
1630.9092897794753
 21
744.86076975954347
  0
LINE
  8
_0-1_レイヤ___3
  6
CONTINUOUS
 62
    7
 10
1536.3092917794754
 20
1205.0607617595433
 11
1596.9092917794753
 21
1240.0607617595433
  0
LINE
  8
_0-1_レイヤ___3
  6
CONTINUOUS
 62
    7
 10
1537.7092917794753
 20
1170.660763759543
 11
1629.3092897794756
 21
1223.2607617595431
  0
LINE
  8
_0-1_レイヤ___3
  6
CONTINUOUS
 62
    7
 10
1538.9092917794753
 20
1158.2607637595429
 11
1636.5092897794752
 21
1215.860761759543
  0
LINE
  8
_0-1_レイヤ___3
  6
CONTINUOUS
 62
    7
 10
1665.9092897794753
 20
1201.4607617595429
 11
2115.509283779475
 21
1461.860757759543
  0
LINE
  8
_0-1_レイヤ___3
  6
CONTINUOUS
 62
    7
 10
1503.1092917794754
 20
1222.0607617595431
 11
1536.3092917794754
 21
1205.4607617595429
  0
LINE
  8
_0-1_レイヤ___3
  6
CONTINUOUS
 62
    7
 10
1511.5092917794752
 20
1080.0607637595431
 11
2169.9092817794754
 21
1460.6607577595435
  0
LINE
  8
_0-1_レイヤ___3
  6
CONTINUOUS
 62
    7
 10
1503.1092917794754
 20
1189.8607617595435
 11
1503.1092917794754
 21
1222.0607617595431
  0
LINE
  8
_0-1_レイヤ___3
  6
CONTINUOUS
 62
    7
 10
1641.7092897794751
 20
969.06076575954273
 11
2273.7092797794758
 21
1331.4607597595432
  0
LINE
  8
_0-1_レイヤ___3
  6
CONTINUOUS
 62
    7
 10
1625.3092897794759
 20
748.46076975954304
 11
1637.3092897794756
 21
755.26076975954311
  0
LINE
  8
_0-1_レイヤ___3
  6
CONTINUOUS
 62
    7
 10
1643.5092897794752
 20
720.66076975954275
 11
2270.3092817794759
 21
1083.8607637595437
  0
LINE
  8
_0-1_レイヤ___3
  6
CONTINUOUS
 62
    7
 10
1630.5092897794757
 20
745.26076975954311
 11
1637.1092897794754
 21
749.06076975954363
  0
LINE
  8
_0-1_レイヤ___3
  6
CONTINUOUS
 62
    7
 10
1630.5092897794757
 20
733.0607697595434
 11
1637.7092897794753
 21
737.260769759543
  0
LINE
  8
_0-1_レイヤ___3
  6
CONTINUOUS
 62
    7
 10
1386.3092937794759
 20
959.46076575954351
 11
1452.709293779475
 21
997.06076575954285
  0
LINE
  8
_0-1_レイヤ___3
  6
CONTINUOUS
 62
    7
 10
1386.3092937794759
 20
941.66076575954321
 11
1453.9092937794758
 21
979.86076575954314
  0
LINE
  8
_0-1_レイヤ___3
  6
CONTINUOUS
 62
    7
 10
1406.5092937794757
 20
915.06076775954284
 11
1577.5092917794755
 21
1013.6607657595431
  0
LINE
  8
_0-1_レイヤ___3
  6
CONTINUOUS
 62
    7
 10
1407.709293779475
 20
850.66076775954286
 11
1623.9092897794753
 21
974.86076575954314
  0
LINE
  8
_0-1_レイヤ___3
  6
CONTINUOUS
 62
    7
 10
1395.1092937794751
 20
829.26076775954357
 11
1633.5092897794752
 21
966.66076575954321
  0
LINE
  8
_0-1_レイヤ___3
  6
CONTINUOUS
 62
    7
 10
1453.9092937794758
 20
979.26076575954255
 11
1453.9092937794758
 21
997.46076575954362
  0
LINE
  8
_0-1_レイヤ___3
  6
CONTINUOUS
 62
    7
 10
1453.9092937794758
 20
997.46076575954362
 11
1445.3092937794756
 21
1002.6607657595434
  0
LINE
  8
_0-1_レイヤ___3
  6
CONTINUOUS
 62
    7
 10
1445.3092937794756
 20
1002.6607657595434
 11
1445.3092937794756
 21
1026.2607657595431
  0
LINE
  8
_0-1_レイヤ___3
  6
CONTINUOUS
 62
    7
 10
1514.1092917794756
 20
1066.0607637595433
 11
1445.7092937794753
 21
1026.2607657595431
  0
ARC
  8
_0-1_レイヤ___3
  6
CONTINUOUS
 62
    7
 10
1430.0051543032814
 20
996.02566575539981
 40
34.070240224399612
 50
55.077457898170913
 51
62.552592784347695
  0
ARC
  8
_0-1_レイヤ___3
  6
CONTINUOUS
 62
    7
 10
1416.6956571066723
 20
977.04204746100118
 40
57.25470180232017
 50
21.709669999509408
 51
55.032136720579544
  0
ARC
  8
_0-1_レイヤ___3
  6
CONTINUOUS
 62
    7
 10
1402.8355845642445
 20
970.19631684102819
 40
72.67440669515166
 50
3.0165508926096978
 51
22.682017444383867
  0
ARC
  8
_0-1_レイヤ___3
  6
CONTINUOUS
 62
    7
 10
1375.4907796353714
 20
967.53264744796013
 40
100.12894061317388
 50
352.26767045301887
 51
3.7152338522406474
  0
LINE
  8
_0-1_レイヤ___3
  6
CONTINUOUS
 62
    7
 10
1474.7092917794757
 20
954.06076575954273
 11
1453.9092937794758
 21
979.26076575954255
  0
LINE
  8
_0-1_レイヤ___3
  6
CONTINUOUS
 62
    7
 10
1445.1092937794751
 20
1001.4607657595434
 11
1379.3092937794754
 21
963.86076575954291
  0
LINE
  8
_0-1_レイヤ___3
  6
CONTINUOUS
 62
    7
 10
1379.3092937794754
 20
963.86076575954291
 11
1379.3092937794754
 21
941.46076575954339
  0
LINE
  8
_0-1_レイヤ___3
  6
CONTINUOUS
 62
    7
 10
1258.7092957794753
 20
851.26076775954346
 11
1314.9092957794753
 21
882.86076775954314
  0
LINE
  8
_0-1_レイヤ___3
  6
CONTINUOUS
 62
    7
 10
1264.3092957794752
 20
848.06076775954295
 11
1316.7092957794753
 21
878.26076775954334
  0
LINE
  8
_0-1_レイヤ___3
  6
CONTINUOUS
 62
    7
 10
1379.3092937794754
 20
941.46076575954339
 11
1311.7092957794753
 21
903.06076775954295
  0
LINE
  8
_0-1_レイヤ___3
  6
CONTINUOUS
 62
    7
 10
1311.7092957794753
 20
903.06076775954295
 11
1333.9092937794758
 21
877.26076775954368
  0
LINE
  8
_0-1_レイヤ___3
  6
CONTINUOUS
 62
    7
 10
1333.9092937794758
 20
877.26076775954368
 11
1401.5092937794757
 21
915.46076775954305
  0
LINE
  8
_0-1_レイヤ___3
  6
CONTINUOUS
 62
    7
 10
1401.5092937794757
 20
856.0607677595425
 11
1333.9092937794758
 21
817.86076775954314
  0
LINE
  8
_0-1_レイヤ___3
  6
CONTINUOUS
 62
    7
 10
1333.9092937794758
 20
817.86076775954314
 11
1333.9092937794758
 21
877.26076775954368
  0
LINE
  8
_0-1_レイヤ___3
  6
CONTINUOUS
 62
    7
 10
1333.9092937794758
 20
817.86076775954314
 11
1316.5092957794755
 21
818.46076775954316
  0
LINE
  8
_0-1_レイヤ___3
  6
CONTINUOUS
 62
    7
 10
1316.5092957794755
 20
818.46076775954316
 11
1316.5092957794755
 21
882.26076775954368
  0
LINE
  8
_0-1_レイヤ___3
  6
CONTINUOUS
 62
    7
 10
1311.7092957794753
 20
903.06076775954295
 11
1311.7092957794753
 21
885.86076775954268
  0
LINE
  8
_0-1_レイヤ___3
  6
CONTINUOUS
 62
    7
 10
1130.9092977794753
 20
781.66076975954297
 11
1311.1092957794754
 21
885.86076775954268
  0
LINE
  8
_0-1_レイヤ___3
  6
CONTINUOUS
 62
    7
 10
1134.5092977794754
 20
779.66076975954309
 11
1258.7092957794753
 21
851.0607677595425
  0
LINE
  8
_0-1_レイヤ___3
  6
CONTINUOUS
 62
    7
 10
1258.7092957794753
 20
851.0607677595425
 11
1258.7092957794753
 21
742.46076975954281
  0
LINE
  8
_0-1_レイヤ___3
  6
CONTINUOUS
 62
    7
 10
1311.1092957794754
 20
885.86076775954268
 11
1316.5092957794755
 21
882.26076775954368
  0
LINE
  8
_0-1_レイヤ___3
  6
CONTINUOUS
 62
    7
 10
1134.9092977794758
 20
672.46076975954281
 11
1258.7092957794753
 21
743.66076975954286
  0
LINE
  8
_0-1_レイヤ___3
  6
CONTINUOUS
 62
    7
 10
1258.7092957794753
 20
742.46076975954281
 11
1255.1092957794756
 21
740.06076975954329
  0
LINE
  8
_0-1_レイヤ___3
  6
CONTINUOUS
 62
    7
 10
1255.1092957794756
 20
740.06076975954329
 11
1255.1092957794756
 21
412.46077375954343
  0
LINE
  8
_0-1_レイヤ___3
  6
CONTINUOUS
 62
    7
 10
1260.7092957794757
 20
412.46077375954343
 11
1260.7092957794757
 21
735.8607697595437
  0
LINE
  8
_0-1_レイヤ___3
  6
CONTINUOUS
 62
    7
 10
1260.7092957794757
 20
735.8607697595437
 11
1264.1092957794754
 21
737.66076975954263
  0
LINE
  8
_0-1_レイヤ___3
  6
CONTINUOUS
 62
    7
 10
1264.1092957794754
 20
737.66076975954263
 11
1264.1092957794754
 21
848.06076775954295
  0
LINE
  8
_0-1_レイヤ___3
  6
CONTINUOUS
 62
    7
 10
1264.1092957794754
 20
848.06076775954295
 11
1259.1092957794754
 21
850.86076775954268
  0
ARC
  8
_0-1_レイヤ___3
  6
CONTINUOUS
 62
    7
 10
1129.4124873151193
 20
1292.0471332662869
 40
15.389358402416898
 50
245.16681141275319
 51
268.87112871859546
  0
ARC
  8
_0-1_レイヤ___3
  6
CONTINUOUS
 62
    7
 10
1126.8662562338532
 20
1286.3013541684302
 40
9.1060805556710669
 50
216.53200618869695
 51
244.52307411461476
  0
ARC
  8
_0-1_レイヤ___3
  6
CONTINUOUS
 62
    7
 10
1124.4141491860719
 20
1284.1013877871706
 40
5.8343132601957244
 50
147.21310080101836
 51
213.50533216207577
  0
ARC
  8
_0-1_レイヤ___3
  6
CONTINUOUS
 62
    7
 10
1133.9521274567462
 20
1278.2522136695006
 40
17.022023022463152
 50
87.720056970550417
 51
148.04662427034327
  0
ARC
  8
_0-1_レイヤ___3
  6
CONTINUOUS
 62
    7
 10
1133.5972423278965
 20
1287.0113588582485
 40
8.3137107649363156
 50
55.473923259038315
 51
82.868965160551213
  0
ARC
  8
_0-1_レイヤ___3
  6
CONTINUOUS
 62
    7
 10
1132.1118487521326
 20
1285.9998670747882
 40
10.010096887209487
 50
345.18775352616842
 51
51.748115073248982
  0
ARC
  8
_0-1_レイヤ___3
  6
CONTINUOUS
 62
    7
 10
1133.154348601448
 20
1286.5240045418261
 40
9.1689003354606093
 50
297.08668691866472
 51
340.35010491104902
  0
ARC
  8
_0-1_レイヤ___3
  6
CONTINUOUS
 62
    7
 10
1130.832396291727
 20
1290.4122970545113
 40
13.691210023492413
 50
275.35142951626688
 51
298.32880791440408
  0
ARC
  8
_0-1_レイヤ___3
  6
CONTINUOUS
 62
    7
 10
1129.7863499660675
 20
1297.2944570947361
 40
20.644800382879119
 50
268.12063138621795
 51
276.46058869905914
  0
ARC
  8
_0-1_レイヤ___3
  6
CONTINUOUS
 62
    7
 10
1141.1267894168109
 20
1169.0378294484985
 40
44.790677096418186
 50
218.98252032236348
 51
239.96727269012342
  0
ARC
  8
_0-1_レイヤ___3
  6
CONTINUOUS
 62
    7
 10
1108.0102767095761
 20
1142.4880293503152
 40
2.3540014068717725
 50
186.02950253681166
 51
223.73123118157372
  0
ARC
  8
_0-1_レイヤ___3
  6
CONTINUOUS
 62
    7
 10
1106.4992346420834
 20
1142.2572418494174
 40
0.8301004296842051
 50
133.36061022003511
 51
181.13743709438097
  0
ARC
  8
_0-1_レイヤ___3
  6
CONTINUOUS
 62
    7
 10
1107.3444495752769
 20
1141.2024232894942
 40
2.180079750780517
 50
103.66823733196379
 51
130.47592314394012
  0
ARC
  8
_0-1_レイヤ___3
  6
CONTINUOUS
 62
    7
 10
1103.9382502532444
 20
1157.1022975615267
 40
14.081506657107143
 50
281.8475361404702
 51
292.15816913707954
  0
ARC
  8
_0-1_レイヤ___3
  6
CONTINUOUS
 62
    7
 10
1108.7699674284565
 20
1144.765735948235
 40
0.8524924470257406
 50
304.2128822806506
 51
37.167237369387536
  0
ARC
  8
_0-1_レイヤ___3
  6
CONTINUOUS
 62
    7
 10
1105.4257213969604
 20
1143.072133956266
 40
4.5899033229312307
 50
28.763354206317992
 51
40.626952856102186
  0
ARC
  8
_0-1_レイヤ___3
  6
CONTINUOUS
 62
    7
 10
1125.8737836944479
 20
818.55397763647204
 40
327.94586251243112
 50
91.087552031628462
 51
92.965207305890601
  0
ARC
  8
_0-1_レイヤ___3
  6
CONTINUOUS
 62
    7
 10
1118.6443481302026
 20
1137.5414118420149
 40
8.9559135965900403
 50
57.097514405647161
 51
83.557229485160548
  0
ARC
  8
_0-1_レイヤ___3
  6
CONTINUOUS
 62
    7
 10
1114.8615707989152
 20
1132.5585430996227
 40
15.201601999778028
 50
21.868354208773773
 51
55.328573310923893
  0
ARC
  8
_0-1_レイヤ___3
  6
CONTINUOUS
 62
    7
 10
1120.7192219030126
 20
1135.3662242021569
 40
8.7299569330022866
 50
309.81662388295615
 51
19.08570259611886
  0
ARC
  8
_0-1_レイヤ___3
  6
CONTINUOUS
 62
    7
 10
1124.3189149221539
 20
1130.875042943881
 40
2.9773572551696903
 50
258.18507152667621
 51
311.95190479230018
  0
ARC
  8
_0-1_レイヤ___3
  6
CONTINUOUS
 62
    7
 10
1125.019126592575
 20
1135.2164334834072
 40
7.372950200660866
 50
244.88088255368012
 51
259.76690004900979
  0
ARC
  8
_0-1_レイヤ___3
  6
CONTINUOUS
 62
    7
 10
1137.0152052974609
 20
1160.3057555660603
 40
35.182492559663224
 50
238.64675213826547
 51
244.53706524510915
  0
ARC
  8
_0-1_レイヤ___3
  6
CONTINUOUS
 62
    7
 10
1253.6472122884149
 20
1275.7514102932482
 40
2.2351690314943378
 50
273.6445909865372
 51
310.85345632786635
  0
ARC
  8
_0-1_レイヤ___3
  6
CONTINUOUS
 62
    7
 10
1253.7783591126984
 20
1274.5636245797584
 40
1.0429201659125604
 50
228.64628172782582
 51
270.60084784448276
  0
ARC
  8
_0-1_レイヤ___3
  6
CONTINUOUS
 62
    7
 10
1255.9134889941745
 20
1276.5445679806094
 40
3.9515430076813827
 50
204.90104061200972
 51
224.38085441185933
  0
ARC
  8
_0-1_レイヤ___3
  6
CONTINUOUS
 62
    7
 10
1251.4581604756925
 20
1274.6214771550331
 40
0.9089033081869961
 50
16.575104067296213
 51
112.57114759353489
  0
ARC
  8
_0-1_レイヤ___3
  6
CONTINUOUS
 62
    7
 10
1256.1972831151511
 20
1277.1023219410552
 40
5.3462449399109033
 50
173.141464149424
 51
197.88149068260978
  0
ARC
  8
_0-1_レイヤ___3
  6
CONTINUOUS
 62
    7
 10
1252.8994016252741
 20
1277.4101717906137
 40
2.0371095304062656
 50
108.61041058642104
 51
170.66051626736296
  0
ARC
  8
_0-1_レイヤ___3
  6
CONTINUOUS
 62
    7
 10
1206.1313632433566
 20
1392.5896015328426
 40
122.27903913346915
 50
292.15745723682642
 51
293.50985111900212
  0
ARC
  8
_0-1_レイヤ___3
  6
CONTINUOUS
 62
    7
 10
1255.7531475061874
 20
1278.5529700927771
 40
2.086085995460178
 50
48.724561874985611
 51
113.86069758198057
  0
ARC
  8
_0-1_レイヤ___3
  6
CONTINUOUS
 62
    7
 10
1253.201224781616
 20
1275.9971025473856
 40
5.6951125592243788
 50
21.244967585418667
 51
46.391523994174612
  0
ARC
  8
_0-1_レイヤ___3
  6
CONTINUOUS
 62
    7
 10
1251.5639833697285
 20
1275.7315430245849
 40
7.3254777580893737
 50
0.3849642435612661
 51
18.539680172499221
  0
ARC
  8
_0-1_レイヤ___3
  6
CONTINUOUS
 62
    7
 10
1256.9101236599229
 20
1275.6358264606263
 40
1.984471849053369
 50
323.69171643047798
 51
4.1883089551931185
  0
ARC
  8
_0-1_レイヤ___3
  6
CONTINUOUS
 62
    7
 10
1257.6336204761358
 20
1275.9156025815128
 40
1.6980486018215768
 50
266.47764404394155
 51
301.04392617965368
  0
ARC
  8
_0-1_レイヤ___3
  6
CONTINUOUS
 62
    7
 10
1256.6607380454363
 20
1268.9764474868957
 40
5.3157525081263497
 50
80.596095963682757
 51
106.96919492951847
  0
ARC
  8
_0-1_レイヤ___3
  6
CONTINUOUS
 62
    7
 10
1191.3043089741334
 20
1212.8671310950051
 40
2.4088353266380902
 50
192.13485519044838
 51
221.82560624597767
  0
ARC
  8
_0-1_レイヤ___3
  6
CONTINUOUS
 62
    7
 10
1193.1511032605888
 20
1213.3452432536574
 40
4.3155964956616675
 50
147.55114297315802
 51
193.18651744192672
  0
ARC
  8
_0-1_レイヤ___3
  6
CONTINUOUS
 62
    7
 10
1191.3711162373445
 20
1212.2667125241037
 40
3.8711675477366194
 50
344.93841085562701
 51
118.74713596963544
  0
ARC
  8
_0-1_レイヤ___3
  6
CONTINUOUS
 62
    7
 10
1192.7408120849284
 20
1211.9790280510615
 40
2.4750012021826073
 50
255.69542616201883
 51
343.12956327148805
  0
ARC
  8
_0-1_レイヤ___3
  6
CONTINUOUS
 62
    7
 10
1193.3044198743924
 20
1214.2963688361392
 40
4.8598211941184131
 50
218.65529169833874
 51
256.00698723363547
  0
ARC
  8
_0-1_レイヤ___3
  6
CONTINUOUS
 62
    7
 10
1266.4336333673461
 20
1136.8633454033402
 40
4.0045124111453383
 50
179.46461769478458
 51
268.22071616895346
  0
ARC
  8
_0-1_レイヤ___3
  6
CONTINUOUS
 62
    7
 10
1265.7572688374123
 20
1137.0867772305751
 40
3.3331675154061906
 50
123.67074049447169
 51
183.19915715138109
  0
ARC
  8
_0-1_レイヤ___3
  6
CONTINUOUS
 62
    7
 10
1265.7815787754246
 20
1135.0782788395793
 40
5.1359133196154358
 50
30.445789602932667
 51
111.37972138667212
  0
ARC
  8
_0-1_レイヤ___3
  6
CONTINUOUS
 62
    7
 10
1256.9368428621576
 20
1128.5628670045962
 40
16.102609964731979
 50
14.743159650700919
 51
34.488248758464238
  0
ARC
  8
_0-1_レイヤ___3
  6
CONTINUOUS
 62
    7
 10
1271.007630786032
 20
1182.3091489626968
 40
49.671089690415158
 50
264.57233955799938
 51
271.73243991000464
  0
ARC
  8
_0-1_レイヤ___3
  6
CONTINUOUS
 62
    7
 10
1141.5823238894941
 20
1239.5877356495243
 40
3.7291361929192517
 50
271.95124931877098
 51
358.04875068122902
  0
ARC
  8
_0-1_レイヤ___3
  6
CONTINUOUS
 62
    7
 10
1141.5823238894941
 20
1239.3337878695615
 40
3.7291361929189577
 50
1.9512493187755
 51
88.048750681233543
  0
ARC
  8
_0-1_レイヤ___3
  6
CONTINUOUS
 62
    7
 10
1141.8362716694562
 20
1239.3337878695615
 40
3.7291361929189577
 50
91.951249318766443
 51
178.0487506812245
  0
ARC
  8
_0-1_レイヤ___3
  6
CONTINUOUS
 62
    7
 10
1141.8362716694562
 20
1239.5877356495243
 40
3.7291361929192517
 50
181.95124931877098
 51
268.04875068122902
  0
ARC
  8
_0-1_レイヤ___3
  6
CONTINUOUS
 62
    7
 10
1216.1823218894936
 20
1316.7877356495246
 40
3.7291361929195461
 50
271.95124931877547
 51
358.04875068123351
  0
ARC
  8
_0-1_レイヤ___3
  6
CONTINUOUS
 62
    7
 10
1216.3156297569751
 20
1316.4615859710136
 40
3.5991813619224122
 50
3.1723227193538039
 51
90.100831363886016
  0
ARC
  8
_0-1_レイヤ___3
  6
CONTINUOUS
 62
    7
 10
1216.4186381361501
 20
1316.3391051465937
 40
3.7232625069521657
 50
91.682867219049186
 51
175.04397869772006
  0
ARC
  8
_0-1_レイヤ___3
  6
CONTINUOUS
 62
    7
 10
1216.4362696694568
 20
1316.7877356495239
 40
3.7291361929192517
 50
181.95124931876191
 51
268.04875068121999
  0
ARC
  8
_0-1_レイヤ___3
  6
CONTINUOUS
 62
    7
 10
1093.5823238894945
 20
1172.5877376495248
 40
3.7291361929192517
 50
271.95124931876194
 51
358.04875068121999
  0
ARC
  8
_0-1_レイヤ___3
  6
CONTINUOUS
 62
    7
 10
1093.5823238894941
 20
1172.3337898695615
 40
3.7291361929195461
 50
1.9512493187755
 51
88.048750681233543
  0
ARC
  8
_0-1_レイヤ___3
  6
CONTINUOUS
 62
    7
 10
1093.8362716694567
 20
1172.3337898695622
 40
3.7291361929189577
 50
91.95124931877551
 51
178.04875068123354
  0
ARC
  8
_0-1_レイヤ___3
  6
CONTINUOUS
 62
    7
 10
1093.8362716694562
 20
1172.5877376495241
 40
3.7291361929186633
 50
181.95124931877098
 51
268.04875068122902
  0
ARC
  8
_0-1_レイヤ___3
  6
CONTINUOUS
 62
    7
 10
1189.5823238894943
 20
1114.5877376495246
 40
3.7291361929189577
 50
271.95124931876649
 51
358.04875068122448
  0
ARC
  8
_0-1_レイヤ___3
  6
CONTINUOUS
 62
    7
 10
1189.5823238894943
 20
1114.333789869562
 40
3.7291361929192517
 50
1.9512493187709792
 51
88.048750681229009
  0
ARC
  8
_0-1_レイヤ___3
  6
CONTINUOUS
 62
    7
 10
1189.9084670033799
 20
1114.4671039369666
 40
3.5991748082234798
 50
93.172223838120658
 51
180.10093024511914
  0
ARC
  8
_0-1_レイヤ___3
  6
CONTINUOUS
 62
    7
 10
1190.0309543924252
 20
1114.5701061162181
 40
3.7232625069521657
 50
181.68286721904917
 51
265.04397869772004
  0
ARC
  8
_0-1_レイヤ___3
  6
CONTINUOUS
 62
    7
 10
1246.5823218894943
 20
1199.187735649524
 40
3.7291361929192517
 50
271.95124931877098
 51
358.04875068122902
  0
ARC
  8
_0-1_レイヤ___3
  6
CONTINUOUS
 62
    7
 10
1246.5823218894943
 20
1198.9337878695619
 40
3.7291361929192517
 50
1.9512493187709792
 51
88.048750681229009
  0
ARC
  8
_0-1_レイヤ___3
  6
CONTINUOUS
 62
    7
 10
1246.8362696694569
 20
1198.9337878695619
 40
3.7291361929189577
 50
91.95124931877551
 51
178.04875068123354
  0
ARC
  8
_0-1_レイヤ___3
  6
CONTINUOUS
 62
    7
 10
1246.8362696694569
 20
1199.187735649524
 40
3.7291361929189577
 50
181.95124931876646
 51
268.04875068122448
  0
ARC
  8
_0-1_レイヤ___3
  6
CONTINUOUS
 62
    7
 10
1336.6124843151206
 20
1188.4471305012323
 40
15.389353657989279
 50
245.16680734087973
 51
268.87112464672197
  0
ARC
  8
_0-1_レイヤ___3
  6
CONTINUOUS
 62
    7
 10
1334.0662542338519
 20
1182.7013561684289
 40
9.1060805556694131
 50
216.53200618869792
 51
244.52307411461572
  0
ARC
  8
_0-1_レイヤ___3
  6
CONTINUOUS
 62
    7
 10
1331.6141471860717
 20
1180.5013897871709
 40
5.8343132601957306
 50
147.21310080102344
 51
213.50533216208086
  0
ARC
  8
_0-1_レイヤ___3
  6
CONTINUOUS
 62
    7
 10
1341.1521227360392
 20
1174.652216390208
 40
17.022020332581128
 50
87.720054182268328
 51
148.04662148206117
  0
ARC
  8
_0-1_レイヤ___3
  6
CONTINUOUS
 62
    7
 10
1340.7972383278948
 20
1183.4113588582488
 40
8.3137107649367419
 50
55.473923259030585
 51
82.868965160543468
  0
ARC
  8
_0-1_レイヤ___3
  6
CONTINUOUS
 62
    7
 10
1339.2132036195951
 20
1182.156847300801
 40
10.262269771154468
 50
358.01153344522112
 51
52.155664968674948
  0
ARC
  8
_0-1_レイヤ___3
  6
CONTINUOUS
 62
    7
 10
1340.6237716063638
 20
1182.7096611688221
 40
8.8920951982987209
 50
296.62886977896295
 51
354.13331811973984
  0
ARC
  8
_0-1_レイヤ___3
  6
CONTINUOUS
 62
    7
 10
1338.0661190401324
 20
1186.9981682715343
 40
13.876858609198495
 50
275.30564420291114
 51
298.13281341553414
  0
ARC
  8
_0-1_レイヤ___3
  6
CONTINUOUS
 62
    7
 10
1336.9888249174048
 20
1194.4126415986739
 40
21.362688263057628
 50
268.17715661235707
 51
276.34384720992603
  0
ARC
  8
_0-1_レイヤ___3
  6
CONTINUOUS
 62
    7
 10
1402.4124833151202
 20
1304.6471332662868
 40
15.389358402417209
 50
245.16681141274822
 51
268.87112871859046
  0
ARC
  8
_0-1_レイヤ___3
  6
CONTINUOUS
 62
    7
 10
1399.8662522338518
 20
1298.901354168429
 40
9.1060805556694131
 50
216.53200618869792
 51
244.52307411461572
  0
ARC
  8
_0-1_レイヤ___3
  6
CONTINUOUS
 62
    7
 10
1397.4141451860717
 20
1296.7013877871709
 40
5.8343132601957306
 50
147.21310080102344
 51
213.50533216208086
  0
ARC
  8
_0-1_レイヤ___3
  6
CONTINUOUS
 62
    7
 10
1406.8050721152676
 20
1291.3136567591523
 40
16.655998382379099
 50
88.127572139533171
 51
149.12580325998019
  0
ARC
  8
_0-1_レイヤ___3
  6
CONTINUOUS
 62
    7
 10
1406.4303767813558
 20
1300.1948098175887
 40
7.8201290279746143
 50
53.250535647033097
 51
83.251775221437782
  0
ARC
  8
_0-1_レイヤ___3
  6
CONTINUOUS
 62
    7
 10
1405.2532012042034
 20
1298.5885396150566
 40
9.8115086374271225
 50
345.43260101625617
 51
53.354691363315887
  0
ARC
  8
_0-1_レイヤ___3
  6
CONTINUOUS
 62
    7
 10
1406.0968653493305
 20
1299.1223894277546
 40
9.1582905827102206
 50
297.52539724899179
 51
340.86774729042025
  0
ARC
  8
_0-1_レイヤ___3
  6
CONTINUOUS
 62
    7
 10
1403.7740231001133
 20
1302.9033006152695
 40
13.588303974072103
 50
275.63933795008029
 51
298.84358084779217
  0
ARC
  8
_0-1_レイヤ___3
  6
CONTINUOUS
 62
    7
 10
1402.7991538555161
 20
1309.5742598585166
 40
20.325208779776474
 50
268.05494427270025
 51
276.52627581257684
  0
ARC
  8
_0-1_レイヤ___3
  6
CONTINUOUS
 62
    7
 10
1485.8124813151201
 20
1284.4471332662863
 40
15.389358402417209
 50
245.16681141274822
 51
268.87112871859046
  0
ARC
  8
_0-1_レイヤ___3
  6
CONTINUOUS
 62
    7
 10
1483.2662502338528
 20
1278.7013541684291
 40
9.1060805556701592
 50
216.53200618869221
 51
244.52307411461004
  0
ARC
  8
_0-1_レイヤ___3
  6
CONTINUOUS
 62
    7
 10
1480.8141431860715
 20
1276.5013877871711
 40
5.8343132601957306
 50
147.21310080102344
 51
213.50533216208086
  0
ARC
  8
_0-1_レイヤ___3
  6
CONTINUOUS
 62
    7
 10
1490.2050701152675
 20
1271.1136567591525
 40
16.655998382379099
 50
88.127572139533171
 51
149.12580325998019
  0
ARC
  8
_0-1_レイヤ___3
  6
CONTINUOUS
 62
    7
 10
1489.8303747813557
 20
1279.9948098175889
 40
7.8201290279746143
 50
53.250535647033097
 51
83.251775221437782
  0
ARC
  8
_0-1_レイヤ___3
  6
CONTINUOUS
 62
    7
 10
1488.6531992042032
 20
1278.3885396150567
 40
9.8115086374271225
 50
345.43260101625617
 51
53.354691363315887
  0
ARC
  8
_0-1_レイヤ___3
  6
CONTINUOUS
 62
    7
 10
1489.4968633493304
 20
1278.9223894277548
 40
9.1582905827102206
 50
297.52539724899179
 51
340.86774729042025
  0
ARC
  8
_0-1_レイヤ___3
  6
CONTINUOUS
 62
    7
 10
1487.1740211001131
 20
1282.7033006152697
 40
13.588303974072103
 50
275.63933795008029
 51
298.84358084779217
  0
ARC
  8
_0-1_レイヤ___3
  6
CONTINUOUS
 62
    7
 10
1486.1991518555121
 20
1289.3742598585163
 40
20.325208779776631
 50
268.05494427271105
 51
276.52627581258764
  0
ARC
  8
_0-1_レイヤ___3
  6
CONTINUOUS
 62
    7
 10
1101.6124873151207
 20
1062.0471372662878
 40
15.389358402418555
 50
245.16681141274933
 51
268.87112871859159
  0
ARC
  8
_0-1_レイヤ___3
  6
CONTINUOUS
 62
    7
 10
1099.0662562338516
 20
1056.3013581684288
 40
9.1060805556694131
 50
216.53200618869792
 51
244.52307411461572
  0
ARC
  8
_0-1_レイヤ___3
  6
CONTINUOUS
 62
    7
 10
1096.6141476547702
 20
1054.1013907871707
 40
5.8343114313288797
 50
147.21310091362761
 51
213.505332274685
  0
ARC
  8
_0-1_レイヤ___3
  6
CONTINUOUS
 62
    7
 10
1106.5291156999469
 20
1048.1058644589534
 40
17.419505859807565
 50
96.857240674520938
 51
148.29442208993729
  0
ARC
  8
_0-1_レイヤ___3
  6
CONTINUOUS
 62
    7
 10
1105.2874889012005
 20
1056.0058534982807
 40
9.4322268406630769
 50
56.384725313599461
 51
95.098292078324832
  0
ARC
  8
_0-1_レイヤ___3
  6
CONTINUOUS
 62
    7
 10
1103.9393882352895
 20
1056.6177367293499
 40
9.7788113786339785
 50
289.16268322755815
 51
47.789870642448889
  0
ARC
  8
_0-1_レイヤ___3
  6
CONTINUOUS
 62
    7
 10
1102.1664847396332
 20
1063.7524715271475
 40
17.113187182141782
 50
267.12889511851995
 51
286.92789735938101
  0
ARC
  8
_0-1_レイヤ___3
  6
CONTINUOUS
 62
    7
 10
1360.926786416811
 20
1292.8378220489735
 40
44.790672922329904
 50
218.98251575799316
 51
239.96726812575309
  0
ARC
  8
_0-1_レイヤ___3
  6
CONTINUOUS
 62
    7
 10
1327.835434878996
 20
1266.2961396336095
 40
2.3778176931544741
 50
185.68095748523902
 51
223.45338515596146
  0
ARC
  8
_0-1_レイヤ___3
  6
CONTINUOUS
 62
    7
 10
1326.3452889931104
 20
1266.0777020165046
 40
0.8761569965708739
 50
134.6732359833581
 51
181.10786732922321
  0
ARC
  8
_0-1_レイヤ___3
  6
CONTINUOUS
 62
    7
 10
1327.186322597428
 20
1265.0525864758815
 40
2.1998656581496152
 50
104.66751372275706
 51
131.47746014893383
  0
ARC
  8
_0-1_レイヤ___3
  6
CONTINUOUS
 62
    7
 10
1323.2089175330359
 20
1281.8806748673467
 40
15.092595294570494
 50
283.09852584952603
 51
292.93086198688036
  0
ARC
  8
_0-1_レイヤ___3
  6
CONTINUOUS
 62
    7
 10
1328.6028138592608
 20
1268.6354099515647
 40
0.8156156656252344
 50
306.61676483907871
 51
41.962048885927373
  0
ARC
  8
_0-1_レイヤ___3
  6
CONTINUOUS
 62
    7
 10
1325.2050004370826
 20
1266.7602504783708
 40
4.6790229804300969
 50
31.152068439073435
 51
41.501583465192638
  0
ARC
  8
_0-1_レイヤ___3
  6
CONTINUOUS
 62
    7
 10
1346.5608256207158
 20
908.60352082369616
 40
361.69803876473173
 50
91.050545029305766
 51
92.828970328463953
  0
ARC
  8
_0-1_レイヤ___3
  6
CONTINUOUS
 62
    7
 10
1338.83363971266
 20
1261.6715153647688
 40
8.639006980462927
 50
58.796781263853219
 51
82.713760256467665
  0
ARC
  8
_0-1_レイヤ___3
  6
CONTINUOUS
 62
    7
 10
1335.1558552922372
 20
1256.8174220407827
 40
14.709790162818507
 50
22.054435523318521
 51
56.338413484988074
  0
ARC
  8
_0-1_レイヤ___3
  6
CONTINUOUS
 62
    7
 10
1340.2646869205093
 20
1259.3496227293845
 40
9.0341482607753907
 50
310.31174362252432
 51
19.335101201994419
  0
ARC
  8
_0-1_レイヤ___3
  6
CONTINUOUS
 62
    7
 10
1344.127794642279
 20
1255.0058783136915
 40
3.2255165640418615
 50
255.66697459836703
 51
307.90252241415874
  0
ARC
  8
_0-1_レイヤ___3
  6
CONTINUOUS
 62
    7
 10
1345.1113232532382
 20
1260.4131523179933
 40
8.7164968701469991
 50
244.57658345140453
 51
258.20308709295904
  0
ARC
  8
_0-1_レイヤ___3
  6
CONTINUOUS
 62
    7
 10
1356.4028497234174
 20
1284.2782420224887
 40
35.118021837234309
 50
239.36771762025802
 51
244.65380538909881
  0
ARC
  8
_0-1_レイヤ___3
  6
CONTINUOUS
 62
    7
 10
1420.4472102884145
 20
1242.9514102932485
 40
2.2351690314943378
 50
273.6445909865372
 51
310.85345632786635
  0
ARC
  8
_0-1_レイヤ___3
  6
CONTINUOUS
 62
    7
 10
1420.5783571126974
 20
1241.763624579758
 40
1.042920165912284
 50
228.64628172786669
 51
270.60084784452363
  0
ARC
  8
_0-1_レイヤ___3
  6
CONTINUOUS
 62
    7
 10
1422.7134869941758
 20
1243.7445679806092
 40
3.9515430076827651
 50
204.90104061199585
 51
224.38085441184546
  0
ARC
  8
_0-1_レイヤ___3
  6
CONTINUOUS
 62
    7
 10
1418.258158475692
 20
1241.8214771550338
 40
0.9089033081866508
 50
16.575104067285864
 51
112.57114759352453
  0
ARC
  8
_0-1_レイヤ___3
  6
CONTINUOUS
 62
    7
 10
1422.7671265108088
 20
1244.2414735356624
 40
5.1085407470996236
 50
173.71460079341756
 51
198.02460009263743
  0
ARC
  8
_0-1_レイヤ___3
  6
CONTINUOUS
 62
    7
 10
1419.6940634982557
 20
1244.5150234701657
 40
2.0250303689960774
 50
109.76437344721234
 51
171.88831061186528
  0
ARC
  8
_0-1_レイヤ___3
  6
CONTINUOUS
 62
    7
 10
1440.4688746640247
 20
1194.7331960016038
 40
55.965329139760776
 50
109.58470307475038
 51
112.54718823150512
  0
ARC
  8
_0-1_レイヤ___3
  6
CONTINUOUS
 62
    7
 10
1422.6688401319134
 20
1245.7546375174597
 40
1.9574445412070938
 50
52.173246196656784
 51
119.35396420521553
  0
ARC
  8
_0-1_レイヤ___3
  6
CONTINUOUS
 62
    7
 10
1421.4204240590848
 20
1244.4350750052649
 40
3.7694991021474342
 50
28.621784942931018
 51
49.484488949096111
  0
ARC
  8
_0-1_レイヤ___3
  6
CONTINUOUS
 62
    7
 10
1414.14770575998
 20
1240.3070998516512
 40
12.131708397892302
 50
23.068901006024138
 51
29.281678957536403
  0
ARC
  8
_0-1_レイヤ___3
  6
CONTINUOUS
 62
    7
 10
1421.1500473704225
 20
1243.3607617595435
 40
4.4932539090529842
 50
337.76879630468426
 51
22.231203695315713
  0
ARC
  8
_0-1_レイヤ___3
  6
CONTINUOUS
 62
    7
 10
1424.4584577824137
 20
1242.6317062518301
 40
1.2909899693639579
 50
270.48092100133999
 51
311.22799507786186
  0
ARC
  8
_0-1_レイヤ___3
  6
CONTINUOUS
 62
    7
 10
1423.5852612095928
 20
1228.6298039957626
 40
12.741662405558641
 50
86.021550477947713
 51
97.558270738535683
  0
ARC
  8
_0-1_レイヤ___3
  6
CONTINUOUS
 62
    7
 10
1470.8557176847441
 20
1326.3252899876011
 40
2.2098729667095829
 50
273.98495551844883
 51
311.12953775092632
  0
ARC
  8
_0-1_レイヤ___3
  6
CONTINUOUS
 62
    7
 10
1470.9971315821313
 20
1325.0575838739769
 40
0.9369030322204957
 50
226.25346042227153
 51
270.74367092960159
  0
ARC
  8
_0-1_レイヤ___3
  6
CONTINUOUS
 62
    7
 10
1473.1125584296458
 20
1326.9119294460161
 40
3.7473273891754246
 50
202.45250403185582
 51
222.48988054985648
  0
ARC
  8
_0-1_レイヤ___3
  6
CONTINUOUS
 62
    7
 10
1468.8368501236075
 20
1325.2942365049062
 40
0.833578051959982
 50
12.930101458138257
 51
113.13846967614056
  0
ARC
  8
_0-1_レイヤ___3
  6
CONTINUOUS
 62
    7
 10
1473.5156434233513
 20
1327.7633521574353
 40
5.2879464497575723
 50
174.82015617275198
 51
198.78247347518604
  0
ARC
  8
_0-1_レイヤ___3
  6
CONTINUOUS
 62
    7
 10
1470.2198806054187
 20
1327.9673024735655
 40
1.9894720928393421
 50
107.87310941141182
 51
172.09955813104145
  0
ARC
  8
_0-1_レイヤ___3
  6
CONTINUOUS
 62
    7
 10
1491.2781151577112
 20
1275.4999366383227
 40
58.520398127608317
 50
108.91350257863412
 51
111.73277108070278
  0
ARC
  8
_0-1_レイヤ___3
  6
CONTINUOUS
 62
    7
 10
1473.2351788076735
 20
1329.2972911261218
 40
1.8170583250623866
 50
50.568547455107719
 51
120.63404183488922
  0
ARC
  8
_0-1_レイヤ___3
  6
CONTINUOUS
 62
    7
 10
1471.0684679627504
 20
1326.8116293124797
 40
5.1140205764152604
 50
18.812510739350948
 51
49.506878351985776
  0
ARC
  8
_0-1_レイヤ___3
  6
CONTINUOUS
 62
    7
 10
1472.3817948908813
 20
1326.9623772235782
 40
3.8325428273046827
 50
330.25264378626616
 51
23.014434886879815
  0
ARC
  8
_0-1_レイヤ___3
  6
CONTINUOUS
 62
    7
 10
1475.0010911765683
 20
1325.6843235784015
 40
0.9435994542956511
 50
270.49795053273527
 51
318.63639210852455
  0
ARC
  8
_0-1_レイヤ___3
  6
CONTINUOUS
 62
    7
 10
1474.1369132126451
 20
1308.5810363900237
 40
16.183253805809642
 50
86.909901427127608
 51
96.484410952065232
  0
ARC
  8
_0-1_レイヤ___3
  6
CONTINUOUS
 62
    7
 10
1317.3101199909459
 20
1315.2544277820436
 40
3.5991813619221125
 50
273.17232271934927
 51
0.1008313638814951
  0
ARC
  8
_0-1_レイヤ___3
  6
CONTINUOUS
 62
    7
 10
1317.1876391665253
 20
1315.1514194028682
 40
3.7232625069524756
 50
1.6828672190446552
 51
85.043978697715559
  0
ARC
  8
_0-1_レイヤ___3
  6
CONTINUOUS
 62
    7
 10
1317.6362696694569
 20
1315.1337878695613
 40
3.7291361929195461
 50
91.951249318766443
 51
178.0487506812245
  0
ARC
  8
_0-1_レイヤ___3
  6
CONTINUOUS
 62
    7
 10
1317.6362696694562
 20
1315.3877356495245
 40
3.7291361929192517
 50
181.95124931878001
 51
268.04875068123806
  0
ARC
  8
_0-1_レイヤ___3
  6
CONTINUOUS
 62
    7
 10
1387.9823198894937
 20
1254.7877356495246
 40
3.7291361929195461
 50
271.95124931877547
 51
358.04875068123351
  0
ARC
  8
_0-1_レイヤ___3
  6
CONTINUOUS
 62
    7
 10
1387.9823198894942
 20
1254.5337878695618
 40
3.7291361929189577
 50
1.9512493187755
 51
88.048750681233543
  0
ARC
  8
_0-1_レイヤ___3
  6
CONTINUOUS
 62
    7
 10
1388.2362676694563
 20
1254.5337878695618
 40
3.7291361929189577
 50
91.951249318766443
 51
178.0487506812245
  0
ARC
  8
_0-1_レイヤ___3
  6
CONTINUOUS
 62
    7
 10
1388.236267669457
 20
1254.7877356495246
 40
3.7291361929195461
 50
181.95124931876646
 51
268.04875068122448
  0
ARC
  8
_0-1_レイヤ___3
  6
CONTINUOUS
 62
    7
 10
1385.5823198894936
 20
1201.7877356495246
 40
3.7291361929195461
 50
271.95124931877547
 51
358.04875068123351
  0
ARC
  8
_0-1_レイヤ___3
  6
CONTINUOUS
 62
    7
 10
1385.5025968848386
 20
1201.4540648649058
 40
3.8123044020502523
 50
3.1080072346492016
 51
86.891992765359873
  0
ARC
  8
_0-1_レイヤ___3
  6
CONTINUOUS
 62
    7
 10
1385.8905323562201
 20
1201.4795231827979
 40
3.7855795587946091
 50
92.744144307395302
 51
177.2558556925957
  0
ARC
  8
_0-1_レイヤ___3
  6
CONTINUOUS
 62
    7
 10
1385.8362676694569
 20
1201.7877356495246
 40
3.7291361929195461
 50
181.95124931876646
 51
268.04875068122448
  0
ARC
  8
_0-1_レイヤ___3
  6
CONTINUOUS
 62
    7
 10
1468.9280532027303
 20
1244.642000336288
 40
3.7855795587946091
 50
272.74414430740433
 51
357.25585569260471
  0
ARC
  8
_0-1_レイヤ___3
  6
CONTINUOUS
 62
    7
 10
1468.9823178894947
 20
1244.333787869562
 40
3.7291361929186633
 50
1.9512493187709792
 51
88.048750681229009
  0
ARC
  8
_0-1_レイヤ___3
  6
CONTINUOUS
 62
    7
 10
1469.2362666694564
 20
1244.3337889401027
 40
3.729135157047998
 50
91.951265234264213
 51
178.04876659672226
  0
ARC
  8
_0-1_レイヤ___3
  6
CONTINUOUS
 62
    7
 10
1469.3159896741131
 20
1244.667457539349
 40
3.8123033430773186
 50
183.10799131914689
 51
266.89197684985754
  0
ARC
  8
_0-1_レイヤ___3
  6
CONTINUOUS
 62
    7
 10
1534.5823189600353
 20
1322.9877346495243
 40
3.729135157047704
 50
271.95123340327319
 51
358.04873476573124
  0
ARC
  8
_0-1_レイヤ___3
  6
CONTINUOUS
 62
    7
 10
1534.5823178894941
 20
1322.7337858695619
 40
3.7291361929189577
 50
1.9512493187664588
 51
88.04875068122449
  0
ARC
  8
_0-1_レイヤ___3
  6
CONTINUOUS
 62
    7
 10
1534.8362656694567
 20
1322.7337858695619
 40
3.7291361929192517
 50
91.951249318770977
 51
178.04875068122902
  0
ARC
  8
_0-1_レイヤ___3
  6
CONTINUOUS
 62
    7
 10
1534.8362645989155
 20
1322.9877346495243
 40
3.729135157047998
 50
181.95126523427328
 51
268.0487665967313
  0
ARC
  8
_0-1_レイヤ___3
  6
CONTINUOUS
 62
    7
 10
1119.7540260906171
 20
1390.7447800593877
 40
13.886176998468114
 50
233.37201448459717
 51
268.99017380172819
  0
ARC
  8
_0-1_レイヤ___3
  6
CONTINUOUS
 62
    7
 10
1115.6755367919559
 20
1384.520394983394
 40
6.4726545841613889
 50
152.9817076743519
 51
229.46988785126968
  0
ARC
  8
_0-1_レイヤ___3
  6
CONTINUOUS
 62
    7
 10
1124.7291156999459
 20
1378.3058604589542
 40
17.419505859806307
 50
96.857240674518465
 51
148.29442208993484
  0
ARC
  8
_0-1_レイヤ___3
  6
CONTINUOUS
 62
    7
 10
1123.4874889012005
 20
1386.2058494982803
 40
9.4322268406630769
 50
56.384725313599461
 51
95.098292078324832
  0
ARC
  8
_0-1_レイヤ___3
  6
CONTINUOUS
 62
    7
 10
1122.7131532815972
 20
1386.2319443318365
 40
9.8612423071605786
 50
345.24703752499107
 51
52.551243642877502
  0
ARC
  8
_0-1_レイヤ___3
  6
CONTINUOUS
 62
    7
 10
1123.6145781497034
 20
1386.7235244384851
 40
9.141935178170046
 50
297.31252060173699
 51
340.82463875195896
  0
ARC
  8
_0-1_レイヤ___3
  6
CONTINUOUS
 62
    7
 10
1121.2284297034707
 20
1390.6188869692887
 40
13.701941696832465
 50
275.53190753905653
 51
298.70416529519588
  0
ARC
  8
_0-1_レイヤ___3
  6
CONTINUOUS
 62
    7
 10
1120.209038293332
 20
1397.7006667417454
 40
20.851651249087748
 50
268.07690496790468
 51
276.44409885439978
  0
ARC
  8
_0-1_レイヤ___3
  6
CONTINUOUS
 62
    7
 10
1244.1587276601431
 20
1376.0123900150199
 40
2.2118414945153191
 50
270.7918650534782
 51
307.63347858087042
  0
ARC
  8
_0-1_レイヤ___3
  6
CONTINUOUS
 62
    7
 10
1244.2266416547702
 20
1374.9043898602486
 40
1.104261795764629
 50
226.69836952586971
 51
268.0619005779788
  0
ARC
  8
_0-1_レイヤ___3
  6
CONTINUOUS
 62
    7
 10
1247.3304186714349
 20
1377.6596214159611
 40
5.2510728690745436
 50
205.96289207065442
 51
222.66728312935805
  0
ARC
  8
_0-1_レイヤ___3
  6
CONTINUOUS
 62
    7
 10
1241.780145316121
 20
1374.9966287401628
 40
0.9055837289597192
 50
23.709235330928593
 51
107.40285510823388
  0
ARC
  8
_0-1_レイヤ___3
  6
CONTINUOUS
 62
    7
 10
1246.3671285108094
 20
1377.4414715356613
 40
5.1085407470994868
 50
173.7146007934025
 51
198.02460009262236
  0
ARC
  8
_0-1_レイヤ___3
  6
CONTINUOUS
 62
    7
 10
1243.2940654982563
 20
1377.7150214701664
 40
2.0250303689957292
 50
109.76437344722439
 51
171.88831061187733
  0
ARC
  8
_0-1_レイヤ___3
  6
CONTINUOUS
 62
    7
 10
1264.0688766640246
 20
1327.9331940016039
 40
55.965329139760776
 50
109.58470307475038
 51
112.54718823150512
  0
ARC
  8
_0-1_レイヤ___3
  6
CONTINUOUS
 62
    7
 10
1246.1960096372522
 20
1378.6960959962057
 40
2.1554965016317982
 50
49.730209532083514
 51
114.29113693510403
  0
ARC
  8
_0-1_レイヤ___3
  6
CONTINUOUS
 62
    7
 10
1244.0688714724265
 20
1376.6477981800704
 40
5.1020929557508925
 50
18.429481517701756
 51
46.370198830124025
  0
ARC
  8
_0-1_レイヤ___3
  6
CONTINUOUS
 62
    7
 10
1245.4879649924997
 20
1376.4607597595432
 40
3.8659415869753615
 50
332.25064537745942
 51
27.749354622540569
  0
ARC
  8
_0-1_レイヤ___3
  6
CONTINUOUS
 62
    7
 10
1248.1802797458195
 20
1375.6374798717286
 40
1.2187889706076036
 50
266.66112461066632
 51
306.73736385735077
  0
ARC
  8
_0-1_レイヤ___3
  6
CONTINUOUS
 62
    7
 10
1247.2620558843155
 20
1366.9834080559071
 40
7.4854536137453103
 50
83.501059352263979
 51
103.54184740158935
  0
ARC
  8
_0-1_レイヤ___3
  6
CONTINUOUS
 62
    7
 10
1206.5823218894943
 20
1416.9877336495244
 40
3.7291361929189577
 50
271.95124931876649
 51
358.04875068122448
  0
ARC
  8
_0-1_レイヤ___3
  6
CONTINUOUS
 62
    7
 10
1206.5823218894936
 20
1416.7337858695619
 40
3.7291361929195461
 50
1.9512493187664588
 51
88.04875068122449
  0
ARC
  8
_0-1_レイヤ___3
  6
CONTINUOUS
 62
    7
 10
1206.9159926741131
 20
1416.6540628649063
 40
3.812304402050553
 50
93.108007234653741
 51
176.89199276536442
  0
ARC
  8
_0-1_レイヤ___3
  6
CONTINUOUS
 62
    7
 10
1206.8905343562201
 20
1417.0419983362876
 40
3.7855795587943097
 50
182.74414430739981
 51
267.25585569260016
  0
ARC
  8
_0-1_レイヤ___3
  6
CONTINUOUS
 62
    7
 10
1392.7642553178944
 20
1403.6181640266823
 40
14.159699889802779
 50
233.73898877541532
 51
268.96826841666001
  0
ARC
  8
_0-1_レイヤ___3
  6
CONTINUOUS
 62
    7
 10
1388.581277992886
 20
1397.3256555328601
 40
6.6209733674774043
 50
182.98596883072116
 51
230.71804304390426
  0
ARC
  8
_0-1_レイヤ___3
  6
CONTINUOUS
 62
    7
 10
1388.0649290487313
 20
1396.8038450994459
 40
6.0982020409911764
 50
147.71860465662525
 51
178.33756151468074
  0
ARC
  8
_0-1_レイヤ___3
  6
CONTINUOUS
 62
    7
 10
1397.2172461586727
 20
1391.4985364823576
 40
16.674206689787248
 50
87.827642440086279
 51
149.10268184522266
  0
ARC
  8
_0-1_レイヤ___3
  6
CONTINUOUS
 62
    7
 10
1396.8897462252764
 20
1399.974990720073
 40
8.2418169280999525
 50
54.213425861247742
 51
83.314218177396342
  0
ARC
  8
_0-1_レイヤ___3
  6
CONTINUOUS
 62
    7
 10
1395.139383641854
 20
1399.4177317293497
 40
9.7788125180201106
 50
289.16268458865665
 51
47.789872003547416
  0
ARC
  8
_0-1_レイヤ___3
  6
CONTINUOUS
 62
    7
 10
1393.3664807396335
 20
1406.5524655271493
 40
17.11318718214342
 50
267.12889511851927
 51
286.92789735938032
  0
ARC
  8
_0-1_レイヤ___3
  6
CONTINUOUS
 62
    7
 10
1476.1642533178954
 20
1383.418164026682
 40
14.159699889803081
 50
233.73898877541171
 51
268.96826841665643
  0
ARC
  8
_0-1_レイヤ___3
  6
CONTINUOUS
 62
    7
 10
1471.9812769928856
 20
1377.1256532726159
 40
6.6209722510955924
 50
182.98594974862922
 51
230.71802396181229
  0
ARC
  8
_0-1_レイヤ___3
  6
CONTINUOUS
 62
    7
 10
1471.4649280487308
 20
1376.6038487524554
 40
6.098200935435921
 50
147.71863869153793
 51
178.33759554959343
  0
ARC
  8
_0-1_レイヤ___3
  6
CONTINUOUS
 62
    7
 10
1480.617244158673
 20
1371.2985364823578
 40
16.674206689787514
 50
87.827642440087956
 51
149.10268184522434
  0
ARC
  8
_0-1_レイヤ___3
  6
CONTINUOUS
 62
    7
 10
1480.2897442252763
 20
1379.7749907200732
 40
8.2418169280999525
 50
54.213425861247742
 51
83.314218177396342
  0
ARC
  8
_0-1_レイヤ___3
  6
CONTINUOUS
 62
    7
 10
1478.5393816418539
 20
1379.2177317293499
 40
9.7788125180201106
 50
289.16268458865665
 51
47.789872003547416
  0
ARC
  8
_0-1_レイヤ___3
  6
CONTINUOUS
 62
    7
 10
1476.7664787396316
 20
1386.3524655271494
 40
17.113187182143626
 50
267.12889511852478
 51
286.92789735938584
  0
ARC
  8
_0-1_レイヤ___3
  6
CONTINUOUS
 62
    7
 10
1357.5715547876016
 20
1403.8265095667737
 40
56.983132959462345
 50
232.76173241950198
 51
240.03402119935211
  0
ARC
  8
_0-1_レイヤ___3
  6
CONTINUOUS
 62
    7
 10
1341.8810578887631
 20
1383.0097964651884
 40
30.915781186105598
 50
215.49123889564459
 51
232.56671724219791
  0
ARC
  8
_0-1_レイヤ___3
  6
CONTINUOUS
 62
    7
 10
1318.4837857432783
 20
1366.7221174239153
 40
2.4308278261951539
 50
186.64663290054068
 51
223.11410081780588
  0
ARC
  8
_0-1_レイヤ___3
  6
CONTINUOUS
 62
    7
 10
1316.8860284298157
 20
1366.4810567981215
 40
0.8177261604288987
 50
134.85283580617119
 51
182.82464456026958
  0
ARC
  8
_0-1_レイヤ___3
  6
CONTINUOUS
 62
    7
 10
1317.6303109688522
 20
1365.5187293807876
 40
2.0305021102105494
 50
102.54434326506735
 51
130.58575908905902
  0
ARC
  8
_0-1_レイヤ___3
  6
CONTINUOUS
 62
    7
 10
1314.354063688231
 20
1381.3849096844906
 40
14.170679593782189
 50
281.54148257594102
 51
291.94245819464561
  0
ARC
  8
_0-1_レイヤ___3
  6
CONTINUOUS
 62
    7
 10
1319.1479306958443
 20
1368.8959536188572
 40
0.8250126910343007
 50
307.42380913384164
 51
43.204391187162514
  0
ARC
  8
_0-1_レイヤ___3
  6
CONTINUOUS
 62
    7
 10
1315.6698347927293
 20
1366.9304883692603
 40
4.8004453179751119
 50
31.809113437775984
 51
40.698562037160656
  0
ARC
  8
_0-1_レイヤ___3
  6
CONTINUOUS
 62
    7
 10
1317.0704571681708
 20
1442.9845704868189
 40
72.958169997026104
 50
271.75848906585355
 51
276.67371320490668
  0
ARC
  8
_0-1_レイヤ___3
  6
CONTINUOUS
 62
    7
 10
1328.158750852592
 20
1347.5955945063595
 40
23.073197820510401
 50
85.5990246610898
 51
96.493739153101686
  0
ARC
  8
_0-1_レイヤ___3
  6
CONTINUOUS
 62
    7
 10
1329.3056440452981
 20
1362.1678308828818
 40
8.4559583090485617
 50
57.014502907499271
 51
85.770427778619975
  0
ARC
  8
_0-1_レイヤ___3
  6
CONTINUOUS
 62
    7
 10
1325.3436972437137
 20
1356.8650806433816
 40
15.067259364738243
 50
21.637022187289876
 51
55.35495673184743
  0
ARC
  8
_0-1_レイヤ___3
  6
CONTINUOUS
 62
    7
 10
1331.1468372134802
 20
1359.6556317937927
 40
8.6559936682053493
 50
308.28020851929381
 51
18.629462436287287
  0
ARC
  8
_0-1_レイヤ___3
  6
CONTINUOUS
 62
    7
 10
1334.4319676703903
 20
1355.17709415166
 40
3.1113805263245298
 50
259.20638669137185
 51
311.88626785478897
  0
ARC
  8
_0-1_レイヤ___3
  6
CONTINUOUS
 62
    7
 10
1334.9404972438097
 20
1358.6057041274212
 40
6.5761104351316222
 50
244.69179895923264
 51
260.44847540541809
  0
ARC
  8
_0-1_レイヤ___3
  6
CONTINUOUS
 62
    7
 10
1340.1736337833856
 20
1369.5908068057252
 40
18.744009685348978
 50
233.82265018533371
 51
244.58519234656995
  0
ARC
  8
_0-1_レイヤ___3
  6
CONTINUOUS
 62
    7
 10
1461.3444427102788
 20
1426.2961640269878
 40
1.9807079169037836
 50
274.19383917943605
 51
313.5567225284131
  0
ARC
  8
_0-1_レイヤ___3
  6
CONTINUOUS
 62
    7
 10
1461.480479884551
 20
1425.2660783339638
 40
0.945359662715103
 50
226.46293646649309
 51
270.53419488538003
  0
ARC
  8
_0-1_レイヤ___3
  6
CONTINUOUS
 62
    7
 10
1464.5616016317783
 20
1427.9400278554231
 40
5.0214344608244463
 50
204.96372394947156
 51
221.98883264278038
  0
ARC
  8
_0-1_レイヤ___3
  6
CONTINUOUS
 62
    7
 10
1459.2483226894412
 20
1425.5133320344567
 40
0.8207245616037383
 50
21.998410777024226
 51
114.39877025027215
  0
ARC
  8
_0-1_レイヤ___3
  6
CONTINUOUS
 62
    7
 10
1463.9972811151508
 20
1427.9023199410567
 40
5.3462449399110312
 50
173.14146414943818
 51
197.88149068262396
  0
ARC
  8
_0-1_レイヤ___3
  6
CONTINUOUS
 62
    7
 10
1460.6993996252741
 20
1428.2101697906137
 40
2.0371095304062656
 50
108.61041058642104
 51
170.66051626736296
  0
ARC
  8
_0-1_レイヤ___3
  6
CONTINUOUS
 62
    7
 10
1413.9313612433566
 20
1543.3895995328426
 40
122.27903913346915
 50
292.15745723682642
 51
293.50985111900212
  0
ARC
  8
_0-1_レイヤ___3
  6
CONTINUOUS
 62
    7
 10
1463.5531455061871
 20
1429.3529680927777
 40
2.0860859954600981
 50
48.724561874999949
 51
113.86069758199491
  0
ARC
  8
_0-1_レイヤ___3
  6
CONTINUOUS
 62
    7
 10
1461.0012217816152
 20
1426.7971050309495
 40
5.6951100025400585
 50
21.244929189395815
 51
46.39148559815176
  0
ARC
  8
_0-1_レイヤ___3
  6
CONTINUOUS
 62
    7
 10
1459.3639793697284
 20
1426.5315410245848
 40
7.3254777580893737
 50
0.3849642435612661
 51
18.539680172499221
  0
ARC
  8
_0-1_レイヤ___3
  6
CONTINUOUS
 62
    7
 10
1464.7101196599228
 20
1426.4358244606262
 40
1.984471849053369
 50
323.69171643047798
 51
4.1883089551931185
  0
ARC
  8
_0-1_レイヤ___3
  6
CONTINUOUS
 62
    7
 10
1465.443149190012
 20
1426.6853308995337
 40
1.6672150185794088
 50
266.77284380314291
 51
301.29969930516563
  0
ARC
  8
_0-1_レイヤ___3
  6
CONTINUOUS
 62
    7
 10
1464.4408800830545
 20
1418.1495857504945
 40
6.9309629710789711
 50
82.468802425861725
 51
104.46765609197928
  0
ARC
  8
_0-1_レイヤ___3
  6
CONTINUOUS
 62
    7
 10
1307.7823218894944
 20
1415.7877336495244
 40
3.7291361929192517
 50
271.95124931877098
 51
358.04875068122902
  0
ARC
  8
_0-1_レイヤ___3
  6
CONTINUOUS
 62
    7
 10
1307.9156297569752
 20
1415.4615839710136
 40
3.5991813619224122
 50
3.1723227193538039
 51
90.100831363886016
  0
ARC
  8
_0-1_レイヤ___3
  6
CONTINUOUS
 62
    7
 10
1308.0186381361502
 20
1415.3391031465931
 40
3.7232625069524756
 50
91.682867219044653
 51
175.04397869771554
  0
ARC
  8
_0-1_レイヤ___3
  6
CONTINUOUS
 62
    7
 10
1308.0362696694565
 20
1415.7877336495244
 40
3.7291361929192517
 50
181.95124931877098
 51
268.04875068122902
  0
ARC
  8
_0-1_レイヤ___3
  6
CONTINUOUS
 62
    7
 10
1378.5823198894943
 20
1354.987733649524
 40
3.7291361929192517
 50
271.95124931877098
 51
358.04875068122902
  0
ARC
  8
_0-1_レイヤ___3
  6
CONTINUOUS
 62
    7
 10
1378.5823198894943
 20
1354.7337858695619
 40
3.7291361929192517
 50
1.9512493187709792
 51
88.048750681229009
  0
ARC
  8
_0-1_レイヤ___3
  6
CONTINUOUS
 62
    7
 10
1378.8362676694564
 20
1354.7337858695619
 40
3.7291361929192517
 50
91.951249318770977
 51
178.04875068122902
  0
ARC
  8
_0-1_レイヤ___3
  6
CONTINUOUS
 62
    7
 10
1378.8362676694564
 20
1354.987733649524
 40
3.7291361929192517
 50
181.95124931877098
 51
268.04875068122902
  0
ARC
  8
_0-1_レイヤ___3
  6
CONTINUOUS
 62
    7
 10
1525.1101159909454
 20
1423.2544257820439
 40
3.5991813619226964
 50
273.17232271934904
 51
0.1008313638812152
  0
ARC
  8
_0-1_レイヤ___3
  6
CONTINUOUS
 62
    7
 10
1525.1266805609921
 20
1423.0781485410598
 40
3.587262187228208
 50
2.9179289630330829
 51
87.082071036976501
  0
ARC
  8
_0-1_レイヤ___3
  6
CONTINUOUS
 62
    7
 10
1525.4186341361501
 20
1422.9391031465934
 40
3.7232625069521657
 50
91.682867219049186
 51
175.04397869772006
  0
ARC
  8
_0-1_レイヤ___3
  6
CONTINUOUS
 62
    7
 10
1525.4362656694568
 20
1423.3877336495243
 40
3.7291361929189577
 50
181.95124931876646
 51
268.04875068122448
  0
LINE
  8
_0-1_レイヤ___3
  6
CONTINUOUS
 62
    7
 10
1569.3092917794754
 20
1259.8607617595435
 11
1069.7092977794753
 21
973.26076575954289
  0
LINE
  8
_0-1_レイヤ___3
  6
CONTINUOUS
 62
    7
 10
1069.7092977794753
 20
973.26076575954289
 11
1069.7092977794753
 21
1459.2607577595431
  0
LINE
  8
_0-1_レイヤ___3
  6
CONTINUOUS
 62
    7
 10
1666.3092897794754
 20
1455.460757759543
 11
1666.7092897794751
 21
1199.8607617595435
  0
LINE
  8
_0-1_レイヤ___3
  6
CONTINUOUS
 62
    7
 10
1666.7092897794751
 20
1199.8607617595435
 11
1569.3092917794754
 21
1259.2607617595434
  0
LINE
  8
_0-1_レイヤ___3
  6
CONTINUOUS
 62
    7
 10
1569.3092917794754
 20
1259.2607617595434
 11
1569.3092917794754
 21
1461.860757759543
  0
LINE
  8
_0-0_文字
  6
CONTINUOUS
 62
    7
 10
1508.5092917794757
 20
1018.0607657595431
 11
1592.1092917794758
 21
873.46076775954316
  0
LINE
  8
_0-0_文字
  6
CONTINUOUS
 62
    7
 10
1592.1092917794758
 20
873.46076775954316
 11
1629.1092897794758
 21
873.46076775954316
  0
LINE
  8
_0-0_文字
  6
CONTINUOUS
 62
    7
 10
1578.7092917794755
 20
1215.4607617595434
 11
1636.3092897794754
 21
1115.660763759543
  0
LINE
  8
_0-0_文字
  6
CONTINUOUS
 62
    7
 10
1636.3092897794754
 20
1115.660763759543
 11
1673.3092897794754
 21
1115.660763759543
  0
LINE
  8
_0-0_文字
  6
CONTINUOUS
 62
    7
 10
1654.5092897794755
 20
1056.4607637595429
 11
1725.7092897794755
 21
933.06076575954307
  0
LINE
  8
_0-0_文字
  6
CONTINUOUS
 62
    7
 10
1725.7092897794755
 20
933.06076575954307
 11
1762.9092877794753
 21
933.06076575954307
  0
LINE
  8
_0-0_文字
  6
CONTINUOUS
 62
    7
 10
1451.9092937794753
 20
909.86076775954302
 11
1532.7092917794757
 21
768.46076975954304
  0
LINE
  8
_0-0_文字
  6
CONTINUOUS
 62
    7
 10
1532.7092917794757
 20
768.46076975954304
 11
1569.7092917794757
 21
768.46076975954304
  0
LINE
  8
_0-0_文字
  6
CONTINUOUS
 62
    7
 10
1360.1092937794758
 20
872.86076775954314
 11
1483.9092917794753
 21
656.46076975954315
  0
LINE
  8
_0-0_文字
  6
CONTINUOUS
 62
    7
 10
1483.9092917794753
 20
656.46076975954315
 11
1521.1092917794756
 21
656.46076975954315
  0
LINE
  8
_0-0_文字
  6
CONTINUOUS
 62
    7
 10
1835.9092877794753
 20
659.8607697595429
 11
1901.3092857794757
 21
546.66077175954285
  0
LINE
  8
_0-0_文字
  6
CONTINUOUS
 62
    7
 10
1901.3092857794757
 20
546.66077175954285
 11
1938.5092857794755
 21
546.66077175954285
  0
LINE
  8
_0-0_文字
  6
CONTINUOUS
 62
    7
 10
1213.3092957794756
 20
575.46077175954338
 11
1276.5092957794755
 21
469.46077375954275
  0
LINE
  8
_0-0_文字
  6
CONTINUOUS
 62
    7
 10
1276.5092957794755
 20
469.46077375954275
 11
1313.5092957794755
 21
469.46077375954275
  0
LINE
  8
_0-0_文字
  6
CONTINUOUS
 62
    7
 10
1183.1092977794756
 20
740.66076975954331
 11
1277.7092957794755
 21
574.86077175954335
  0
LINE
  8
_0-0_文字
  6
CONTINUOUS
 62
    7
 10
1277.7092957794755
 20
574.86077175954335
 11
1314.9092957794753
 21
574.86077175954335
  0
TEXT
  8
_0-0_文字
 62
    7
 10
1630.5892897794754
 20
857.96076775954305
 40
46.000000000000227
 41
0.999999999999995
 50
0
  1
AYシールMS-1
  0
TEXT
  8
_0-0_文字
 62
    7
 10
1674.7692897794755
 20
1100.3007637595431
 40
46.000000000000227
 41
0.999999999999995
 50
0
  1
AYシールMS-1
  0
TEXT
  8
_0-0_文字
 62
    7
 10
1763.0092877794757
 20
917.66076775954332
 40
46.000000000000227
 41
0.999999999999995
 50
0
  1
パラトップ水切り
  0
TEXT
  8
_0-0_文字
 62
    7
 10
1569.2492917794757
 20
753.34076975954304
 40
46.000000000000227
 41
0.999999999999995
 50
0
  1
YK押え金物
  0
TEXT
  8
_0-0_文字
 62
    7
 10
1521.4892917794757
 20
638.62077175954312
 40
46.000000000000227
 41
0.999999999999995
 50
0
  1
AYシールMS-1
  0
TEXT
  8
_0-0_文字
 62
    7
 10
1938.2092857794757
 20
527.22077175954325
 40
46.000000000000227
 41
0.999999999999995
 50
0
  1
リベットルーフ
  0
TEXT
  8
_0-0_文字
 62
    7
 10
1315.3492957794756
 20
456.4807737595433
 40
45.999999999999943
 41
1.0000000000000011
 50
0
  1
AYボンド580NF
  0
TEXT
  8
_0-0_文字
 62
    7
 10
1310.8092957794756
 20
557.88077175954299
 40
46.000000000000227
 41
0.999999999999995
 50
0
  1
AYブチルテープ
  0
ENDSEC
  0
EOF
