  0
SECTION
  2
HEADER
  9
$ACADVER
  1
AC1009
  9
$INSBASE
 10
0
 20
0
 30
0
  9
$EXTMIN
 10
0
 20
0
  9
$EXTMAX
 10
2970
 20
2100
  9
$LIMMIN
 10
0
 20
0
  9
$LIMMAX
 10
2970
 20
2100
  9
$LTSCALE
 40
10
  0
ENDSEC
  0
SECTION
  2
TABLES
  0
TABLE
  2
LTYPE
 70
     9
  0
LTYPE
  2
CONTINUOUS
 70
    64
  3
実線
 72
    65
 73
     0
 40
0.0
  0
LTYPE
  2
DASHED1
 70
    64
  3
--  --  --  --  --  --  --  --  
 72
    65
 73
     2
 40
2.5
 49
1.25
 49
-1.25
  0
LTYPE
  2
DASHED2
 70
    64
  3
----    ----    ----    ----    
 72
    65
 73
     2
 40
5.0
 49
2.5
 49
-2.5
  0
LTYPE
  2
DASHED3
 70
    64
  3
------  ------  ------  ------  
 72
    65
 73
     2
 40
5.0
 49
3.75
 49
-1.25
  0
LTYPE
  2
CENTER1
 70
    64
  3
----- - ----- - ----- - ----- - 
 72
    65
 73
     4
 40
10.0
 49
6.25
 49
-1.25
 49
1.25
 49
-1.25
  0
LTYPE
  2
CENTER2
 70
    64
  3
----------  --  ----------  --  
 72
    65
 73
     4
 40
20.0
 49
12.5
 49
-2.5
 49
2.5
 49
-2.5
  0
LTYPE
  2
PHANTOM1
 70
    64
  3
--- - - --- - - --- - - --- - - 
 72
    65
 73
     6
 40
10.0
 49
3.25
 49
-1.25
 49
1.25
 49
-1.25
 49
1.25
 49
-1.25
  0
LTYPE
  2
PHANTOM2
 70
    64
  3
--------  -  -  --------  -  -  
 72
    65
 73
     6
 40
20.0
 49
10.0
 49
-2.5
 49
1.25
 49
-2.5
 49
1.25
 49
-2.5
  0
LTYPE
  2
DOT
 70
    64
  3
-   -   -   -   -   -   -   -   
 72
    65
 73
     2
 40
2.5
 49
0.625
 49
-1.875
  0
LTYPE
  2
DUMMY
 70
    64
  3
ダミー
 72
    65
 73
     0
 40
0.0
  0
LTYPE
  2
RAND1
 70
    64
  3
ランダム線1
 72
    65
 73
     4
 40
10.0
 49
1.0
 49
-2.0
 49
3.0
 49
-4.0
  0
LTYPE
  2
RAND2
 70
    64
  3
ランダム線2
 72
    65
 73
     4
 40
14.0
 49
2.0
 49
-3.0
 49
4.0
 49
-5.0
  0
LTYPE
  2
RAND3
 70
    64
  3
ランダム線3
 72
    65
 73
     4
 40
18.0
 49
3.0
 49
-4.0
 49
5.0
 49
-6.0
  0
LTYPE
  2
RAND4
 70
    64
  3
ランダム線4
 72
    65
 73
     4
 40
22.0
 49
4.0
 49
-5.0
 49
6.0
 49
-7.0
  0
LTYPE
  2
RAND5
 70
    64
  3
ランダム線5
 72
    65
 73
     4
 40
26.0
 49
5.0
 49
-6.0
 49
7.0
 49
-8.0
  0
LTYPE
  2
LONG1
 70
    64
  3
----------  --  ----------  --  
 72
    65
 73
     4
 40
40.0
 49
32.5
 49
-2.5
 49
2.5
 49
-2.5
  0
LTYPE
  2
LONG2
 70
    64
  3
--------  -  -  --------  -  -  
 72
    65
 73
     6
 40
40.0
 49
30.0
 49
-2.5
 49
1.25
 49
-2.5
 49
1.25
 49
-2.5
  0
LTYPE
  2
LONG3
 70
    64
  3
+++++++++++++++..+++++++++++++++
 72
    65
 73
     2
 40
40.0
 49
37.5
 49
-2.5
  0
LTYPE
  2
LONG4
 70
    64
  3
+++++++++++++++..+++++++++++++++
 72
    65
 73
     2
 40
80.0
 49
75.0
 49
-5.0
  0
LTYPE
  2
LONG5
 70
    64
  3
----------  --  ----------  --  
 72
    65
 73
     4
 40
60.0
 49
37.5
 49
-7.5
 49
7.5
 49
-7.5
  0
LTYPE
  2
dashed
 70
   64
  3
-------   -------------   ------
 72
   65
 73
    2
 40
7.5
 49
6
 49
-1.5
  0
LTYPE
  2
dashed_spaced
 70
   64
  3
----        --------        ----
 72
   65
 73
    2
 40
12
 49
6
 49
-6
  0
LTYPE
  2
long_dashed_dotted
 70
   64
  3
------------- --- --------------
 72
   65
 73
    4
 40
15.25
 49
12
 49
-1.5
 49
0.25
 49
-1.5
  0
LTYPE
  2
long_dashed_double-dotted
 70
   64
  3
----------- --- --- ------------
 72
   65
 73
    6
 40
17
 49
12
 49
-1.5
 49
0.25
 49
-1.5
 49
0.25
 49
-1.5
  0
LTYPE
  2
long_dashed_triplicate-dotted
 70
   64
  3
--------- --- --- --- ----------
 72
   65
 73
    8
 40
18.75
 49
12
 49
-1.5
 49
0.25
 49
-1.5
 49
0.25
 49
-1.5
 49
0.25
 49
-1.5
  0
LTYPE
  2
dotted
 70
   64
  3
   -       -       -       -    
 72
   65
 73
    2
 40
1.75
 49
0.25
 49
-1.5
  0
LTYPE
  2
chain
 70
   64
  3
-------------- -- --------------
 72
   65
 73
    4
 40
18.5
 49
12
 49
-1.5
 49
3.5
 49
-1.5
  0
LTYPE
  2
chain_double_dash
 70
   64
  3
------------ -- -- -------------
 72
   65
 73
    6
 40
23.5
 49
12
 49
-1.5
 49
3.5
 49
-1.5
 49
3.5
 49
-1.5
  0
LTYPE
  2
dashed_dotted
 70
   64
  3
-----------     -     ----------
 72
   65
 73
    4
 40
9.25
 49
6
 49
-1.5
 49
0.25
 49
-1.5
  0
LTYPE
  2
double-dashed_dotted
 70
   64
  3
------   -----------   -   -----
 72
   65
 73
    6
 40
16.75
 49
6
 49
-1.5
 49
6
 49
-1.5
 49
0.25
 49
-1.5
  0
LTYPE
  2
dashed_double-dotted
 70
   64
  3
---------    -    -    ---------
 72
   65
 73
    6
 40
11
 49
6
 49
-1.5
 49
0.25
 49
-1.5
 49
0.25
 49
-1.5
  0
LTYPE
  2
double-dashed_double-dotted
 70
   64
  3
-----   ---------   -   -   ----
 72
   65
 73
    8
 40
18.5
 49
6
 49
-1.5
 49
6
 49
-1.5
 49
0.25
 49
-1.5
 49
0.25
 49
-1.5
  0
LTYPE
  2
dashed_triplicate-dotted
 70
   64
  3
-------    -    -    -    ------
 72
   65
 73
    8
 40
12.75
 49
6
 49
-1.5
 49
0.25
 49
-1.5
 49
0.25
 49
-1.5
 49
0.25
 49
-1.5
  0
LTYPE
  2
double-dashed_triplicate-dotted
 70
   64
  3
-----  ---------  -  -  -  -----
 72
   65
 73
   10
 40
20.25
 49
6
 49
-1.5
 49
6
 49
-1.5
 49
0.25
 49
-1.5
 49
0.25
 49
-1.5
 49
0.25
 49
-1.5
  0
LTYPE
  2
undefined
 70
   64
  3
--------------------------------
 72
   65
 73
    0
 40
0
  0
LTYPE
  2
AIGENLINE001
 70
   64
  3
----        --------        ----
 72
   65
 73
    2
 40
4.5800000000000001
 49
2.29
 49
-2.29
  0
LTYPE
  2
AIGENLINE002
 70
   64
  3
------     -----------     -----
 72
   65
 73
    2
 40
6.8700000000000001
 49
4.5800000000000001
 49
-2.29
  0
ENDTAB
  0
TABLE
  2
STYLE
  5
3
100
AcDbSymbolTable
 70
     1
  0
STYLE
  5
10
100
AcDbSymbolTableRecord
100
AcDbTextStyleTableRecord
  2
STANDARD
 70
     0
 40
0.0
 41
1.0
 50
0.0
 71
     0
 42
0.2
  3
txt
  4
bigfont.shx
  0
STYLE
  5
26
100
AcDbSymbolTableRecord
100
AcDbTextStyleTableRecord
  2
TATEGAKI
 70
    68
 40
0.0
 41
1.0
 50
0.0
 71
     0
 42
1.0
  3
txt
  4
bigfont.shx
  0
ENDTAB
  0
TABLE
  2
LAYER
 70
    3
  0
LAYER
  2
_0-0_文字
 70
   64
 62
    7
  6
CONTINUOUS
  0
LAYER
  2
_0-1_レイヤ___3
 70
   64
 62
    7
  6
CONTINUOUS
  0
LAYER
  2
ADD_LINE
 70
   64
 62
    7
  6
CONTINUOUS
  0
ENDTAB
  0
ENDSEC
  0
SECTION
  2
BLOCKS
  0
ENDSEC
  0
SECTION
  2
ENTITIES
  0
ARC
  8
_0-1_レイヤ___3
  6
CONTINUOUS
 62
    7
 10
-7457.1225270732621
 20
10245.265671888299
 40
100.75331131322194
 50
212.54457606520913
 51
215.40440375223901
  0
ARC
  8
_0-1_レイヤ___3
  6
CONTINUOUS
 62
    7
 10
-7368.9514147695209
 20
10307.718363524889
 40
208.80176608438552
 50
215.35576722286694
 51
221.36723647424384
  0
ARC
  8
_0-1_レイヤ___3
  6
CONTINUOUS
 62
    7
 10
-7295.4624294196119
 20
10370.285434729602
 40
305.30820552446175
 50
221.06477429997616
 51
231.22765018658944
  0
ARC
  8
_0-1_レイヤ___3
  6
CONTINUOUS
 62
    7
 10
-7258.362933726452
 20
10413.75814627555
 40
362.43800051855288
 50
230.95883511048854
 51
251.35346403312775
  0
ARC
  8
_0-1_レイヤ___3
  6
CONTINUOUS
 62
    7
 10
-7236.372632740311
 20
10469.15351598549
 40
421.96811857702386
 50
250.92920805381576
 51
264.01576111916944
  0
ARC
  8
_0-1_レイヤ___3
  6
CONTINUOUS
 62
    7
 10
-7225.624236278828
 20
10543.900922169672
 40
497.43720610569824
 50
263.68207230856342
 51
270.12317171358148
  0
ARC
  8
_0-1_レイヤ___3
  6
CONTINUOUS
 62
    7
 10
-6992.0793464044109
 20
10245.524901377814
 40
100.97057184263099
 50
324.50269853745323
 51
327.35954730735853
  0
ARC
  8
_0-1_レイヤ___3
  6
CONTINUOUS
 62
    7
 10
-7080.3419905560786
 20
10307.947173220191
 40
209.07582118488784
 50
318.61534655888227
 51
324.62063211809948
  0
ARC
  8
_0-1_レイヤ___3
  6
CONTINUOUS
 62
    7
 10
-7153.8774882642865
 20
10370.555279866292
 40
305.64394410371006
 50
308.76992808749981
 51
318.92296844706647
  0
ARC
  8
_0-1_レイヤ___3
  6
CONTINUOUS
 62
    7
 10
-7190.9073149430596
 20
10414.013847156648
 40
362.71881065871321
 50
288.65165821912348
 51
309.03173518611686
  0
ARC
  8
_0-1_レイヤ___3
  6
CONTINUOUS
 62
    7
 10
-7212.7783179116759
 20
10469.116770693032
 40
421.93378546990601
 50
275.98762352174964
 51
289.07257752973072
  0
ARC
  8
_0-1_レイヤ___3
  6
CONTINUOUS
 62
    7
 10
-7223.4878580387031
 20
10543.581941679005
 40
497.11822129585721
 50
269.87702048518202
 51
276.31995190691799
  0
ARC
  8
_0-1_レイヤ___3
  6
CONTINUOUS
 62
    7
 10
-5185.0304285955899
 20
10245.524901377814
 40
100.97057184263099
 50
212.64045269264147
 51
215.49730146254677
  0
ARC
  8
_0-1_レイヤ___3
  6
CONTINUOUS
 62
    7
 10
-5096.767783943922
 20
10307.947182752343
 40
209.07582711155425
 50
215.37936993240487
 51
221.38465549162211
  0
ARC
  8
_0-1_レイヤ___3
  6
CONTINUOUS
 62
    7
 10
-5023.232286235715
 20
10370.555274237853
 40
305.6439400285019
 50
221.07703081915608
 51
231.23007117872271
  0
ARC
  8
_0-1_レイヤ___3
  6
CONTINUOUS
 62
    7
 10
-4986.2024600569393
 20
10414.01384715665
 40
362.71881065871611
 50
230.96826481388334
 51
251.34834178087678
  0
ARC
  8
_0-1_レイヤ___3
  6
CONTINUOUS
 62
    7
 10
-4964.331457088324
 20
10469.116770693026
 40
421.93378546990107
 50
250.92742247026916
 51
264.01237647825019
  0
ARC
  8
_0-1_レイヤ___3
  6
CONTINUOUS
 62
    7
 10
-4953.6219169612968
 20
10543.581941679005
 40
497.11822129585721
 50
263.68004809308201
 51
270.12297951481798
  0
ARC
  8
_0-1_レイヤ___3
  6
CONTINUOUS
 62
    7
 10
-4719.9458454184714
 20
10245.502223718258
 40
100.93010227782503
 50
324.50212566871829
 51
327.36012017609352
  0
ARC
  8
_0-1_レイヤ___3
  6
CONTINUOUS
 62
    7
 10
-4808.1795151263923
 20
10307.897670728831
 40
208.99619450303933
 50
318.61419937969004
 51
324.6217751962829
  0
ARC
  8
_0-1_レイヤ___3
  6
CONTINUOUS
 62
    7
 10
-4881.720450069015
 20
10370.546924357084
 40
305.59543296261558
 50
308.76110452106741
 51
318.91711841601511
  0
ARC
  8
_0-1_レイヤ___3
  6
CONTINUOUS
 62
    7
 10
-4918.8186128357247
 20
10414.07234736759
 40
362.76505117262622
 50
288.64440299195792
 51
309.02607158712721
  0
ARC
  8
_0-1_レイヤ___3
  6
CONTINUOUS
 62
    7
 10
-4940.7607794280339
 20
10469.392114969156
 40
422.20788163462777
 50
275.98405340598731
 51
289.06580929539717
  0
ARC
  8
_0-1_レイヤ___3
  6
CONTINUOUS
 62
    7
 10
-4951.4884073483645
 20
10543.953934779165
 40
497.49021243480115
 50
269.87717178965931
 51
276.31758418819595
  0
ARC
  8
_0-1_レイヤ___3
  6
CONTINUOUS
 62
    7
 10
-5820.122552073216
 20
10136.864055111702
 40
100.75331131325974
 50
144.59559624777546
 51
147.45542393480537
  0
ARC
  8
_0-1_レイヤ___3
  6
CONTINUOUS
 62
    7
 10
-5731.9514397695193
 20
10074.411363475112
 40
208.80176608438552
 50
138.63276352575616
 51
144.64423277713306
  0
ARC
  8
_0-1_レイヤ___3
  6
CONTINUOUS
 62
    7
 10
-5658.4624539196111
 20
10011.84428664744
 40
305.30820959523527
 50
128.77234907943739
 51
138.93522496605067
  0
ARC
  8
_0-1_レイヤ___3
  6
CONTINUOUS
 62
    7
 10
-5621.3629577264519
 20
9968.3715807244553
 40
362.43800051855004
 50
108.64653596687252
 51
129.04116488951172
  0
ARC
  8
_0-1_レイヤ___3
  6
CONTINUOUS
 62
    7
 10
-5599.37265674031
 20
9912.9762110145002
 40
421.96811857703369
 50
95.984238880830276
 51
109.07079194618395
  0
ARC
  8
_0-1_レイヤ___3
  6
CONTINUOUS
 62
    7
 10
-5588.6242602788279
 20
9838.228804830349
 40
497.437206105678
 50
89.876828286418629
 51
96.317927691436736
  0
ARC
  8
_0-1_レイヤ___3
  6
CONTINUOUS
 62
    7
 10
-5354.9872379267836
 20
10136.864055111679
 40
100.75331131327245
 50
32.544576065205391
 51
35.404403752235282
  0
ARC
  8
_0-1_レイヤ___3
  6
CONTINUOUS
 62
    7
 10
-5443.1583502304802
 20
10074.411363475123
 40
208.80176608437881
 50
35.3557672228646
 51
41.367236474241516
  0
ARC
  8
_0-1_レイヤ___3
  6
CONTINUOUS
 62
    7
 10
-5516.6473355803882
 20
10011.8442922704
 40
305.30820552446175
 50
41.064774299976172
 51
51.227650186589457
  0
ARC
  8
_0-1_レイヤ___3
  6
CONTINUOUS
 62
    7
 10
-5553.7468312735482
 20
9968.3715807244516
 40
362.43800051855288
 50
50.958835110488543
 51
71.35346403312775
  0
ARC
  8
_0-1_レイヤ___3
  6
CONTINUOUS
 62
    7
 10
-5575.737132259691
 20
9912.9762110145057
 40
421.96811857702875
 50
70.929208053815913
 51
84.015761119169582
  0
ARC
  8
_0-1_レイヤ___3
  6
CONTINUOUS
 62
    7
 10
-5586.4855287211731
 20
9838.2288048303399
 40
497.43720610568812
 50
83.682072308563349
 51
90.123171713581442
  0
ARC
  8
_0-1_レイヤ___3
  6
CONTINUOUS
 62
    7
 10
-2913.022595073262
 20
10245.265671888321
 40
100.75331131323469
 50
212.54457606521987
 51
215.40440375224975
  0
ARC
  8
_0-1_レイヤ___3
  6
CONTINUOUS
 62
    7
 10
-2824.851482769519
 20
10307.718363524882
 40
208.80176608438217
 50
215.35576722286575
 51
221.36723647424267
  0
ARC
  8
_0-1_レイヤ___3
  6
CONTINUOUS
 62
    7
 10
-2751.3624974196114
 20
10370.285434729598
 40
305.30820552445948
 50
221.06477429997577
 51
231.22765018658905
  0
ARC
  8
_0-1_レイヤ___3
  6
CONTINUOUS
 62
    7
 10
-2714.2630012264522
 20
10413.758149055178
 40
362.43800299241127
 50
230.95883532587561
 51
251.3534642485148
  0
ARC
  8
_0-1_レイヤ___3
  6
CONTINUOUS
 62
    7
 10
-2692.2727002403099
 20
10469.153511626333
 40
421.96811429374725
 50
250.92920792458665
 51
264.0157609899403
  0
ARC
  8
_0-1_レイヤ___3
  6
CONTINUOUS
 62
    7
 10
-2681.5243042788275
 20
10543.900922169658
 40
497.43720610568312
 50
263.68207230856331
 51
270.12317171358143
  0
ARC
  8
_0-1_レイヤ___3
  6
CONTINUOUS
 62
    7
 10
-2447.8872809267382
 20
10245.26567188831
 40
100.75331131322829
 50
324.59559624775562
 51
327.45542393478553
  0
ARC
  8
_0-1_レイヤ___3
  6
CONTINUOUS
 62
    7
 10
-2536.0583932304803
 20
10307.718363524889
 40
208.80176608438552
 50
318.63276352575616
 51
324.64423277713308
  0
ARC
  8
_0-1_レイヤ___3
  6
CONTINUOUS
 62
    7
 10
-2609.5473785803892
 20
10370.285434729598
 40
305.30820552445948
 50
308.77234981341098
 51
318.93522570002426
  0
ARC
  8
_0-1_レイヤ___3
  6
CONTINUOUS
 62
    7
 10
-2646.646874773548
 20
10413.758149055178
 40
362.43800299241127
 50
288.6465357514852
 51
309.04116467412439
  0
ARC
  8
_0-1_レイヤ___3
  6
CONTINUOUS
 62
    7
 10
-2668.6371757596903
 20
10469.153511626329
 40
421.96811429374492
 50
275.98423901005975
 51
289.07079207541341
  0
ARC
  8
_0-1_レイヤ___3
  6
CONTINUOUS
 62
    7
 10
-2679.3855722211724
 20
10543.900931055636
 40
497.43721499271589
 50
269.87682823102801
 51
276.31792763604608
  0
ARC
  8
_0-1_レイヤ___3
  6
CONTINUOUS
 62
    7
 10
-3548.0304525955444
 20
10136.604825622173
 40
100.97057184267514
 50
144.50269853746238
 51
147.35954730736768
  0
ARC
  8
_0-1_レイヤ___3
  6
CONTINUOUS
 62
    7
 10
-3459.7678084439217
 20
10074.182553779816
 40
209.07582118488446
 50
138.6153465588834
 51
144.62063211810062
  0
ARC
  8
_0-1_レイヤ___3
  6
CONTINUOUS
 62
    7
 10
-3386.2323107357138
 20
10011.574447133704
 40
305.6439441037146
 50
128.76992808749898
 51
138.92296844706561
  0
ARC
  8
_0-1_レイヤ___3
  6
CONTINUOUS
 62
    7
 10
-3349.2024840569402
 20
9968.1158798433553
 40
362.71881065871321
 50
108.65165821912348
 51
129.03173518611692
  0
ARC
  8
_0-1_レイヤ___3
  6
CONTINUOUS
 62
    7
 10
-3327.3314810883239
 20
9913.0129563069768
 40
421.93378546990107
 50
95.987623521749811
 51
109.07257752973085
  0
ARC
  8
_0-1_レイヤ___3
  6
CONTINUOUS
 62
    7
 10
-3316.6219409612968
 20
9838.547785320985
 40
497.11822129586727
 50
89.877020485181959
 51
96.319951906917922
  0
ARC
  8
_0-1_レイヤ___3
  6
CONTINUOUS
 62
    7
 10
-3082.9458704185172
 20
10136.627503281728
 40
100.93010227786918
 50
32.639879823897374
 51
35.497874331272577
  0
ARC
  8
_0-1_レイヤ___3
  6
CONTINUOUS
 62
    7
 10
-3171.1795401263917
 20
10074.232056271177
 40
208.99619450303595
 50
35.378224803715909
 51
41.385800620308785
  0
ARC
  8
_0-1_レイヤ___3
  6
CONTINUOUS
 62
    7
 10
-3244.7204745690146
 20
10011.582808269704
 40
305.59542888809187
 50
41.082880850402226
 51
51.23889474534996
  0
ARC
  8
_0-1_レイヤ___3
  6
CONTINUOUS
 62
    7
 10
-3281.8186368357237
 20
9968.0573796324115
 40
362.76505117262764
 50
50.973928412872894
 51
71.355597008042196
  0
ARC
  8
_0-1_レイヤ___3
  6
CONTINUOUS
 62
    7
 10
-3303.7608034280352
 20
9912.73761203084
 40
422.20788163463277
 50
70.934190704602969
 51
84.015946594012817
  0
ARC
  8
_0-1_レイヤ___3
  6
CONTINUOUS
 62
    7
 10
-3314.4884313483644
 20
9838.1757922208526
 40
497.49021243478586
 50
83.682415811803978
 51
90.1228282103406
  0
ARC
  8
_0-1_レイヤ___3
  6
CONTINUOUS
 62
    7
 10
-6834.9576104027974
 20
10144.758611797955
 40
85.687131946339932
 50
144.22233369227075
 51
147.28839169837414
  0
ARC
  8
_0-1_レイヤ___3
  6
CONTINUOUS
 62
    7
 10
-6772.3665018165402
 20
10100.105046321711
 40
162.57352260626021
 50
139.79746805851795
 51
144.35142471935831
  0
ARC
  8
_0-1_レイヤ___3
  6
CONTINUOUS
 62
    7
 10
-6716.1446876625705
 20
10053.353651080004
 40
235.69226502681684
 50
128.64561282955955
 51
139.93931535075046
  0
ARC
  8
_0-1_レイヤ___3
  6
CONTINUOUS
 62
    7
 10
-6684.3717736842755
 20
10016.65063554152
 40
284.20673230090733
 50
110.99190648966825
 51
129.02750531113131
  0
ARC
  8
_0-1_レイヤ___3
  6
CONTINUOUS
 62
    7
 10
-6666.7549979676569
 20
9975.7474653034878
 40
328.71106488204566
 50
95.239897903240603
 51
111.30471079897622
  0
ARC
  8
_0-1_レイヤ___3
  6
CONTINUOUS
 62
    7
 10
-6657.2413299848804
 20
9909.5217699453515
 40
395.54368721071808
 50
89.900565237320635
 51
95.736139417888069
  0
ARC
  8
_0-1_レイヤ___3
  6
CONTINUOUS
 62
    7
 10
-6478.1521475972031
 20
10144.758611797977
 40
85.68713194632798
 50
32.711608301614113
 51
35.777666307717489
  0
ARC
  8
_0-1_レイヤ___3
  6
CONTINUOUS
 62
    7
 10
-6540.7432561834594
 20
10100.105046321711
 40
162.57352260626021
 50
35.648575280641708
 51
40.202531941482064
  0
ARC
  8
_0-1_レイヤ___3
  6
CONTINUOUS
 62
    7
 10
-6596.9650698374298
 20
10053.353656136811
 40
235.69226138958246
 50
40.060683786625717
 51
51.354386307816618
  0
ARC
  8
_0-1_レイヤ___3
  6
CONTINUOUS
 62
    7
 10
-6628.7379833157238
 20
10016.650635541526
 40
284.20673230090097
 50
50.972494688867947
 51
69.008093510331008
  0
ARC
  8
_0-1_レイヤ___3
  6
CONTINUOUS
 62
    7
 10
-6646.3547595323425
 20
9975.7474617603402
 40
328.71106836472558
 50
68.695289344213663
 51
84.760102239949276
  0
ARC
  8
_0-1_レイヤ___3
  6
CONTINUOUS
 62
    7
 10
-6655.8684275151199
 20
9909.5217797552341
 40
395.54367739998446
 50
84.263860512151453
 51
90.099434692718887
  0
ARC
  8
_0-1_レイヤ___3
  6
CONTINUOUS
 62
    7
 10
-6333.9576174028389
 20
10237.371115202044
 40
85.687131946304817
 50
212.71160830164183
 51
215.77766630774522
  0
ARC
  8
_0-1_レイヤ___3
  6
CONTINUOUS
 62
    7
 10
-6271.3665088165408
 20
10282.024680678278
 40
162.57352260625143
 50
215.64857528063774
 51
220.20253194147807
  0
ARC
  8
_0-1_レイヤ___3
  6
CONTINUOUS
 62
    7
 10
-6215.1446951625703
 20
10328.77607086319
 40
235.69226138958246
 50
220.0606837866257
 51
231.35438630781661
  0
ARC
  8
_0-1_レイヤ___3
  6
CONTINUOUS
 62
    7
 10
-6183.3717816842764
 20
10365.479091458477
 40
284.20673230090415
 50
230.9724946888683
 51
249.00809351033138
  0
ARC
  8
_0-1_レイヤ___3
  6
CONTINUOUS
 62
    7
 10
-6165.7550054676576
 20
10406.382265239659
 40
328.71106836472171
 50
248.69528934421351
 51
264.76010223994911
  0
ARC
  8
_0-1_レイヤ___3
  6
CONTINUOUS
 62
    7
 10
-6156.2413374848802
 20
10472.607947244769
 40
395.54367739998446
 50
264.26386051215144
 51
270.09943469271889
  0
ARC
  8
_0-1_レイヤ___3
  6
CONTINUOUS
 62
    7
 10
-5977.1521550971602
 20
10237.371096519395
 40
85.687121429300191
 50
324.22234402269203
 51
327.28840202879542
  0
ARC
  8
_0-1_レイヤ___3
  6
CONTINUOUS
 62
    7
 10
-6039.743263183459
 20
10282.024680678278
 40
162.57352260625143
 50
319.79746805852193
 51
324.35142471936229
  0
ARC
  8
_0-1_レイヤ___3
  6
CONTINUOUS
 62
    7
 10
-6095.9650773374287
 20
10328.776075920003
 40
235.69226502682088
 50
308.64561282955856
 51
319.9393153507495
  0
ARC
  8
_0-1_レイヤ___3
  6
CONTINUOUS
 62
    7
 10
-6127.7379913157238
 20
10365.479091458477
 40
284.20673230090415
 50
290.99190648966862
 51
309.02750531113168
  0
ARC
  8
_0-1_レイヤ___3
  6
CONTINUOUS
 62
    7
 10
-6145.3547670323424
 20
10406.382261696517
 40
328.71106488204964
 50
275.23989790324043
 51
291.30471079897609
  0
ARC
  8
_0-1_レイヤ___3
  6
CONTINUOUS
 62
    7
 10
-6154.8684350151198
 20
10472.60795705465
 40
395.54368721071808
 50
269.90056523732062
 51
275.73613941788807
  0
ARC
  8
_0-1_レイヤ___3
  6
CONTINUOUS
 62
    7
 10
-4562.8576439027975
 20
10144.758630480626
 40
85.687121429323383
 50
144.22234402271977
 51
147.28840202882316
  0
ARC
  8
_0-1_レイヤ___3
  6
CONTINUOUS
 62
    7
 10
-4500.2665358165405
 20
10100.105046321711
 40
162.57352260626021
 50
139.79746805851795
 51
144.35142471935831
  0
ARC
  8
_0-1_レイヤ___3
  6
CONTINUOUS
 62
    7
 10
-4444.0447216625707
 20
10053.353651079999
 40
235.69226502682088
 50
128.64561282955856
 51
139.93931535074947
  0
ARC
  8
_0-1_レイヤ___3
  6
CONTINUOUS
 62
    7
 10
-4412.2718076842757
 20
10016.650635541522
 40
284.20673230090415
 50
110.99190648966862
 51
129.0275053111317
  0
ARC
  8
_0-1_レイヤ___3
  6
CONTINUOUS
 62
    7
 10
-4394.6550319676571
 20
9975.747465303486
 40
328.71106488204964
 50
95.239897903240447
 51
111.30471079897607
  0
ARC
  8
_0-1_レイヤ___3
  6
CONTINUOUS
 62
    7
 10
-4385.1413639848806
 20
9909.5217699453642
 40
395.54368721070705
 50
89.90056523732072
 51
95.73613941788814
  0
ARC
  8
_0-1_レイヤ___3
  6
CONTINUOUS
 62
    7
 10
-4206.1892611875182
 20
10144.733370282671
 40
85.731971558135825
 50
32.712410299046745
 51
35.776864310284864
  0
ARC
  8
_0-1_レイヤ___3
  6
CONTINUOUS
 62
    7
 10
-4268.8078522340775
 20
10100.054739876003
 40
162.65530541513274
 50
35.649720744070684
 51
40.201386478045109
  0
ARC
  8
_0-1_レイヤ___3
  6
CONTINUOUS
 62
    7
 10
-4325.0235368896301
 20
10053.33922448892
 40
235.74627358302268
 50
40.05422816298821
 51
51.343586766425858
  0
ARC
  8
_0-1_レイヤ___3
  6
CONTINUOUS
 62
    7
 10
-4357.5478157618109
 20
10015.621078401622
 40
285.52275923749096
 50
50.974792361685537
 51
70.765150450440316
  0
ARC
  8
_0-1_レイヤ___3
  6
CONTINUOUS
 62
    7
 10
-4375.8269770371544
 20
9970.1725065434257
 40
334.4639357459223
 50
70.373519651520297
 51
85.910519893971738
  0
ARC
  8
_0-1_レイヤ___3
  6
CONTINUOUS
 62
    7
 10
-4383.9992004674614
 20
9903.8985793447791
 40
401.16654099226736
 50
85.421325868018101
 51
90.065086140256781
  0
ARC
  8
_0-1_レイヤ___3
  6
CONTINUOUS
 62
    7
 10
-4061.8622254001116
 20
10237.436075383321
 40
85.802528749285102
 50
212.71367058105758
 51
215.7756040283295
  0
ARC
  8
_0-1_レイヤ___3
  6
CONTINUOUS
 62
    7
 10
-3999.1870760191214
 20
10282.286544738772
 40
162.87201205520844
 50
215.68663731110288
 51
220.23440846731762
  0
ARC
  8
_0-1_レイヤ___3
  6
CONTINUOUS
 62
    7
 10
-3942.9175568337532
 20
10329.089688295313
 40
236.06034213028335
 50
220.0850184249372
 51
231.36454602664637
  0
ARC
  8
_0-1_レイヤ___3
  6
CONTINUOUS
 62
    7
 10
-3910.3895361090076
 20
10366.825234270487
 40
285.8521394627619
 50
230.99411895665307
 51
250.76855345956992
  0
ARC
  8
_0-1_レイヤ___3
  6
CONTINUOUS
 62
    7
 10
-3892.1624755039556
 20
10412.175246068236
 40
334.68285969358692
 50
250.37954526170159
 51
265.90970154733179
  0
ARC
  8
_0-1_レイヤ___3
  6
CONTINUOUS
 62
    7
 10
-3884.0090733106636
 20
10478.2707129091
 40
401.2061044525978
 50
265.42155495706544
 51
270.06485705120957
  0
ARC
  8
_0-1_レイヤ___3
  6
CONTINUOUS
 62
    7
 10
-3705.1521885971601
 20
10237.371115202024
 40
85.687131946292851
 50
324.22233369226649
 51
327.28839169836988
  0
ARC
  8
_0-1_レイヤ___3
  6
CONTINUOUS
 62
    7
 10
-3767.7432971834596
 20
10282.024680678292
 40
162.57352260626021
 50
319.79746805851795
 51
324.35142471935831
  0
ARC
  8
_0-1_レイヤ___3
  6
CONTINUOUS
 62
    7
 10
-3823.9651113374293
 20
10328.776075920003
 40
235.69226502682088
 50
308.64561282955856
 51
319.9393153507495
  0
ARC
  8
_0-1_レイヤ___3
  6
CONTINUOUS
 62
    7
 10
-3855.7380253157235
 20
10365.479091458477
 40
284.20673230090415
 50
290.99190648966862
 51
309.02750531113168
  0
ARC
  8
_0-1_レイヤ___3
  6
CONTINUOUS
 62
    7
 10
-3873.354801032342
 20
10406.382261696512
 40
328.71106488204566
 50
275.2398979032406
 51
291.3047107989762
  0
ARC
  8
_0-1_レイヤ___3
  6
CONTINUOUS
 62
    7
 10
-3882.8684690151194
 20
10472.60795705465
 40
395.54368721071808
 50
269.90056523732062
 51
275.73613941788807
  0
ARC
  8
_0-1_レイヤ___3
  6
CONTINUOUS
 62
    7
 10
-2290.8576774027965
 20
10144.758611797966
 40
85.687131946333949
 50
144.22233369227664
 51
147.28839169838002
  0
ARC
  8
_0-1_レイヤ___3
  6
CONTINUOUS
 62
    7
 10
-2228.2665688165407
 20
10100.105046321725
 40
162.57352260625143
 50
139.79746805852193
 51
144.35142471936226
  0
ARC
  8
_0-1_レイヤ___3
  6
CONTINUOUS
 62
    7
 10
-2172.0447551625703
 20
10053.353656136807
 40
235.69226138958453
 50
128.64561369218288
 51
139.93931621337379
  0
ARC
  8
_0-1_レイヤ___3
  6
CONTINUOUS
 62
    7
 10
-2140.2718416842758
 20
10016.650635541526
 40
284.20673230090256
 50
110.99190648966881
 51
129.02750531113188
  0
ARC
  8
_0-1_レイヤ___3
  6
CONTINUOUS
 62
    7
 10
-2122.6550654676571
 20
9975.747461760342
 40
328.71106836472364
 50
95.239897760050809
 51
111.30471065578642
  0
ARC
  8
_0-1_レイヤ___3
  6
CONTINUOUS
 62
    7
 10
-2113.1413974848801
 20
9909.5217797552341
 40
395.54367739998446
 50
89.900565307281127
 51
95.736139487848547
  0
ARC
  8
_0-1_レイヤ___3
  6
CONTINUOUS
 62
    7
 10
-1934.0522155972035
 20
10144.758611797955
 40
85.687131946339932
 50
32.711608301625859
 51
35.777666307729241
  0
ARC
  8
_0-1_レイヤ___3
  6
CONTINUOUS
 62
    7
 10
-1996.6433241834598
 20
10100.105046321725
 40
162.57352260625143
 50
35.648575280637729
 51
40.202531941478085
  0
ARC
  8
_0-1_レイヤ___3
  6
CONTINUOUS
 62
    7
 10
-2052.8651378374298
 20
10053.353656136811
 40
235.69226138958246
 50
40.060683786625717
 51
51.354386307816618
  0
ARC
  8
_0-1_レイヤ___3
  6
CONTINUOUS
 62
    7
 10
-2084.6380513157237
 20
10016.650635541526
 40
284.20673230090256
 50
50.972494688868125
 51
69.008093510331193
  0
ARC
  8
_0-1_レイヤ___3
  6
CONTINUOUS
 62
    7
 10
-2102.2548275323425
 20
9975.747461760342
 40
328.71106836472364
 50
68.695289344213577
 51
84.760102239949205
  0
ARC
  8
_0-1_レイヤ___3
  6
CONTINUOUS
 62
    7
 10
-2111.7684955151199
 20
9909.5217797552286
 40
395.54367739998997
 50
84.263860512151496
 51
90.09943469271893
  0
ARC
  8
_0-1_レイヤ___3
  6
CONTINUOUS
 62
    7
 10
-1789.8576854028386
 20
10237.371115202044
 40
85.687131946304817
 50
212.71160830164183
 51
215.77766630774522
  0
ARC
  8
_0-1_レイヤ___3
  6
CONTINUOUS
 62
    7
 10
-1727.2665768165405
 20
10282.024680678269
 40
162.57352260624702
 50
215.64857528063575
 51
220.20253194147608
  0
ARC
  8
_0-1_レイヤ___3
  6
CONTINUOUS
 62
    7
 10
-1671.0447626625705
 20
10328.776075920005
 40
235.69226502682301
 50
220.06068464925102
 51
231.35438717044192
  0
ARC
  8
_0-1_レイヤ___3
  6
CONTINUOUS
 62
    7
 10
-1639.2718491842761
 20
10365.479088307937
 40
284.20672953857877
 50
230.9724943672266
 51
249.00809318868966
  0
ARC
  8
_0-1_レイヤ___3
  6
CONTINUOUS
 62
    7
 10
-1621.6550734676571
 20
10406.382265239659
 40
328.71106836472364
 50
248.69528934421356
 51
264.76010223994922
  0
ARC
  8
_0-1_レイヤ___3
  6
CONTINUOUS
 62
    7
 10
-1612.1414054848799
 20
10472.607947244769
 40
395.54367739998446
 50
264.26386051215144
 51
270.09943469271889
  0
ARC
  8
_0-1_レイヤ___3
  6
CONTINUOUS
 62
    7
 10
-1433.0522225971606
 20
10237.371115202033
 40
85.68713194629882
 50
324.22233369226063
 51
327.28839169836402
  0
ARC
  8
_0-1_レイヤ___3
  6
CONTINUOUS
 62
    7
 10
-1495.6433311834594
 20
10282.024680678278
 40
162.57352260625143
 50
319.79746805852193
 51
324.35142471936229
  0
ARC
  8
_0-1_レイヤ___3
  6
CONTINUOUS
 62
    7
 10
-1551.8651453374298
 20
10328.77607592001
 40
235.69226502682505
 50
308.64561282955759
 51
319.93931535074847
  0
ARC
  8
_0-1_レイヤ___3
  6
CONTINUOUS
 62
    7
 10
-1583.6380588157244
 20
10365.479088307933
 40
284.20672953857724
 50
290.99190681131051
 51
309.02750563277357
  0
ARC
  8
_0-1_レイヤ___3
  6
CONTINUOUS
 62
    7
 10
-1601.2548345323426
 20
10406.382265239659
 40
328.71106836472171
 50
275.23989776005089
 51
291.30471065578649
  0
ARC
  8
_0-1_レイヤ___3
  6
CONTINUOUS
 62
    7
 10
-1610.7685030151197
 20
10472.60795705465
 40
395.54368721071808
 50
269.90056523732062
 51
275.73613941788807
  0
ARC
  8
_0-1_レイヤ___3
  6
CONTINUOUS
 62
    7
 10
-640.93049659558972
 20
10245.524901377827
 40
100.9705718426374
 50
212.64045269264682
 51
215.49730146255212
  0
ARC
  8
_0-1_レイヤ___3
  6
CONTINUOUS
 62
    7
 10
-552.66785194392128
 20
10307.947182752345
 40
209.0758271115559
 50
215.37936993240547
 51
221.38465549162268
  0
ARC
  8
_0-1_レイヤ___3
  6
CONTINUOUS
 62
    7
 10
-479.13235423571393
 20
10370.555274237853
 40
305.6439400285019
 50
221.07703081915608
 51
231.23007117872271
  0
ARC
  8
_0-1_レイヤ___3
  6
CONTINUOUS
 62
    7
 10
-442.10252755693944
 20
10414.013849938307
 40
362.7188131343749
 50
230.96826502924114
 51
251.34834199623455
  0
ARC
  8
_0-1_レイヤ___3
  6
CONTINUOUS
 62
    7
 10
-420.23152458832328
 20
10469.11676633332
 40
421.93378118613771
 50
250.92742234098728
 51
264.01237634896836
  0
ARC
  8
_0-1_レイヤ___3
  6
CONTINUOUS
 62
    7
 10
-409.52198446129643
 20
10543.581950562448
 40
497.11823018035136
 50
263.68004814851218
 51
270.12297957024816
  0
ARC
  8
_0-1_レイヤ___3
  6
CONTINUOUS
 62
    7
 10
-175.84591341847215
 20
10245.502223718271
 40
100.93010227783145
 50
324.50212566871295
 51
327.36012017608812
  0
ARC
  8
_0-1_レイヤ___3
  6
CONTINUOUS
 62
    7
 10
-264.07958312639153
 20
10307.897670728826
 40
208.9961945030376
 50
318.6141993796906
 51
324.62177519628352
  0
ARC
  8
_0-1_レイヤ___3
  6
CONTINUOUS
 62
    7
 10
-337.62051756901485
 20
10370.546918730302
 40
305.59542888809415
 50
308.76110525464964
 51
318.91711914959734
  0
ARC
  8
_0-1_レイヤ___3
  6
CONTINUOUS
 62
    7
 10
-374.71868033572463
 20
10414.072350149027
 40
362.76505364824902
 50
288.6444027766882
 51
309.02607137185748
  0
ARC
  8
_0-1_レイヤ___3
  6
CONTINUOUS
 62
    7
 10
-396.6608469280348
 20
10469.392110608376
 40
422.20787734973584
 50
275.98405353516426
 51
289.06580942457413
  0
ARC
  8
_0-1_レイヤ___3
  6
CONTINUOUS
 62
    7
 10
-407.38847434836458
 20
10543.953934779156
 40
497.49021243479353
 50
269.87717178965937
 51
276.31758418819595
  0
ARC
  8
_0-1_レイヤ___3
  6
CONTINUOUS
 62
    7
 10
-1276.0226190732164
 20
10136.86405511169
 40
100.7533113132661
 50
144.59559624777009
 51
147.4554239348
  0
ARC
  8
_0-1_レイヤ___3
  6
CONTINUOUS
 62
    7
 10
-1187.8515067695196
 20
10074.411363475117
 40
208.80176608438217
 50
138.63276352575733
 51
144.64423277713425
  0
ARC
  8
_0-1_レイヤ___3
  6
CONTINUOUS
 62
    7
 10
-1114.3625214196113
 20
10011.8442922704
 40
305.30820552446175
 50
128.77234981341056
 51
138.93522570002384
  0
ARC
  8
_0-1_レイヤ___3
  6
CONTINUOUS
 62
    7
 10
-1077.2630257264518
 20
9968.3715807244535
 40
362.43800051855146
 50
108.64653596687239
 51
129.04116488951158
  0
ARC
  8
_0-1_レイヤ___3
  6
CONTINUOUS
 62
    7
 10
-1055.2727247403093
 20
9912.976211014502
 40
421.96811857703125
 50
95.984238880830361
 51
109.07079194618402
  0
ARC
  8
_0-1_レイヤ___3
  6
CONTINUOUS
 62
    7
 10
-1044.5243282788269
 20
9838.2288048303435
 40
497.43720610568312
 50
89.876828286418601
 51
96.317927691436694
  0
ARC
  8
_0-1_レイヤ___3
  6
CONTINUOUS
 62
    7
 10
-810.8873059267836
 20
10136.864055111695
 40
100.75331131326293
 50
32.544576065197333
 51
35.404403752227225
  0
ARC
  8
_0-1_レイヤ___3
  6
CONTINUOUS
 62
    7
 10
-899.05841773048019
 20
10074.411372997445
 40
208.80176016648454
 50
35.355765171199238
 51
41.367234422576153
  0
ARC
  8
_0-1_レイヤ___3
  6
CONTINUOUS
 62
    7
 10
-972.5474030803889
 20
10011.84428664744
 40
305.30820959523527
 50
41.064775033949324
 51
51.22765092056261
  0
ARC
  8
_0-1_レイヤ___3
  6
CONTINUOUS
 62
    7
 10
-1009.6468992735483
 20
9968.3715807244535
 40
362.43800051855209
 50
50.958835110488486
 51
71.353464033127693
  0
ARC
  8
_0-1_レイヤ___3
  6
CONTINUOUS
 62
    7
 10
-1031.6372002596906
 20
9912.9762110145039
 40
421.96811857702994
 50
70.929208053815955
 51
84.015761119169611
  0
ARC
  8
_0-1_レイヤ___3
  6
CONTINUOUS
 62
    7
 10
-1042.385596721173
 20
9838.2288048303435
 40
497.43720610568312
 50
83.682072308563306
 51
90.123171713581399
  0
ARC
  8
_0-1_レイヤ___3
  6
CONTINUOUS
 62
    7
 10
-18.757711402796531
 20
10144.758611797961
 40
85.687131946336947
 50
144.22233369227371
 51
147.2883916983771
  0
ARC
  8
_0-1_レイヤ___3
  6
CONTINUOUS
 62
    7
 10
43.83339718345951
 20
10100.105046321722
 40
162.57352260625362
 50
139.79746805852093
 51
144.35142471936129
  0
ARC
  8
_0-1_レイヤ___3
  6
CONTINUOUS
 62
    7
 10
100.05521083742991
 20
10053.353656136809
 40
235.69226138958345
 50
128.64561369218313
 51
139.93931621337404
  0
ARC
  8
_0-1_レイヤ___3
  6
CONTINUOUS
 62
    7
 10
131.82812431572415
 20
10016.650635541526
 40
284.20673230090256
 50
110.99190648966881
 51
129.02750531113188
  0
ARC
  8
_0-1_レイヤ___3
  6
CONTINUOUS
 62
    7
 10
149.4449005323429
 20
9975.7474617603439
 40
328.71106836472256
 50
95.239897760050852
 51
111.30471065578647
  0
ARC
  8
_0-1_レイヤ___3
  6
CONTINUOUS
 62
    7
 10
158.95856851511979
 20
9909.5217797552305
 40
395.54367739998719
 50
89.900565307281099
 51
95.736139487848533
  0
ARC
  8
_0-1_レイヤ___3
  6
CONTINUOUS
 62
    7
 10
337.95232440006856
 20
10144.693651616688
 40
85.802528749315769
 50
32.713670581037185
 51
35.77560402830909
  0
ARC
  8
_0-1_レイヤ___3
  6
CONTINUOUS
 62
    7
 10
275.27717551912218
 20
10099.843194853276
 40
162.87200430350629
 50
35.686633815836018
 51
40.234404972050754
  0
ARC
  8
_0-1_レイヤ___3
  6
CONTINUOUS
 62
    7
 10
219.00765633375315
 20
10053.040033641475
 40
236.0603457731514
 50
40.085019287030654
 51
51.364546888739845
  0
ARC
  8
_0-1_レイヤ___3
  6
CONTINUOUS
 62
    7
 10
186.47963510900809
 20
10015.304492729518
 40
285.85213946276093
 50
50.994118956652962
 51
70.768553459569802
  0
ARC
  8
_0-1_レイヤ___3
  6
CONTINUOUS
 62
    7
 10
168.25257500395566
 20
9969.954484598471
 40
334.68285607188528
 50
70.379545131548312
 51
85.909701417178496
  0
ARC
  8
_0-1_レイヤ___3
  6
CONTINUOUS
 62
    7
 10
160.0991728106635
 20
9903.859001758221
 40
401.20611678583725
 50
85.421555026476128
 51
90.064857120620218
  0
ARC
  8
_0-1_レイヤ___3
  6
CONTINUOUS
 62
    7
 10
482.27936018747573
 20
10237.396356717345
 40
85.731971558109663
 50
212.71241029907154
 51
215.77686431030966
  0
ARC
  8
_0-1_レイヤ___3
  6
CONTINUOUS
 62
    7
 10
544.89795123407805
 20
10282.074987124
 40
162.65530541513496
 50
215.64972074407166
 51
220.20138647804609
  0
ARC
  8
_0-1_レイヤ___3
  6
CONTINUOUS
 62
    7
 10
601.11363638963041
 20
10328.790507569851
 40
235.74627722112217
 50
220.05422902587941
 51
231.34358762931706
  0
ARC
  8
_0-1_レイヤ___3
  6
CONTINUOUS
 62
    7
 10
633.63791526181126
 20
10366.508645732083
 40
285.52275669592325
 50
230.9747920774642
 51
250.76515016621897
  0
ARC
  8
_0-1_レイヤ___3
  6
CONTINUOUS
 62
    7
 10
651.91707603715417
 20
10411.957220456574
 40
334.46393574591974
 50
250.37351965152021
 51
265.91051989397164
  0
ARC
  8
_0-1_レイヤ___3
  6
CONTINUOUS
 62
    7
 10
660.08929996746156
 20
10478.231159986703
 40
401.16655332430651
 50
265.42132593742883
 51
270.06508620966753
  0
ARC
  8
_0-1_レイヤ___3
  6
CONTINUOUS
 62
    7
 10
838.94774340283914
 20
10237.371115202037
 40
85.687131946301065
 50
324.22233369225842
 51
327.28839169836181
  0
ARC
  8
_0-1_レイヤ___3
  6
CONTINUOUS
 62
    7
 10
776.3566348165408
 20
10282.024680678278
 40
162.57352260625197
 50
319.79746805852164
 51
324.351424719362
  0
ARC
  8
_0-1_レイヤ___3
  6
CONTINUOUS
 62
    7
 10
720.13482116257035
 20
10328.77607086319
 40
235.69226138958373
 50
308.64561369218308
 51
319.93931621337396
  0
ARC
  8
_0-1_レイヤ___3
  6
CONTINUOUS
 62
    7
 10
688.36190768427605
 20
10365.479091458476
 40
284.20673230090233
 50
290.99190648966885
 51
309.0275053111319
  0
ARC
  8
_0-1_レイヤ___3
  6
CONTINUOUS
 62
    7
 10
670.7451314676573
 20
10406.382265239659
 40
328.71106836472325
 50
275.23989776005084
 51
291.30471065578644
  0
ARC
  8
_0-1_レイヤ___3
  6
CONTINUOUS
 62
    7
 10
661.23146348488046
 20
10472.607947244771
 40
395.54367739998719
 50
269.90056530728111
 51
275.7361394878485
  0
ARC
  8
_0-1_レイヤ___3
  6
CONTINUOUS
 62
    7
 10
1631.0773369267383
 20
10245.265671888308
 40
100.75331131322702
 50
212.54457606521339
 51
215.4044037522433
  0
ARC
  8
_0-1_レイヤ___3
  6
CONTINUOUS
 62
    7
 10
1719.2484492304802
 20
10307.718363524884
 40
208.80176608438285
 50
215.35576722286598
 51
221.3672364742429
  0
ARC
  8
_0-1_レイヤ___3
  6
CONTINUOUS
 62
    7
 10
1792.7374350803889
 20
10370.285440352563
 40
305.30820959523629
 50
221.06477503394947
 51
231.22765092056275
  0
ARC
  8
_0-1_レイヤ___3
  6
CONTINUOUS
 62
    7
 10
1829.8369312735485
 20
10413.75814627555
 40
362.43800051855175
 50
230.95883511048842
 51
251.35346403312764
  0
ARC
  8
_0-1_レイヤ___3
  6
CONTINUOUS
 62
    7
 10
1851.8272322596908
 20
10469.153515985499
 40
421.96811857703062
 50
250.92920805381596
 51
264.01576111916961
  0
ARC
  8
_0-1_レイヤ___3
  6
CONTINUOUS
 62
    7
 10
1862.5756287211732
 20
10543.90092216966
 40
497.43720610568437
 50
263.68207230856331
 51
270.12317171358143
  0
ARC
  8
_0-1_レイヤ___3
  6
CONTINUOUS
 62
    7
 10
2096.2126510732619
 20
10245.26567188831
 40
100.75331131322829
 50
324.59559624775562
 51
327.45542393478553
  0
ARC
  8
_0-1_レイヤ___3
  6
CONTINUOUS
 62
    7
 10
2008.0415387695198
 20
10307.718363524888
 40
208.8017660843839
 50
318.63276352575673
 51
324.64423277713365
  0
ARC
  8
_0-1_レイヤ___3
  6
CONTINUOUS
 62
    7
 10
1934.5525534196111
 20
10370.285434729602
 40
305.30820552446175
 50
308.77234981341053
 51
318.93522570002381
  0
ARC
  8
_0-1_レイヤ___3
  6
CONTINUOUS
 62
    7
 10
1897.4530572264518
 20
10413.758149055178
 40
362.43800299241167
 50
288.64653575148515
 51
309.04116467412439
  0
ARC
  8
_0-1_レイヤ___3
  6
CONTINUOUS
 62
    7
 10
1875.4627562403095
 20
10469.153511626333
 40
421.96811429374577
 50
275.9842390100597
 51
289.07079207541335
  0
ARC
  8
_0-1_レイヤ___3
  6
CONTINUOUS
 62
    7
 10
1864.7143602788269
 20
10543.900922169654
 40
497.43720610568181
 50
269.87682828641857
 51
276.31792769143669
  0
ARC
  8
_0-1_レイヤ___3
  6
CONTINUOUS
 62
    7
 10
996.0359454185176
 20
10136.627503281727
 40
100.93010227787077
 50
144.50212566872608
 51
147.3601201761013
  0
ARC
  8
_0-1_レイヤ___3
  6
CONTINUOUS
 62
    7
 10
1084.269615126392
 20
10074.232056271174
 40
208.99619450303848
 50
138.61419937969035
 51
144.62177519628324
  0
ARC
  8
_0-1_レイヤ___3
  6
CONTINUOUS
 62
    7
 10
1157.8105495690149
 20
10011.582808269703
 40
305.59542888809329
 50
128.76110525464975
 51
138.91711914959751
  0
ARC
  8
_0-1_レイヤ___3
  6
CONTINUOUS
 62
    7
 10
1194.9087118357247
 20
9968.0573796324115
 40
362.76505117262718
 50
108.64440299195788
 51
129.02607158712718
  0
ARC
  8
_0-1_レイヤ___3
  6
CONTINUOUS
 62
    7
 10
1216.8508784280348
 20
9912.7376120308472
 40
422.20788163462692
 50
95.984053405987382
 51
109.06580929539723
  0
ARC
  8
_0-1_レイヤ___3
  6
CONTINUOUS
 62
    7
 10
1227.5785063483647
 20
9838.1757922208417
 40
497.49021243479706
 50
89.877171789659343
 51
96.317584188195951
  0
ARC
  8
_0-1_レイヤ___3
  6
CONTINUOUS
 62
    7
 10
1461.1205275955444
 20
10136.604825622167
 40
100.97057184267894
 50
32.640452692635513
 51
35.497301462540811
  0
ARC
  8
_0-1_レイヤ___3
  6
CONTINUOUS
 62
    7
 10
1372.8578834439213
 20
10074.182553779814
 40
209.07582118488511
 50
35.379367881899604
 51
41.384653441116832
  0
ARC
  8
_0-1_レイヤ___3
  6
CONTINUOUS
 62
    7
 10
1299.3223857357139
 20
10011.574447133708
 40
305.64394410371193
 50
41.077031552933882
 51
51.230071912500513
  0
ARC
  8
_0-1_レイヤ___3
  6
CONTINUOUS
 62
    7
 10
1262.2925590569398
 20
9968.1158798433516
 40
362.71881065871497
 50
50.968264813883259
 51
71.34834178087668
  0
ARC
  8
_0-1_レイヤ___3
  6
CONTINUOUS
 62
    7
 10
1240.4215560883235
 20
9913.0129563069768
 40
421.93378546990107
 50
70.92742247026915
 51
84.012376478250204
  0
ARC
  8
_0-1_レイヤ___3
  6
CONTINUOUS
 62
    7
 10
1229.7120159612969
 20
9838.5477853209923
 40
497.11822129585903
 50
83.680048093082036
 51
90.122979514817999
  0
ARC
  8
_0-1_レイヤ___3
  6
CONTINUOUS
 62
    7
 10
2253.2422545972036
 20
10144.758611797966
 40
85.687131946333949
 50
144.22233369227664
 51
147.28839169838002
  0
ARC
  8
_0-1_レイヤ___3
  6
CONTINUOUS
 62
    7
 10
2315.8333631834594
 20
10100.105046321722
 40
162.57352260625362
 50
139.79746805852093
 51
144.35142471936129
  0
ARC
  8
_0-1_レイヤ___3
  6
CONTINUOUS
 62
    7
 10
2372.0551768374298
 20
10053.353656136809
 40
235.69226138958345
 50
128.64561369218313
 51
139.93931621337404
  0
ARC
  8
_0-1_レイヤ___3
  6
CONTINUOUS
 62
    7
 10
2403.8280903157242
 20
10016.650635541526
 40
284.20673230090256
 50
110.99190648966881
 51
129.02750531113188
  0
ARC
  8
_0-1_レイヤ___3
  6
CONTINUOUS
 62
    7
 10
2421.444866532343
 20
9975.747461760342
 40
328.71106836472364
 50
95.239897760050809
 51
111.30471065578642
  0
ARC
  8
_0-1_レイヤ___3
  6
CONTINUOUS
 62
    7
 10
2430.9585345151199
 20
9909.5217797552323
 40
395.54367739998577
 50
89.900565307281113
 51
95.736139487848533
  0
ARC
  8
_0-1_レイヤ___3
  6
CONTINUOUS
 62
    7
 10
2610.0477174027969
 20
10144.758611797966
 40
85.687131946333949
 50
32.711608301619982
 51
35.777666307723365
  0
ARC
  8
_0-1_レイヤ___3
  6
CONTINUOUS
 62
    7
 10
2547.4566088165411
 20
10100.105046321722
 40
162.57352260625362
 50
35.648575280638724
 51
40.202531941479087
  0
ARC
  8
_0-1_レイヤ___3
  6
CONTINUOUS
 62
    7
 10
2491.2347946625705
 20
10053.353651079997
 40
235.69226502682244
 50
40.060684649250895
 51
51.354387170441797
  0
ARC
  8
_0-1_レイヤ___3
  6
CONTINUOUS
 62
    7
 10
2459.4618806842759
 20
10016.650635541524
 40
284.20673230090301
 50
50.972494688868174
 51
69.00809351033125
  0
ARC
  8
_0-1_レイヤ___3
  6
CONTINUOUS
 62
    7
 10
2441.8451049676569
 20
9975.7474653034842
 40
328.71106488205066
 50
68.695289201023982
 51
84.760102096759596
  0
ARC
  8
_0-1_レイヤ___3
  6
CONTINUOUS
 62
    7
 10
2432.3314369848804
 20
9909.5217699453588
 40
395.5436872107112
 50
84.263860582111889
 51
90.099434762679323
  0
ARC
  8
_0-1_レイヤ___3
  6
CONTINUOUS
 62
    7
 10
2754.242247097161
 20
10237.371096519384
 40
85.687121429294223
 50
212.7115979711987
 51
215.77765597730209
  0
ARC
  8
_0-1_レイヤ___3
  6
CONTINUOUS
 62
    7
 10
2816.8333551834594
 20
10282.024680678278
 40
162.57352260625251
 50
215.64857528063823
 51
220.20253194147855
  0
ARC
  8
_0-1_レイヤ___3
  6
CONTINUOUS
 62
    7
 10
2873.05516933743
 20
10328.776075920005
 40
235.69226502682244
 50
220.06068464925087
 51
231.35438717044178
  0
ARC
  8
_0-1_レイヤ___3
  6
CONTINUOUS
 62
    7
 10
2904.8280833157241
 20
10365.479091458477
 40
284.20673230090335
 50
230.97249468886821
 51
249.00809351033129
  0
ARC
  8
_0-1_レイヤ___3
  6
CONTINUOUS
 62
    7
 10
2922.4448590323432
 20
10406.382261696517
 40
328.71106488204964
 50
248.69528920102391
 51
264.76010209675957
  0
ARC
  8
_0-1_レイヤ___3
  6
CONTINUOUS
 62
    7
 10
2931.9585270151197
 20
10472.607957054643
 40
395.54368721071256
 50
264.26386058211187
 51
270.09943476267932
  0
ARC
  8
_0-1_レイヤ___3
  6
CONTINUOUS
 62
    7
 10
3111.0477094028392
 20
10237.371115202039
 40
85.687131946301804
 50
324.22233369225773
 51
327.28839169836107
  0
ARC
  8
_0-1_レイヤ___3
  6
CONTINUOUS
 62
    7
 10
3048.4566008165402
 20
10282.024680678278
 40
162.57352260625143
 50
319.79746805852193
 51
324.35142471936229
  0
ARC
  8
_0-1_レイヤ___3
  6
CONTINUOUS
 62
    7
 10
2992.2347871625702
 20
10328.77607086319
 40
235.69226138958345
 50
308.64561369218313
 51
319.93931621337401
  0
ARC
  8
_0-1_レイヤ___3
  6
CONTINUOUS
 62
    7
 10
2960.4618736842758
 20
10365.479091458477
 40
284.20673230090335
 50
290.99190648966874
 51
309.02750531113179
  0
ARC
  8
_0-1_レイヤ___3
  6
CONTINUOUS
 62
    7
 10
2942.8450974676571
 20
10406.382265239659
 40
328.71106836472256
 50
275.23989776005084
 51
291.30471065578644
  0
ARC
  8
_0-1_レイヤ___3
  6
CONTINUOUS
 62
    7
 10
2933.3314294848797
 20
10472.607947244771
 40
395.54367739998719
 50
269.90056530728111
 51
275.7361394878485
  0
ARC
  8
_0-1_レイヤ___3
  6
CONTINUOUS
 62
    7
 10
3903.1359024184721
 20
10245.502223718282
 40
100.9301022778378
 50
212.6398798239172
 51
215.49787433129242
  0
ARC
  8
_0-1_レイヤ___3
  6
CONTINUOUS
 62
    7
 10
3991.3695716263919
 20
10307.897661200306
 40
208.99618857862353
 50
215.37822275321037
 51
221.38579856980323
  0
ARC
  8
_0-1_レイヤ___3
  6
CONTINUOUS
 62
    7
 10
4064.9105060690144
 20
10370.546924357084
 40
305.59543296261558
 50
221.08288158398486
 51
231.23889547893262
  0
ARC
  8
_0-1_レイヤ___3
  6
CONTINUOUS
 62
    7
 10
4102.0086688357251
 20
10414.07234736759
 40
362.76505117262622
 50
230.97392841287277
 51
251.35559700804205
  0
ARC
  8
_0-1_レイヤ___3
  6
CONTINUOUS
 62
    7
 10
4123.9508354280351
 20
10469.392114969156
 40
422.20788163462777
 50
250.93419070460283
 51
264.01594659401269
  0
ARC
  8
_0-1_レイヤ___3
  6
CONTINUOUS
 62
    7
 10
4134.6784633483649
 20
10543.953934779158
 40
497.49021243479604
 50
263.68241581180405
 51
270.12282821034069
  0
ARC
  8
_0-1_レイヤ___3
  6
CONTINUOUS
 62
    7
 10
4368.2204845955894
 20
10245.524901377848
 40
100.97057184265014
 50
324.50269853743714
 51
327.35954730734244
  0
ARC
  8
_0-1_レイヤ___3
  6
CONTINUOUS
 62
    7
 10
4279.9578399439215
 20
10307.947182752338
 40
209.07582711155086
 50
318.61534450837905
 51
324.62063006759627
  0
ARC
  8
_0-1_レイヤ___3
  6
CONTINUOUS
 62
    7
 10
4206.4223422357136
 20
10370.555274237853
 40
305.6439400285019
 50
308.76992882127729
 51
318.92296918084389
  0
ARC
  8
_0-1_レイヤ___3
  6
CONTINUOUS
 62
    7
 10
4169.3925160569397
 20
10414.01384715665
 40
362.71881065871611
 50
288.65165821912319
 51
309.03173518611663
  0
ARC
  8
_0-1_レイヤ___3
  6
CONTINUOUS
 62
    7
 10
4147.5215130883234
 20
10469.116770693026
 40
421.93378546990107
 50
275.98762352174981
 51
289.07257752973084
  0
ARC
  8
_0-1_レイヤ___3
  6
CONTINUOUS
 62
    7
 10
4136.8119729612963
 20
10543.581941679005
 40
497.11822129585721
 50
269.87702048518202
 51
276.31995190691799
  0
ARC
  8
_0-1_レイヤ___3
  6
CONTINUOUS
 62
    7
 10
3268.0773129267836
 20
10136.864055111695
 40
100.75331131326293
 50
144.59559624777279
 51
147.4554239348027
  0
ARC
  8
_0-1_レイヤ___3
  6
CONTINUOUS
 62
    7
 10
3356.2484252304803
 20
10074.411363475112
 40
208.80176608438552
 50
138.63276352575616
 51
144.64423277713306
  0
ARC
  8
_0-1_レイヤ___3
  6
CONTINUOUS
 62
    7
 10
3429.7374105803892
 20
10011.8442922704
 40
305.30820552446175
 50
128.77234981341056
 51
138.93522570002384
  0
ARC
  8
_0-1_レイヤ___3
  6
CONTINUOUS
 62
    7
 10
3466.8369067735489
 20
9968.371577944823
 40
362.43800299241201
 50
108.64653575148515
 51
129.04116467412436
  0
ARC
  8
_0-1_レイヤ___3
  6
CONTINUOUS
 62
    7
 10
3488.8272077596912
 20
9912.9762153736719
 40
421.96811429374492
 50
95.984239010059753
 51
109.07079207541342
  0
ARC
  8
_0-1_レイヤ___3
  6
CONTINUOUS
 62
    7
 10
3499.5756037211731
 20
9838.2288048303435
 40
497.43720610568312
 50
89.876828286418601
 51
96.317927691436694
  0
ARC
  8
_0-1_レイヤ___3
  6
CONTINUOUS
 62
    7
 10
3733.2126270732165
 20
10136.864055111695
 40
100.75331131326293
 50
32.544576065197333
 51
35.404403752227225
  0
ARC
  8
_0-1_レイヤ___3
  6
CONTINUOUS
 62
    7
 10
3645.0415147695194
 20
10074.411363475116
 40
208.8017660843839
 50
35.355767222866348
 51
41.367236474243263
  0
ARC
  8
_0-1_レイヤ___3
  6
CONTINUOUS
 62
    7
 10
3571.5525289196112
 20
10011.844286647438
 40
305.30820959523646
 50
41.064775033949537
 51
51.227650920562823
  0
ARC
  8
_0-1_レイヤ___3
  6
CONTINUOUS
 62
    7
 10
3534.4530327264515
 20
9968.3715807244535
 40
362.43800051855209
 50
50.958835110488486
 51
71.353464033127693
  0
ARC
  8
_0-1_レイヤ___3
  6
CONTINUOUS
 62
    7
 10
3512.4627317403092
 20
9912.9762110145057
 40
421.96811857702875
 50
70.929208053815913
 51
84.015761119169582
  0
ARC
  8
_0-1_レイヤ___3
  6
CONTINUOUS
 62
    7
 10
3501.7143352788275
 20
9838.2288048303417
 40
497.43720610568568
 50
83.682072308563335
 51
90.123171713581428
  0
ARC
  8
_0-1_レイヤ___3
  6
CONTINUOUS
 62
    7
 10
4525.3422205972038
 20
10144.758611797966
 40
85.687131946333949
 50
144.22233369227664
 51
147.28839169838002
  0
ARC
  8
_0-1_レイヤ___3
  6
CONTINUOUS
 62
    7
 10
4587.9333291834591
 20
10100.105046321731
 40
162.57352260624702
 50
139.79746805852392
 51
144.35142471936425
  0
ARC
  8
_0-1_レイヤ___3
  6
CONTINUOUS
 62
    7
 10
4644.1551428374296
 20
10053.353656136806
 40
235.69226138958658
 50
128.64561369218239
 51
139.9393162133733
  0
ARC
  8
_0-1_レイヤ___3
  6
CONTINUOUS
 62
    7
 10
4675.9280563157245
 20
10016.650635541526
 40
284.20673230090256
 50
110.99190648966881
 51
129.02750531113188
  0
ARC
  8
_0-1_レイヤ___3
  6
CONTINUOUS
 62
    7
 10
4693.5448325323432
 20
9975.7474617603439
 40
328.71106836472171
 50
95.23989776005088
 51
111.30471065578651
  0
ARC
  8
_0-1_レイヤ___3
  6
CONTINUOUS
 62
    7
 10
4703.0585005151197
 20
9909.5217797552341
 40
395.54367739998446
 50
89.900565307281127
 51
95.736139487848547
  0
ARC
  8
_0-1_レイヤ___3
  6
CONTINUOUS
 62
    7
 10
4882.0522574000679
 20
10144.69365161669
 40
85.802528749314291
 50
32.713670581035714
 51
35.775604028307619
  0
ARC
  8
_0-1_レイヤ___3
  6
CONTINUOUS
 62
    7
 10
4819.3771080191218
 20
10099.843182261238
 40
162.87201205520404
 50
35.686637311100895
 51
40.234408467315632
  0
ARC
  8
_0-1_レイヤ___3
  6
CONTINUOUS
 62
    7
 10
4763.1075883337526
 20
10053.040033641475
 40
236.0603457731514
 50
40.085019287030654
 51
51.364546888739845
  0
ARC
  8
_0-1_レイヤ___3
  6
CONTINUOUS
 62
    7
 10
4730.5795676090074
 20
10015.304495598168
 40
285.85213691888589
 50
50.994118672633938
 51
70.768553175550778
  0
ARC
  8
_0-1_レイヤ___3
  6
CONTINUOUS
 62
    7
 10
4712.3525075039561
 20
9969.9544809317631
 40
334.68285969358885
 50
70.379545261701679
 51
85.909701547331878
  0
ARC
  8
_0-1_レイヤ___3
  6
CONTINUOUS
 62
    7
 10
4704.1991048106629
 20
9903.8590017582137
 40
401.2061167858443
 50
85.42155502647617
 51
90.06485712062026
  0
ARC
  8
_0-1_レイヤ___3
  6
CONTINUOUS
 62
    7
 10
5026.3422135971605
 20
10237.371115202033
 40
85.68713194629882
 50
212.71160830163598
 51
215.77766630773934
  0
ARC
  8
_0-1_レイヤ___3
  6
CONTINUOUS
 62
    7
 10
5088.9333216834584
 20
10282.024668103368
 40
162.57351487113877
 50
215.6485717820467
 51
220.20252844288706
  0
ARC
  8
_0-1_レイヤ___3
  6
CONTINUOUS
 62
    7
 10
5145.1551353374289
 20
10328.776075920005
 40
235.69226502682301
 50
220.06068464925102
 51
231.35438717044192
  0
ARC
  8
_0-1_レイヤ___3
  6
CONTINUOUS
 62
    7
 10
5176.9280493157239
 20
10365.479091458476
 40
284.20673230090256
 50
230.97249468886812
 51
249.00809351033121
  0
ARC
  8
_0-1_レイヤ___3
  6
CONTINUOUS
 62
    7
 10
5194.5448255323436
 20
10406.382265239663
 40
328.71106836472558
 50
248.69528934421368
 51
264.76010223994928
  0
ARC
  8
_0-1_レイヤ___3
  6
CONTINUOUS
 62
    7
 10
5204.0584935151201
 20
10472.607947244769
 40
395.54367739998446
 50
264.26386051215144
 51
270.09943469271889
  0
ARC
  8
_0-1_レイヤ___3
  6
CONTINUOUS
 62
    7
 10
5383.010595812525
 20
10237.39635671735
 40
85.731971558112647
 50
324.22313568968741
 51
327.28758970092554
  0
ARC
  8
_0-1_レイヤ___3
  6
CONTINUOUS
 62
    7
 10
5320.3920047659221
 20
10282.074987124006
 40
162.65530541513715
 50
319.79861352195292
 51
324.35027925592732
  0
ARC
  8
_0-1_レイヤ___3
  6
CONTINUOUS
 62
    7
 10
5264.1763201103695
 20
10328.790502511083
 40
235.74627358302268
 50
308.65641323357414
 51
319.94577183701176
  0
ARC
  8
_0-1_レイヤ___3
  6
CONTINUOUS
 62
    7
 10
5231.6520412381888
 20
10366.508648598377
 40
285.52275923748948
 50
289.23484954955984
 51
309.02520763831461
  0
ARC
  8
_0-1_レイヤ___3
  6
CONTINUOUS
 62
    7
 10
5213.3728799628461
 20
10411.957220456572
 40
334.46393574591821
 50
274.08948010602842
 51
289.62648034847984
  0
ARC
  8
_0-1_レイヤ___3
  6
CONTINUOUS
 62
    7
 10
5205.2006565325382
 20
10478.231147655228
 40
401.16654099227435
 50
269.93491385974318
 51
274.57867413198187
  0
ARC
  8
_0-1_レイヤ___3
  6
CONTINUOUS
 62
    7
 10
6175.1772699267367
 20
10245.265671888299
 40
100.75331131322194
 50
212.54457606520913
 51
215.40440375223901
  0
ARC
  8
_0-1_レイヤ___3
  6
CONTINUOUS
 62
    7
 10
6263.3483817304796
 20
10307.718354002554
 40
208.80176016648289
 50
215.35576517119864
 51
221.36723442257554
  0
ARC
  8
_0-1_レイヤ___3
  6
CONTINUOUS
 62
    7
 10
6336.8373670803885
 20
10370.285440352563
 40
305.30820959523527
 50
221.06477503394933
 51
231.22765092056261
  0
ARC
  8
_0-1_レイヤ___3
  6
CONTINUOUS
 62
    7
 10
6373.9368632735477
 20
10413.758146275548
 40
362.43800051855146
 50
230.95883511048842
 51
251.35346403312761
  0
ARC
  8
_0-1_レイヤ___3
  6
CONTINUOUS
 62
    7
 10
6395.9271642596905
 20
10469.153515985501
 40
421.96811857703369
 50
250.92920805381607
 51
264.01576111916972
  0
ARC
  8
_0-1_レイヤ___3
  6
CONTINUOUS
 62
    7
 10
6406.6755607211735
 20
10543.900922169661
 40
497.43720610568812
 50
263.68207230856331
 51
270.12317171358143
  0
ARC
  8
_0-1_レイヤ___3
  6
CONTINUOUS
 62
    7
 10
6640.3125830732624
 20
10245.265671888299
 40
100.75331131322194
 50
324.59559624776097
 51
327.45542393479087
  0
ARC
  8
_0-1_レイヤ___3
  6
CONTINUOUS
 62
    7
 10
6552.1414712695196
 20
10307.718354002558
 40
208.80176016648622
 50
318.63276557742324
 51
324.64423482880017
  0
ARC
  8
_0-1_レイヤ___3
  6
CONTINUOUS
 62
    7
 10
6478.6524859196106
 20
10370.285440352563
 40
305.30820959523527
 50
308.77234907943739
 51
318.93522496605067
  0
ARC
  8
_0-1_レイヤ___3
  6
CONTINUOUS
 62
    7
 10
6441.5529897264514
 20
10413.758146275548
 40
362.43800051855146
 50
288.64653596687236
 51
309.04116488951161
  0
ARC
  8
_0-1_レイヤ___3
  6
CONTINUOUS
 62
    7
 10
6419.5626887403087
 20
10469.153515985501
 40
421.96811857703369
 50
275.98423888083028
 51
289.07079194618393
  0
ARC
  8
_0-1_レイヤ___3
  6
CONTINUOUS
 62
    7
 10
6408.8142922788284
 20
10543.900922169647
 40
497.43720610567294
 50
269.87682828641869
 51
276.31792769143675
  0
ARC
  8
_0-1_レイヤ___3
  6
CONTINUOUS
 62
    7
 10
5540.1358774185173
 20
10136.627503281741
 40
100.93010227786282
 50
144.50212566873279
 51
147.36012017610801
  0
ARC
  8
_0-1_レイヤ___3
  6
CONTINUOUS
 62
    7
 10
5628.3695471263927
 20
10074.232056271167
 40
208.99619450304266
 50
138.6141993796889
 51
144.62177519628176
  0
ARC
  8
_0-1_レイヤ___3
  6
CONTINUOUS
 62
    7
 10
5701.9104815690162
 20
10011.582808269701
 40
305.59542888809415
 50
128.76110525464961
 51
138.91711914959737
  0
ARC
  8
_0-1_レイヤ___3
  6
CONTINUOUS
 62
    7
 10
5739.008644335725
 20
9968.0573768509767
 40
362.76505364824754
 50
108.64440277668834
 51
129.02607137185763
  0
ARC
  8
_0-1_レイヤ___3
  6
CONTINUOUS
 62
    7
 10
5760.9508109280341
 20
9912.7376163916269
 40
422.2078773497347
 50
95.984053535164293
 51
109.06580942457414
  0
ARC
  8
_0-1_レイヤ___3
  6
CONTINUOUS
 62
    7
 10
5771.6784383483646
 20
9838.1757922208435
 40
497.49021243479604
 50
89.877171789659343
 51
96.317584188195951
  0
ARC
  8
_0-1_レイヤ___3
  6
CONTINUOUS
 62
    7
 10
6005.2204605955449
 20
10136.604825622162
 40
100.97057184268152
 50
32.640452692637687
 51
35.497301462542985
  0
ARC
  8
_0-1_レイヤ___3
  6
CONTINUOUS
 62
    7
 10
5916.9578159439207
 20
10074.182544247664
 40
209.07582711155086
 50
35.379369932403733
 51
41.384655491620954
  0
ARC
  8
_0-1_レイヤ___3
  6
CONTINUOUS
 62
    7
 10
5843.4223182357146
 20
10011.574452762146
 40
305.6439400285019
 50
41.077030819156093
 51
51.230071178722717
  0
ARC
  8
_0-1_レイヤ___3
  6
CONTINUOUS
 62
    7
 10
5806.3924915569396
 20
9968.115877061693
 40
362.71881313437632
 50
50.968265029241259
 51
71.34834199623468
  0
ARC
  8
_0-1_レイヤ___3
  6
CONTINUOUS
 62
    7
 10
5784.5214885883233
 20
9913.0129606666815
 40
421.93378118613651
 50
70.927422340987263
 51
84.012376348968317
  0
ARC
  8
_0-1_レイヤ___3
  6
CONTINUOUS
 62
    7
 10
5773.8119484612971
 20
9838.5477764375537
 40
497.11823018035136
 50
83.680048148512199
 51
90.122979570248162
  0
ARC
  8
_0-1_レイヤ___3
  6
CONTINUOUS
 62
    7
 10
6797.3421865972032
 20
10144.758611797955
 40
85.687131946339932
 50
144.22233369227075
 51
147.28839169837414
  0
ARC
  8
_0-1_レイヤ___3
  6
CONTINUOUS
 62
    7
 10
6859.9332951834594
 20
10100.105046321725
 40
162.57352260625143
 50
139.79746805852193
 51
144.35142471936226
  0
ARC
  8
_0-1_レイヤ___3
  6
CONTINUOUS
 62
    7
 10
6916.1551093374292
 20
10053.353651079999
 40
235.69226502682088
 50
128.64561282955856
 51
139.93931535074947
  0
ARC
  8
_0-1_レイヤ___3
  6
CONTINUOUS
 62
    7
 10
6947.9280228157231
 20
10016.650638692066
 40
284.20672953857724
 50
110.99190681131051
 51
129.0275056327736
  0
ARC
  8
_0-1_レイヤ___3
  6
CONTINUOUS
 62
    7
 10
6965.5447985323426
 20
9975.7474617603402
 40
328.71106836472558
 50
95.239897760050724
 51
111.30471065578634
  0
ARC
  8
_0-1_レイヤ___3
  6
CONTINUOUS
 62
    7
 10
6975.0584670151202
 20
9909.5217699453515
 40
395.54368721071808
 50
89.900565237320635
 51
95.736139417888069
  0
ARC
  8
_0-1_レイヤ___3
  6
CONTINUOUS
 62
    7
 10
7154.1476494027975
 20
10144.758611797955
 40
85.687131946339932
 50
32.711608301625859
 51
35.777666307729241
  0
ARC
  8
_0-1_レイヤ___3
  6
CONTINUOUS
 62
    7
 10
7091.5565408165412
 20
10100.105046321725
 40
162.57352260625143
 50
35.648575280637729
 51
40.202531941478085
  0
ARC
  8
_0-1_レイヤ___3
  6
CONTINUOUS
 62
    7
 10
7035.3347266625697
 20
10053.353651079993
 40
235.69226502682505
 50
40.060684649251506
 51
51.354387170442408
  0
ARC
  8
_0-1_レイヤ___3
  6
CONTINUOUS
 62
    7
 10
7003.5618131842766
 20
10016.650638692066
 40
284.20672953857724
 50
50.972494367226417
 51
69.008093188689486
  0
ARC
  8
_0-1_レイヤ___3
  6
CONTINUOUS
 62
    7
 10
6985.945037467658
 20
9975.7474617603439
 40
328.71106836472171
 50
68.695289344213506
 51
84.760102239949134
  0
ARC
  8
_0-1_レイヤ___3
  6
CONTINUOUS
 62
    7
 10
6976.4313694848806
 20
9909.5217797552341
 40
395.54367739998446
 50
84.263860512151453
 51
90.099434692718887
  0
ARC
  8
_0-1_レイヤ___3
  6
CONTINUOUS
 62
    7
 10
792.09715219836369
 20
1165.3318701099747
 40
5.3828075809803071
 50
339.64460576647241
 51
37.914206455858519
  0
ARC
  8
_0-1_レイヤ___3
  6
CONTINUOUS
 62
    7
 10
788.75762521587126
 20
1166.6574452262078
 40
8.9752494391581052
 50
309.97513473354968
 51
339.12643938086359
  0
ARC
  8
_0-1_レイヤ___3
  6
CONTINUOUS
 62
    7
 10
782.72092764439685
 20
1173.0082964599458
 40
17.728769427141255
 50
291.37943850228839
 51
311.73973364037437
  0
ARC
  8
_0-1_レイヤ___3
  6
CONTINUOUS
 62
    7
 10
779.37273376585586
 20
1180.3792376470096
 40
25.816645365768167
 50
278.39935499820012
 51
292.33550853106294
  0
ARC
  8
_0-1_レイヤ___3
  6
CONTINUOUS
 62
    7
 10
773.22771729010583
 20
1177.1538915193685
 40
24.418457434603628
 50
267.45589366452737
 51
293.95947928505961
  0
ARC
  8
_0-1_レイヤ___3
  6
CONTINUOUS
 62
    7
 10
772.97701191162218
 20
1164.5217564933596
 40
11.791727387009107
 50
241.90469174799892
 51
265.94815992251438
  0
ARC
  8
_0-1_レイヤ___3
  6
CONTINUOUS
 62
    7
 10
770.22803498807798
 20
1158.8671894534675
 40
5.5139963681298445
 50
174.04238483229722
 51
239.43183528331707
  0
ARC
  8
_0-1_レイヤ___3
  6
CONTINUOUS
 62
    7
 10
769.13512735667814
 20
1162.9310290322342
 40
5.610199633476892
 50
142.84420314905742
 51
218.48819679131043
  0
ARC
  8
_0-1_レイヤ___3
  6
CONTINUOUS
 62
    7
 10
774.70197522082481
 20
1159.424342982006
 40
12.178168210662134
 50
121.03258093952834
 51
145.51501976283058
  0
ARC
  8
_0-1_レイヤ___3
  6
CONTINUOUS
 62
    7
 10
780.69203117342852
 20
1150.5706477168196
 40
22.859766246198234
 50
97.410044074891573
 51
122.45741721894542
  0
ARC
  8
_0-1_レイヤ___3
  6
CONTINUOUS
 62
    7
 10
787.73201419020722
 20
1151.7624175604128
 40
23.686054714905225
 50
88.42310433993876
 51
114.94138841690054
  0
ARC
  8
_0-1_レイヤ___3
  6
CONTINUOUS
 62
    7
 10
787.72823503887253
 20
1163.0839218134415
 40
12.372960776934214
 50
63.526919539706491
 51
86.962744020198912
  0
ARC
  8
_0-1_レイヤ___3
  6
CONTINUOUS
 62
    7
 10
790.43164329990668
 20
1168.9497290571987
 40
5.9203102961409773
 50
356.99630037057159
 51
61.640327664299598
  0
ARC
  8
_0-1_レイヤ___3
  6
CONTINUOUS
 62
    7
 10
843.03476850446464
 20
1223.3771259345635
 40
27.666580522982976
 50
283.18162594285104
 51
300.42119302985117
  0
ARC
  8
_0-1_レイヤ___3
  6
CONTINUOUS
 62
    7
 10
854.12724012229683
 20
1204.1679220635885
 40
5.487643729886714
 50
302.10556855634871
 51
321.86885643528876
  0
ARC
  8
_0-1_レイヤ___3
  6
CONTINUOUS
 62
    7
 10
857.42970633231209
 20
1201.6389677680368
 40
1.3293244628206347
 50
319.71852899624531
 51
8.6764430958940491
  0
ARC
  8
_0-1_レイヤ___3
  6
CONTINUOUS
 62
    7
 10
857.57958865868909
 20
1201.4693789041644
 40
1.2216469247843551
 50
17.63612159444007
 51
59.271296839025325
  0
ARC
  8
_0-1_レイヤ___3
  6
CONTINUOUS
 62
    7
 10
856.3207014530733
 20
1199.2903952967984
 40
3.7380823061327542
 50
59.75056860496035
 51
80.715094041458102
  0
ARC
  8
_0-1_レイヤ___3
  6
CONTINUOUS
 62
    7
 10
854.7658612174846
 20
1191.5840208447307
 40
11.598007278762291
 50
79.276902415117377
 51
91.195814203395457
  0
ARC
  8
_0-1_レイヤ___3
  6
CONTINUOUS
 62
    7
 10
855.11352293753134
 20
1175.5515676208713
 40
27.634227348740588
 50
91.222765113150544
 51
105.03743959517038
  0
ARC
  8
_0-1_レイヤ___3
  6
CONTINUOUS
 62
    7
 10
853.97342381639476
 20
1176.5921852145761
 40
26.346556037011219
 50
103.22981481161789
 51
120.89889105669428
  0
ARC
  8
_0-1_レイヤ___3
  6
CONTINUOUS
 62
    7
 10
843.3947263337069
 20
1194.5129373842447
 40
5.5382081764176894
 50
122.19668177245349
 51
141.77774321918398
  0
ARC
  8
_0-1_レイヤ___3
  6
CONTINUOUS
 62
    7
 10
840.11737685571234
 20
1197.055806829376
 40
1.3904841368782148
 50
140.5406425170226
 51
188.94931400112887
  0
ARC
  8
_0-1_レイヤ___3
  6
CONTINUOUS
 62
    7
 10
839.91017780184939
 20
1197.2113139109135
 40
1.2241872711171824
 50
197.68124877366833
 51
239.22596296906289
  0
ARC
  8
_0-1_レイヤ___3
  6
CONTINUOUS
 62
    7
 10
841.16727917868275
 20
1199.3895680984951
 40
3.7390843417090776
 50
239.75340949555948
 51
260.71225315085894
  0
ARC
  8
_0-1_レイヤ___3
  6
CONTINUOUS
 62
    7
 10
842.69399251610844
 20
1206.8115615244221
 40
11.314393746687157
 50
259.14808927014462
 51
271.16390997970245
  0
ARC
  8
_0-1_レイヤ___3
  6
CONTINUOUS
 62
    7
 10
842.37505019939135
 20
1221.641086524372
 40
26.147343592704004
 50
271.20258439810584
 51
285.45724051765518
  0
ARC
  8
_0-1_レイヤ___3
  6
CONTINUOUS
 62
    7
 10
816.966912616223
 20
1481.0670529161121
 40
3.8665069726172345
 50
347.64127977917457
 51
35.2665030530179
  0
ARC
  8
_0-1_レイヤ___3
  6
CONTINUOUS
 62
    7
 10
813.04637523616179
 20
1478.8143001078738
 40
8.3789752532615509
 50
32.363713655260476
 51
46.971968581396602
  0
ARC
  8
_0-1_レイヤ___3
  6
CONTINUOUS
 62
    7
 10
808.4633474077134
 20
1473.9551069230038
 40
15.058439074131819
 50
46.840377150792257
 51
69.065151875961959
  0
ARC
  8
_0-1_レイヤ___3
  6
CONTINUOUS
 62
    7
 10
805.39584699155228
 20
1467.5650704398977
 40
22.130338067917222
 50
67.55867038580908
 51
76.015583073749397
  0
ARC
  8
_0-1_レイヤ___3
  6
CONTINUOUS
 62
    7
 10
805.46188901066671
 20
1469.0297884286613
 40
20.695102806697179
 50
75.213015211991589
 51
95.206723343276067
  0
ARC
  8
_0-1_レイヤ___3
  6
CONTINUOUS
 62
    7
 10
804.49072528016904
 20
1480.0069437584698
 40
9.6751528312892603
 50
95.378544495897387
 51
122.13875619977981
  0
ARC
  8
_0-1_レイヤ___3
  6
CONTINUOUS
 62
    7
 10
801.45469394824522
 20
1485.2117310946569
 40
3.6582155660014628
 50
125.24141664603405
 51
163.68322777002388
  0
ARC
  8
_0-1_レイヤ___3
  6
CONTINUOUS
 62
    7
 10
801.62135662837045
 20
1485.4208467823626
 40
3.7675543553495383
 50
167.4500959147353
 51
215.75292714928099
  0
ARC
  8
_0-1_レイヤ___3
  6
CONTINUOUS
 62
    7
 10
805.30503619081196
 20
1487.6467475842312
 40
8.0650190859003601
 50
213.29464420772365
 51
228.14642873178619
  0
ARC
  8
_0-1_レイヤ___3
  6
CONTINUOUS
 62
    7
 10
810.13023777012961
 20
1492.8436233499144
 40
15.15596859567329
 50
227.66798927609389
 51
249.58600044368865
  0
ARC
  8
_0-1_レイヤ___3
  6
CONTINUOUS
 62
    7
 10
813.58269508542719
 20
1500.4250109756697
 40
23.472888714364892
 50
248.14267968304858
 51
256.09992712527156
  0
ARC
  8
_0-1_レイヤ___3
  6
CONTINUOUS
 62
    7
 10
813.27502882378838
 20
1497.8594986305168
 40
20.911006787375666
 50
255.22952591394272
 51
275.34741219384802
  0
ARC
  8
_0-1_レイヤ___3
  6
CONTINUOUS
 62
    7
 10
814.33440360253803
 20
1486.6919383703089
 40
9.6933308370709987
 50
275.26460764464133
 51
302.08879581975089
  0
ARC
  8
_0-1_レイヤ___3
  6
CONTINUOUS
 62
    7
 10
817.48652745943957
 20
1481.240400814806
 40
3.4076033684354341
 50
305.88273448125113
 51
342.91882560081393
  0
ARC
  8
_0-1_レイヤ___3
  6
CONTINUOUS
 62
    7
 10
837.16065294482405
 20
1408.4226651716931
 40
4.5868236617714757
 50
272.28861868094879
 51
357.71140736258712
  0
ARC
  8
_0-1_レイヤ___3
  6
CONTINUOUS
 62
    7
 10
837.52698604977604
 20
1408.4226662549504
 40
4.5868247042313071
 50
182.28860565918131
 51
267.71139434081965
  0
ARC
  8
_0-1_レイヤ___3
  6
CONTINUOUS
 62
    7
 10
837.52698604977604
 20
1408.0563341499983
 40
4.5868247042313435
 50
92.288605659180845
 51
177.71139434081917
  0
ARC
  8
_0-1_レイヤ___3
  6
CONTINUOUS
 62
    7
 10
837.16065294482405
 20
1408.0563352332551
 40
4.5868236617715121
 50
2.2885926374124472
 51
87.711381319050759
  0
ARC
  8
_0-1_レイヤ___3
  6
CONTINUOUS
 62
    7
 10
815.33646887089049
 20
1315.2370921355741
 40
2.2073524399262796
 50
275.39011629319191
 51
0.0625056946198755
  0
ARC
  8
_0-1_レイヤ___3
  6
CONTINUOUS
 62
    7
 10
815.63897668968843
 20
1315.334656894863
 40
2.2971284332231172
 50
182.37411076097143
 51
267.62588923903968
  0
ARC
  8
_0-1_レイヤ___3
  6
CONTINUOUS
 62
    7
 10
815.7653710035504
 20
1315.2280784467443
 40
2.4215779426598467
 50
95.249351460658318
 51
179.72975438332492
  0
ARC
  8
_0-1_レイヤ___3
  6
CONTINUOUS
 62
    7
 10
815.53075251625251
 20
1315.7174673493853
 40
1.9220772740483412
 50
22.709423203443883
 51
89.610464526645714
  0
ARC
  8
_0-1_レイヤ___3
  6
CONTINUOUS
 62
    7
 10
814.55914430395921
 20
1315.2859574431286
 40
2.9850372308614439
 50
359.10824854783147
 51
23.150130031386656
  0
ARC
  8
_0-1_レイヤ___3
  6
CONTINUOUS
 62
    7
 10
825.77500389066813
 20
1258.1263613313465
 40
1.172039077586907
 50
312.30126513387648
 51
355.74994694123319
  0
ARC
  8
_0-1_レイヤ___3
  6
CONTINUOUS
 62
    7
 10
824.70989464407944
 20
1259.2716394813883
 40
2.736007244966387
 50
287.30670179977159
 51
312.6565769379655
  0
ARC
  8
_0-1_レイヤ___3
  6
CONTINUOUS
 62
    7
 10
824.16302215964492
 20
1260.7572340932156
 40
4.3177745892262696
 50
269.74519131006161
 51
288.3705849471948
  0
ARC
  8
_0-1_レイヤ___3
  6
CONTINUOUS
 62
    7
 10
824.03924346317694
 20
1261.1250541040347
 40
4.686718774762336
 50
248.00332644595056
 51
271.27856857787498
  0
ARC
  8
_0-1_レイヤ___3
  6
CONTINUOUS
 62
    7
 10
822.86538710264631
 20
1258.4513962501683
 40
1.7701553617511434
 50
193.45538192828101
 51
250.81980761948586
  0
ARC
  8
_0-1_レイヤ___3
  6
CONTINUOUS
 62
    7
 10
822.10692916975972
 20
1257.9867603423518
 40
0.9645522183298409
 50
128.70228202312535
 51
176.8654948622071
  0
ARC
  8
_0-1_レイヤ___3
  6
CONTINUOUS
 62
    7
 10
823.19648623941043
 20
1256.6294517858671
 40
2.7050751870885952
 50
103.52568277179957
 51
128.73631831811673
  0
ARC
  8
_0-1_レイヤ___3
  6
CONTINUOUS
 62
    7
 10
824.04907015372851
 20
1253.246750829363
 40
6.1934761727177534
 50
89.123436052037562
 51
103.87525650723242
  0
ARC
  8
_0-1_レイヤ___3
  6
CONTINUOUS
 62
    7
 10
824.25996057178145
 20
1254.8585774566775
 40
4.5823967702164259
 50
67.089967754457561
 51
91.452313649537842
  0
ARC
  8
_0-1_レイヤ___3
  6
CONTINUOUS
 62
    7
 10
825.5947651318686
 20
1257.7814739535431
 40
1.3735092308355505
 50
10.827956696274038
 51
70.916859898708978
  0
ARC
  8
_0-1_レイヤ___3
  6
CONTINUOUS
 62
    7
 10
847.06518219850523
 20
1284.9485044296157
 40
1.0841294535080228
 50
310.12227875525775
 51
354.22952847627329
  0
ARC
  8
_0-1_レイヤ___3
  6
CONTINUOUS
 62
    7
 10
845.75552690536233
 20
1286.3671705561728
 40
3.0141742050146174
 50
287.93725269249762
 51
311.78077963733915
  0
ARC
  8
_0-1_レイヤ___3
  6
CONTINUOUS
 62
    7
 10
845.12716515414922
 20
1288.028907504211
 40
4.7894342527579798
 50
270.19921759055609
 51
288.96667185652217
  0
ARC
  8
_0-1_レイヤ___3
  6
CONTINUOUS
 62
    7
 10
845.04308597594581
 20
1287.1981463689383
 40
3.9599255771804458
 50
226.63080744987283
 51
271.45763908886784
  0
ARC
  8
_0-1_レイヤ___3
  6
CONTINUOUS
 62
    7
 10
842.99541900692157
 20
1284.8431333211893
 40
0.8516087509013697
 50
180.24430045774841
 51
217.94268354319544
  0
ARC
  8
_0-1_レイヤ___3
  6
CONTINUOUS
 62
    7
 10
843.07341206152137
 20
1284.7606327128988
 40
0.9329338243527219
 50
127.62860890914277
 51
175.15047175891647
  0
ARC
  8
_0-1_レイヤ___3
  6
CONTINUOUS
 62
    7
 10
844.25630862992284
 20
1283.294510456494
 40
2.8165958207154351
 50
104.65283487823208
 51
128.47709118105499
  0
ARC
  8
_0-1_レイヤ___3
  6
CONTINUOUS
 62
    7
 10
845.1317057985176
 20
1280.3994071027191
 40
5.8401056599319201
 50
89.881170237528522
 51
105.77698278260992
  0
ARC
  8
_0-1_レイヤ___3
  6
CONTINUOUS
 62
    7
 10
845.22750020931107
 20
1280.9688185431864
 40
5.2713459254882613
 50
68.682559241229526
 51
90.909604310640759
  0
ARC
  8
_0-1_レイヤ___3
  6
CONTINUOUS
 62
    7
 10
846.72469692842787
 20
1284.4757319439432
 40
1.4650028700002733
 50
14.377343315244023
 51
73.37605125660231
  0
ARC
  8
_0-1_レイヤ___3
  6
CONTINUOUS
 62
    7
 10
857.30152225460051
 20
1449.2750854362728
 40
10.843542250106902
 50
345.16911754917373
 51
0.8687676371795997
  0
ARC
  8
_0-1_レイヤ___3
  6
CONTINUOUS
 62
    7
 10
865.0499687416891
 20
1447.0664228302801
 40
2.7920127660915779
 50
318.5854041892859
 51
348.28449345653263
  0
ARC
  8
_0-1_レイヤ___3
  6
CONTINUOUS
 62
    7
 10
866.73060084216422
 20
1445.6033141027751
 40
0.5639707994414218
 50
271.34290028227593
 51
317.11259035371023
  0
ARC
  8
_0-1_レイヤ___3
  6
CONTINUOUS
 62
    7
 10
866.85214743012671
 20
1445.8374747052089
 40
0.8052960728415714
 50
211.2675147712242
 51
262.26906309282117
  0
ARC
  8
_0-1_レイヤ___3
  6
CONTINUOUS
 62
    7
 10
869.34244144105514
 20
1447.4220076556003
 40
3.7568192805951268
 50
191.71050118857588
 51
212.21062685158228
  0
ARC
  8
_0-1_レイヤ___3
  6
CONTINUOUS
 62
    7
 10
876.67894218700326
 20
1449.3358434329446
 40
11.335598118636899
 50
179.47606967650776
 51
193.65652756499028
  0
ARC
  8
_0-1_レイヤ___3
  6
CONTINUOUS
 62
    7
 10
876.1861137399967
 20
1449.6039109686735
 40
10.843542250103797
 50
165.16911754916066
 51
180.86876763716654
  0
ARC
  8
_0-1_レイヤ___3
  6
CONTINUOUS
 62
    7
 10
868.43766725291289
 20
1451.8125735746687
 40
2.7920127660929421
 50
138.58540418931264
 51
168.28449345655937
  0
ARC
  8
_0-1_レイヤ___3
  6
CONTINUOUS
 62
    7
 10
866.75703515243504
 20
1453.2756823021732
 40
0.5639707994409343
 50
91.342900282165914
 51
137.11259035360024
  0
ARC
  8
_0-1_レイヤ___3
  6
CONTINUOUS
 62
    7
 10
866.63548856447369
 20
1453.041521699739
 40
0.8052960728412952
 50
31.267514771211317
 51
82.269063092808281
  0
ARC
  8
_0-1_レイヤ___3
  6
CONTINUOUS
 62
    7
 10
864.14519455354707
 20
1451.4569887493474
 40
3.7568192805932026
 50
11.710501188600821
 51
32.210626851607223
  0
ARC
  8
_0-1_レイヤ___3
  6
CONTINUOUS
 62
    7
 10
856.80869380759702
 20
1449.5431529720054
 40
11.335598118636481
 50
359.47606967650216
 51
13.65652756498465
  0
ARC
  8
_0-1_レイヤ___3
  6
CONTINUOUS
 62
    7
 10
887.32179990926113
 20
1411.136991873288
 40
10.422522198823216
 50
344.886461486325
 51
0.56352859789465
  0
ARC
  8
_0-1_レイヤ___3
  6
CONTINUOUS
 62
    7
 10
893.66380475060794
 20
1409.2637529475087
 40
3.8146115468108506
 50
322.83879789716696
 51
347.21338029107699
  0
ARC
  8
_0-1_レイヤ___3
  6
CONTINUOUS
 62
    7
 10
896.08160049724324
 20
1407.3983808275727
 40
0.7614268319830621
 50
274.6869625482617
 51
324.80280004570574
  0
ARC
  8
_0-1_レイヤ___3
  6
CONTINUOUS
 62
    7
 10
896.24840402372092
 20
1407.4317630849055
 40
0.7991362285626149
 50
211.0566689210979
 51
262.47990894292172
  0
ARC
  8
_0-1_レイヤ___3
  6
CONTINUOUS
 62
    7
 10
898.69853033949744
 20
1409.0166773918991
 40
3.7168720981873298
 50
192.06928781924503
 51
212.50188747442269
  0
ARC
  8
_0-1_レイヤ___3
  6
CONTINUOUS
 62
    7
 10
906.97646111937956
 20
1411.0272488021621
 40
12.2344843949016
 50
179.0059475205922
 51
193.1711087877913
  0
ARC
  8
_0-1_レイヤ___3
  6
CONTINUOUS
 62
    7
 10
905.58611373999668
 20
1411.4039129686753
 40
10.843542250103544
 50
165.16911754917157
 51
180.86876763717746
  0
ARC
  8
_0-1_レイヤ___3
  6
CONTINUOUS
 62
    7
 10
897.83766725291287
 20
1413.6125755746682
 40
2.7920127660931904
 50
138.58540418930247
 51
168.2844934565492
  0
ARC
  8
_0-1_レイヤ___3
  6
CONTINUOUS
 62
    7
 10
896.1570351524349
 20
1415.0756843021732
 40
0.5639707994409343
 50
91.342900282165914
 51
137.11259035360024
  0
ARC
  8
_0-1_レイヤ___3
  6
CONTINUOUS
 62
    7
 10
896.01139604153502
 20
1414.7667286933711
 40
0.8827602627385211
 50
33.932559252940266
 51
81.372553748162758
  0
ARC
  8
_0-1_レイヤ___3
  6
CONTINUOUS
 62
    7
 10
893.6352801715185
 20
1412.9902077061274
 40
3.8487265229278749
 50
15.51181976613212
 51
36.130164182255008
  0
ARC
  8
_0-1_レイヤ___3
  6
CONTINUOUS
 62
    7
 10
888.37108565637868
 20
1411.3096825994639
 40
9.3729950978010663
 50
359.5709810281956
 51
16.804622995611886
  0
ARC
  8
_0-1_レイヤ___3
  6
CONTINUOUS
 62
    7
 10
810.56768302917533
 20
1366.4995328139316
 40
10.770384074143831
 50
158.54225598098117
 51
174.67274851150526
  0
ARC
  8
_0-1_レイヤ___3
  6
CONTINUOUS
 62
    7
 10
801.68443352942882
 20
1367.1486006639593
 40
1.8737632349862072
 50
169.20649598294651
 51
224.31861294072948
  0
ARC
  8
_0-1_レイヤ___3
  6
CONTINUOUS
 62
    7
 10
800.58836108036394
 20
1366.3559250395824
 40
0.5713973693391752
 50
244.66118319248687
 51
303.51005036746085
  0
ARC
  8
_0-1_レイヤ___3
  6
CONTINUOUS
 62
    7
 10
799.14341600166267
 20
1368.6848161047853
 40
3.3119208232705892
 50
302.10927150927978
 51
324.02955360835358
  0
ARC
  8
_0-1_レイヤ___3
  6
CONTINUOUS
 62
    7
 10
792.71979377644811
 20
1373.6425816305091
 40
11.42522764027216
 50
322.82896230693132
 51
338.41523821849137
  0
ARC
  8
_0-1_レイヤ___3
  6
CONTINUOUS
 62
    7
 10
795.10198663904305
 20
1373.289261364788
 40
9.0966190484232694
 50
334.96271724187778
 51
351.72159164495559
  0
ARC
  8
_0-1_レイヤ___3
  6
CONTINUOUS
 62
    7
 10
801.43923029343284
 20
1372.5753000600507
 40
2.7303874743787877
 50
347.3960374411194
 51
32.429465452325388
  0
ARC
  8
_0-1_レイヤ___3
  6
CONTINUOUS
 62
    7
 10
803.62807498054826
 20
1372.9571416255048
 40
1.0885297414597381
 50
83.896113732864421
 51
127.6062335940771
  0
ARC
  8
_0-1_レイヤ___3
  6
CONTINUOUS
 62
    7
 10
805.76347678511502
 20
1369.939843414659
 40
4.7843301433740972
 50
125.81515301549572
 51
144.18484698449677
  0
ARC
  8
_0-1_レイヤ___3
  6
CONTINUOUS
 62
    7
 10
811.48398685256461
 20
1365.6060116867998
 40
11.960345398531835
 50
143.3854802672403
 51
156.16362028286193
  0
ARC
  8
_0-1_レイヤ___3
  6
CONTINUOUS
 62
    7
 10
725.36768302917835
 20
1250.6995348139317
 40
10.77038407414679
 50
158.54225598098492
 51
174.67274851150896
  0
ARC
  8
_0-1_レイヤ___3
  6
CONTINUOUS
 62
    7
 10
716.48443352942877
 20
1251.3486026639589
 40
1.8737632349862809
 50
169.20649598294582
 51
224.31861294072883
  0
ARC
  8
_0-1_レイヤ___3
  6
CONTINUOUS
 62
    7
 10
715.22608144190428
 20
1250.8454917242016
 40
0.8101765575496326
 50
264.17241861063746
 51
311.5849745810084
  0
ARC
  8
_0-1_レイヤ___3
  6
CONTINUOUS
 62
    7
 10
712.52163531945462
 20
1254.4155393969825
 40
5.2868750822367669
 50
307.82498902235699
 51
325.2165502999311
  0
ARC
  8
_0-1_レイヤ___3
  6
CONTINUOUS
 62
    7
 10
706.3002935427437
 20
1258.9215173193622
 40
12.967991462628685
 50
324.54631117371241
 51
335.96392623241411
  0
ARC
  8
_0-1_レイヤ___3
  6
CONTINUOUS
 62
    7
 10
709.90198663904323
 20
1257.4892633647873
 40
9.096619048422756
 50
334.96271724188324
 51
351.72159164496105
  0
ARC
  8
_0-1_レイヤ___3
  6
CONTINUOUS
 62
    7
 10
716.23923029343382
 20
1256.7753020600508
 40
2.7303874743776912
 50
347.39603744112338
 51
32.42946545232941
  0
ARC
  8
_0-1_レイヤ___3
  6
CONTINUOUS
 62
    7
 10
718.2561515469572
 20
1257.482300789803
 40
0.8100043929964456
 50
69.19771100464753
 51
120.60047390284848
  0
ARC
  8
_0-1_レイヤ___3
  6
CONTINUOUS
 62
    7
 10
719.45441738156262
 20
1255.3844271522235
 40
3.2259058372383809
 50
119.95170255672289
 51
142.24730995854446
  0
ARC
  8
_0-1_レイヤ___3
  6
CONTINUOUS
 62
    7
 10
725.11983471423036
 20
1250.8400231736459
 40
10.488398573478401
 50
141.56769447019951
 51
158.7612273292726
  0
ARC
  8
_0-1_レイヤ___3
  6
CONTINUOUS
 62
    7
 10
865.56568882224894
 20
1334.4571568906256
 40
5.5811086870738595
 50
323.01463165691297
 51
1.8722734729821415
  0
ARC
  8
_0-1_レイヤ___3
  6
CONTINUOUS
 62
    7
 10
868.1106189583104
 20
1332.7969585667781
 40
2.5576738379507189
 50
270.74372979389608
 51
318.41941917122233
  0
ARC
  8
_0-1_レイヤ___3
  6
CONTINUOUS
 62
    7
 10
868.22963432403844
 20
1332.6247812075094
 40
2.3868242320950421
 50
207.04541846434952
 51
267.93953269036069
  0
ARC
  8
_0-1_レイヤ___3
  6
CONTINUOUS
 62
    7
 10
870.97867842111532
 20
1334.3777885644427
 40
5.6409347609560188
 50
177.34080296663737
 51
210.20923367272417
  0
ARC
  8
_0-1_レイヤ___3
  6
CONTINUOUS
 62
    7
 10
871.12842735920458
 20
1334.7430904650969
 40
5.7855368300913028
 50
143.0670959760445
 51
181.02593798978393
  0
ARC
  8
_0-1_レイヤ___3
  6
CONTINUOUS
 62
    7
 10
868.26796245577668
 20
1336.7412112855227
 40
2.3016393706127429
 50
93.091886166228349
 51
140.03821618796337
  0
ARC
  8
_0-1_レイヤ___3
  6
CONTINUOUS
 62
    7
 10
868.09006311892381
 20
1336.4659204109721
 40
2.5741411247592811
 50
30.683700143998863
 51
88.803425528936998
  0
ARC
  8
_0-1_レイヤ___3
  6
CONTINUOUS
 62
    7
 10
865.71618814768249
 20
1334.8698794783727
 40
5.4325169484525917
 50
357.56950232832213
 51
32.384169550759886
  0
ARC
  8
_0-1_レイヤ___3
  6
CONTINUOUS
 62
    7
 10
921.17626693199725
 20
1196.866754901379
 40
8.1760522842507672
 50
2.6130278512068745
 51
91.629164942112979
  0
ARC
  8
_0-1_レイヤ___3
  6
CONTINUOUS
 62
    7
 10
921.20283385149605
 20
1196.5569470737041
 40
8.4865087477330174
 50
91.748990159803967
 51
175.38681747186661
  0
ARC
  8
_0-1_レイヤ___3
  6
CONTINUOUS
 62
    7
 10
920.89179646792127
 20
1197.5950693126142
 40
8.1557330220845792
 50
182.49872745170555
 51
270.36546491662386
  0
ARC
  8
_0-1_レイヤ___3
  6
CONTINUOUS
 62
    7
 10
920.73398999102642
 20
1198.0885477476916
 40
8.651590410754995
 50
271.38973732384727
 51
354.36806988283286
  0
ARC
  8
_0-1_レイヤ___3
  6
CONTINUOUS
 62
    7
 10
891.51339168828849
 20
1255.1618907041047
 40
3.2327438938594972
 50
305.78706357790867
 51
357.83031967449989
  0
ARC
  8
_0-1_レイヤ___3
  6
CONTINUOUS
 62
    7
 10
888.39638589178571
 20
1258.7282176792316
 40
7.9608150049849318
 50
278.72382927774953
 51
308.97711853841179
  0
ARC
  8
_0-1_レイヤ___3
  6
CONTINUOUS
 62
    7
 10
887.3399280611884
 20
1262.3976442734743
 40
11.758142714451898
 50
270.01895511317167
 51
281.10093941341455
  0
ARC
  8
_0-1_レイヤ___3
  6
CONTINUOUS
 62
    7
 10
887.25543491131043
 20
1261.4482179398112
 40
10.809077086432335
 50
242.97382909539726
 51
270.46849829987025
  0
ARC
  8
_0-1_レイヤ___3
  6
CONTINUOUS
 62
    7
 10
884.67396193000752
 20
1256.2922040867752
 40
5.0432760080094488
 50
205.01656454330336
 51
242.48183382716653
  0
ARC
  8
_0-1_レイヤ___3
  6
CONTINUOUS
 62
    7
 10
882.55935696310075
 20
1255.060509287164
 40
2.6156233251802821
 50
180.46016955917003
 51
200.14952337831318
  0
ARC
  8
_0-1_レイヤ___3
  6
CONTINUOUS
 62
    7
 10
883.17424430631172
 20
1254.9171137008441
 40
3.2327438938593449
 50
125.78706357791371
 51
177.83031967450492
  0
ARC
  8
_0-1_レイヤ___3
  6
CONTINUOUS
 62
    7
 10
886.29125010281484
 20
1251.3507867257167
 40
7.9608150049849868
 50
98.723829277750397
 51
128.97711853841273
  0
ARC
  8
_0-1_レイヤ___3
  6
CONTINUOUS
 62
    7
 10
887.34770793341204
 20
1247.6813601314741
 40
11.758142714451898
 50
90.018955113171671
 51
101.10093941341458
  0
ARC
  8
_0-1_レイヤ___3
  6
CONTINUOUS
 62
    7
 10
887.43220108328978
 20
1248.6307864651374
 40
10.809077086432335
 50
62.973829095397292
 51
90.46849829987022
  0
ARC
  8
_0-1_レイヤ___3
  6
CONTINUOUS
 62
    7
 10
890.01367406459281
 20
1253.7868003181736
 40
5.0432760080091423
 50
25.016564543299715
 51
62.481833827162873
  0
ARC
  8
_0-1_レイヤ___3
  6
CONTINUOUS
 62
    7
 10
892.12827903149923
 20
1255.0184951177828
 40
2.6156233251807839
 50
0.4601695592050258
 51
20.149523378348196
  0
ARC
  8
_0-1_レイヤ___3
  6
CONTINUOUS
 62
    7
 10
789.49031178608175
 20
1265.2862574843921
 40
29.272949736789265
 50
148.22833578406875
 51
158.02658623262042
  0
ARC
  8
_0-1_レイヤ___3
  6
CONTINUOUS
 62
    7
 10
769.57875413943384
 20
1277.8941198584378
 40
5.7114043644973531
 50
129.52645172315079
 51
150.58120037698563
  0
ARC
  8
_0-1_レイヤ___3
  6
CONTINUOUS
 62
    7
 10
766.3570730236637
 20
1281.8841320894858
 40
0.5859269532652416
 50
71.414431864961969
 51
134.85361274771915
  0
ARC
  8
_0-1_レイヤ___3
  6
CONTINUOUS
 62
    7
 10
766.08786193922901
 20
1281.836075620713
 40
0.75632095719723
 50
1.7749858324324508
 51
52.924765727714956
  0
ARC
  8
_0-1_レイヤ___3
  6
CONTINUOUS
 62
    7
 10
761.73822891349289
 20
1281.5472832100932
 40
5.1151286410271997
 50
346.11172731603455
 51
3.4994148684882265
  0
ARC
  8
_0-1_レイヤ___3
  6
CONTINUOUS
 62
    7
 10
740.19870576607104
 20
1286.2212069462169
 40
27.15421144671329
 50
335.68296684378578
 51
347.44713551037108
  0
ARC
  8
_0-1_レイヤ___3
  6
CONTINUOUS
 62
    7
 10
736.95756153852756
 20
1287.0022943044762
 40
30.435818658234698
 50
327.21016877053682
 51
336.85560021722688
  0
ARC
  8
_0-1_レイヤ___3
  6
CONTINUOUS
 62
    7
 10
757.72876497050015
 20
1273.3562383946244
 40
5.5885442769087001
 50
308.448984948624
 51
329.49600693288181
  0
ARC
  8
_0-1_レイヤ___3
  6
CONTINUOUS
 62
    7
 10
760.82927777062366
 20
1269.3844266615563
 40
0.5515847143705192
 50
261.08718426439191
 51
312.76784186374863
  0
ARC
  8
_0-1_レイヤ___3
  6
CONTINUOUS
 62
    7
 10
761.19977805537133
 20
1269.4429287842352
 40
0.7563209571970788
 50
181.77498583241029
 51
232.9247657276928
  0
ARC
  8
_0-1_レイヤ___3
  6
CONTINUOUS
 62
    7
 10
765.54934406640996
 20
1269.7317272871012
 40
5.1150621231542051
 50
166.11161338281545
 51
183.49952880172827
  0
ARC
  8
_0-1_レイヤ___3
  6
CONTINUOUS
 62
    7
 10
787.08893422852861
 20
1265.0577974587313
 40
27.15421144671296
 50
155.68296684378558
 51
167.44713551037088
  0
ARC
  8
_0-1_レイヤ___3
  6
CONTINUOUS
 62
    7
 10
884.27430505820269
 20
1187.5137238343243
 40
7.4745448724801893
 50
270.53285591477584
 51
357.8974948792382
  0
ARC
  8
_0-1_レイヤ___3
  6
CONTINUOUS
 62
    7
 10
884.60144519403548
 20
1187.4971293992096
 40
7.4620757955133588
 50
181.9785225272754
 51
268.02147747272596
  0
ARC
  8
_0-1_レイヤ___3
  6
CONTINUOUS
 62
    7
 10
884.44388826528552
 20
1187.3394338336238
 40
7.3007542246283883
 50
90.78536865985285
 51
180.78428054613528
  0
ARC
  8
_0-1_レイヤ___3
  6
CONTINUOUS
 62
    7
 10
884.42925330050321
 20
1187.3249375056773
 40
7.3150636288868585
 50
359.33080642385596
 51
90.669193576140472
  0
ARC
  8
_0-1_レイヤ___3
  6
CONTINUOUS
 62
    7
 10
795.46847220279801
 20
1213.1183911480603
 40
7.8890319810140985
 50
330.04717864842962
 51
18.637022746756003
  0
ARC
  8
_0-1_レイヤ___3
  6
CONTINUOUS
 62
    7
 10
792.70455009221791
 20
1214.5524120461162
 40
11.000642840239736
 50
287.12527179000233
 51
330.76335847813402
  0
ARC
  8
_0-1_レイヤ___3
  6
CONTINUOUS
 62
    7
 10
792.33940758941435
 20
1214.8686544427319
 40
11.413252255549327
 50
237.71847212951292
 51
288.40968376336741
  0
ARC
  8
_0-1_レイヤ___3
  6
CONTINUOUS
 62
    7
 10
790.89911010856986
 20
1211.7644083078892
 40
8.0316574845281909
 50
199.83244777885497
 51
234.57634817992147
  0
ARC
  8
_0-1_レイヤ___3
  6
CONTINUOUS
 62
    7
 10
791.56850665444779
 20
1211.6175381141491
 40
8.6192656166375663
 50
136.23500405164026
 51
197.40364956867063
  0
ARC
  8
_0-1_レイヤ___3
  6
CONTINUOUS
 62
    7
 10
793.88115962196821
 20
1209.9497788517572
 40
11.449840447595829
 50
107.99549794503517
 51
138.2132028691282
  0
ARC
  8
_0-1_レイヤ___3
  6
CONTINUOUS
 62
    7
 10
793.84821233520427
 20
1210.2412913220292
 40
11.162564200234058
 50
56.779153461803297
 51
108.29692596654023
  0
ARC
  8
_0-1_レイヤ___3
  6
CONTINUOUS
 62
    7
 10
795.09788350379949
 20
1212.8022202860695
 40
8.343194120551674
 50
19.88122574556596
 51
54.322500448724007
  0
ARC
  8
_0-1_レイヤ___3
  6
CONTINUOUS
 62
    7
 10
755.14337206437176
 20
1419.8399481354022
 40
1.2004480164987654
 50
270.0213792405325
 51
359.97862075950144
  0
ARC
  8
_0-1_レイヤ___3
  6
CONTINUOUS
 62
    7
 10
755.05064010794683
 20
1419.9474569982281
 40
1.3112717000452399
 50
184.72249793391762
 51
274.07491277603231
  0
ARC
  8
_0-1_レイヤ___3
  6
CONTINUOUS
 62
    7
 10
755.07862016492254
 20
1419.6988977725782
 40
1.3421849838146807
 50
87.215625234213903
 51
173.98686968617557
  0
ARC
  8
_0-1_レイヤ___3
  6
CONTINUOUS
 62
    7
 10
755.03056826927434
 20
1419.7262462856932
 40
1.3181261513333677
 50
4.9289531322946312
 51
85.071142360792606
  0
ARC
  8
_0-1_レイヤ___3
  6
CONTINUOUS
 62
    7
 10
829.52947400934534
 20
1376.2964157734937
 40
2.6149654542573635
 50
301.1929112355308
 51
358.7528402980596
  0
ARC
  8
_0-1_レイヤ___3
  6
CONTINUOUS
 62
    7
 10
828.77667449066189
 20
1377.3293250157099
 40
3.889963559649154
 50
269.51607613805209
 51
302.79860359111927
  0
ARC
  8
_0-1_レイヤ___3
  6
CONTINUOUS
 62
    7
 10
828.6807928248802
 20
1377.5854485758239
 40
4.1464274187480719
 50
226.06484800419548
 51
270.87094978049822
  0
ARC
  8
_0-1_レイヤ___3
  6
CONTINUOUS
 62
    7
 10
827.6030019044581
 20
1376.27636609194
 40
2.4594582221088452
 50
180.85886353408736
 51
222.98469365382348
  0
ARC
  8
_0-1_レイヤ___3
  6
CONTINUOUS
 62
    7
 10
827.4978204132683
 20
1376.1214595295246
 40
2.3569581156331174
 50
117.1081965469088
 51
177.12932412252462
  0
ARC
  8
_0-1_レイヤ___3
  6
CONTINUOUS
 62
    7
 10
828.66846515451789
 20
1374.4708280012778
 40
4.3693220473936814
 50
89.011808131749831
 51
120.91250237693828
  0
ARC
  8
_0-1_レイヤ___3
  6
CONTINUOUS
 62
    7
 10
828.75768798680747
 20
1374.9129813299428
 40
3.9265433624859707
 50
44.384897400956056
 51
90.202360918418989
  0
ARC
  8
_0-1_レイヤ___3
  6
CONTINUOUS
 62
    7
 10
829.93028723872862
 20
1376.1638318926357
 40
2.2148257191891534
 50
1.9578599814325683
 51
42.477328557598163
  0
ARC
  8
_0-1_レイヤ___3
  6
CONTINUOUS
 62
    7
 10
865.05159795576651
 20
1474.4890035514977
 40
1.493041001425067
 50
320.50922555770569
 51
358.09987297419923
  0
ARC
  8
_0-1_レイヤ___3
  6
CONTINUOUS
 62
    7
 10
863.63458277694554
 20
1475.6909859155985
 40
3.3510996698452034
 50
297.53604334130307
 51
320.05706085530784
  0
ARC
  8
_0-1_レイヤ___3
  6
CONTINUOUS
 62
    7
 10
861.96574774134945
 20
1478.8291914063366
 40
6.9053839297725581
 50
282.189740441396
 51
297.77647260241508
  0
ARC
  8
_0-1_レイヤ___3
  6
CONTINUOUS
 62
    7
 10
861.21336427195479
 20
1482.1288085932611
 40
10.289545422528615
 50
269.61273912553747
 51
282.40527278944245
  0
ARC
  8
_0-1_レイヤ___3
  6
CONTINUOUS
 62
    7
 10
860.9795482258852
 20
1480.4160264611714
 40
8.5781012776744827
 50
240.10268193453106
 51
271.09727545187815
  0
ARC
  8
_0-1_レイヤ___3
  6
CONTINUOUS
 62
    7
 10
857.77842414857787
 20
1474.7317049868757
 40
2.0554821808195762
 50
188.17283963634048
 51
238.47973973788913
  0
ARC
  8
_0-1_レイヤ___3
  6
CONTINUOUS
 62
    7
 10
857.1386716797881
 20
1474.406259279695
 40
1.3952496627979158
 50
139.11564369058948
 51
178.63491801727838
  0
ARC
  8
_0-1_レイヤ___3
  6
CONTINUOUS
 62
    7
 10
858.38625116642243
 20
1473.2188470774668
 40
3.1167184100060528
 50
114.29715180378362
 51
137.62388258948698
  0
ARC
  8
_0-1_レイヤ___3
  6
CONTINUOUS
 62
    7
 10
860.18429733703078
 20
1469.5386837226295
 40
7.2118218532531175
 50
100.06583245673313
 51
115.28638494057184
  0
ARC
  8
_0-1_レイヤ___3
  6
CONTINUOUS
 62
    7
 10
861.10389585701091
 20
1464.8616339596733
 40
11.977930772727285
 50
89.809034262587872
 51
100.48673538567503
  0
ARC
  8
_0-1_レイヤ___3
  6
CONTINUOUS
 62
    7
 10
861.39333960720001
 20
1467.726367222049
 40
9.1165463471746992
 50
61.782545215645946
 51
91.568392260575848
  0
ARC
  8
_0-1_レイヤ___3
  6
CONTINUOUS
 62
    7
 10
864.77345444257276
 20
1474.2401759403751
 40
1.7815488991533974
 50
6.4237839173764684
 51
58.518600664316935
  0
ARC
  8
_0-1_レイヤ___3
  6
CONTINUOUS
 62
    7
 10
896.15348906808208
 20
1497.7736517027756
 40
2.9910538053401332
 50
308.70477424179307
 51
1.2614388020126373
  0
ARC
  8
_0-1_レイヤ___3
  6
CONTINUOUS
 62
    7
 10
897.32817963781315
 20
1496.5486686247323
 40
1.3092638209321468
 50
270.68437948838846
 51
302.09470117964742
  0
ARC
  8
_0-1_レイヤ___3
  6
CONTINUOUS
 62
    7
 10
897.39301781984045
 20
1496.6674977588264
 40
1.4288468621512318
 50
228.37045024315745
 51
268.02673078417797
  0
ARC
  8
_0-1_レイヤ___3
  6
CONTINUOUS
 62
    7
 10
898.37185169993836
 20
1497.6749581722843
 40
2.8328162744506753
 50
176.67018354288766
 51
227.1089299969276
  0
ARC
  8
_0-1_レイヤ___3
  6
CONTINUOUS
 62
    7
 10
898.53414692651904
 20
1497.9053447021724
 40
2.9910538053412865
 50
128.7047742417966
 51
181.26143880201619
  0
ARC
  8
_0-1_レイヤ___3
  6
CONTINUOUS
 62
    7
 10
897.35945635678718
 20
1499.1303277802167
 40
1.3092638209321468
 50
90.684379488388444
 51
122.0947011796474
  0
ARC
  8
_0-1_レイヤ___3
  6
CONTINUOUS
 62
    7
 10
897.29461817475851
 20
1499.0114986461219
 40
1.4288468621517376
 50
48.370450243106752
 51
88.026730784127238
  0
ARC
  8
_0-1_レイヤ___3
  6
CONTINUOUS
 62
    7
 10
896.31578429466174
 20
1498.004038232664
 40
2.8328162744506278
 50
356.67018354288075
 51
47.108929996920715
  0
ARC
  8
_0-1_レイヤ___3
  6
CONTINUOUS
 62
    7
 10
932.55348906808194
 20
1475.9736517027759
 40
2.991053805340341
 50
308.70477424178813
 51
1.261438802007717
  0
ARC
  8
_0-1_レイヤ___3
  6
CONTINUOUS
 62
    7
 10
933.72817963781301
 20
1474.7486686247316
 40
1.3092638209316427
 50
270.68437948839494
 51
302.0947011796539
  0
ARC
  8
_0-1_レイヤ___3
  6
CONTINUOUS
 62
    7
 10
933.79301781984054
 20
1474.8674977588266
 40
1.4288468621516206
 50
228.3704502431637
 51
268.02673078418422
  0
ARC
  8
_0-1_レイヤ___3
  6
CONTINUOUS
 62
    7
 10
934.77185169993845
 20
1475.8749581722839
 40
2.8328162744506278
 50
176.67018354288078
 51
227.10892999692072
  0
ARC
  8
_0-1_レイヤ___3
  6
CONTINUOUS
 62
    7
 10
934.93414692651925
 20
1476.105344702172
 40
2.9910538053412141
 50
128.70477424179592
 51
181.26143880201553
  0
ARC
  8
_0-1_レイヤ___3
  6
CONTINUOUS
 62
    7
 10
933.75945635678727
 20
1477.3303277802165
 40
1.3092638209321468
 50
90.684379488388444
 51
122.0947011796474
  0
ARC
  8
_0-1_レイヤ___3
  6
CONTINUOUS
 62
    7
 10
933.69461817475985
 20
1477.2114986461224
 40
1.4288468621508428
 50
48.370450243151204
 51
88.02673078417169
  0
ARC
  8
_0-1_レイヤ___3
  6
CONTINUOUS
 62
    7
 10
932.71578429466081
 20
1476.2040382326641
 40
2.8328162744516812
 50
356.6701835428795
 51
47.108929996919429
  0
ARC
  8
_0-1_レイヤ___3
  6
CONTINUOUS
 62
    7
 10
901.20395405444265
 20
1432.4800384176001
 40
1.7403361884125024
 50
322.45472609384251
 51
358.66520424981763
  0
ARC
  8
_0-1_レイヤ___3
  6
CONTINUOUS
 62
    7
 10
900.32627552473991
 20
1433.1496765034433
 40
2.8442951619969321
 50
298.05081505511555
 51
322.53348045611358
  0
ARC
  8
_0-1_レイヤ___3
  6
CONTINUOUS
 62
    7
 10
899.24069684710526
 20
1435.2246070332885
 40
5.1860137966391493
 50
268.92960714548462
 51
297.85538836203284
  0
ARC
  8
_0-1_レイヤ___3
  6
CONTINUOUS
 62
    7
 10
899.02322624108706
 20
1434.5102156806436
 40
4.4723435848870903
 50
228.91019488244453
 51
271.54510405239904
  0
ARC
  8
_0-1_レイヤ___3
  6
CONTINUOUS
 62
    7
 10
897.47021864880878
 20
1432.4775415500239
 40
1.9267762626797857
 50
181.13135341495962
 51
223.98313985444798
  0
ARC
  8
_0-1_レイヤ___3
  6
CONTINUOUS
 62
    7
 10
897.89781841326828
 20
1432.3214575295247
 40
2.3569581156331174
 50
117.1081965469088
 51
177.12932412252462
  0
ARC
  8
_0-1_レイヤ___3
  6
CONTINUOUS
 62
    7
 10
899.06846315451617
 20
1430.6708260012779
 40
4.3693220473927816
 50
89.011808131731911
 51
120.91250237692037
  0
ARC
  8
_0-1_レイヤ___3
  6
CONTINUOUS
 62
    7
 10
899.18667291129987
 20
1430.3330757687763
 40
4.7066175400242924
 50
48.525254535988665
 51
90.52169941826908
  0
ARC
  8
_0-1_レイヤ___3
  6
CONTINUOUS
 62
    7
 10
900.83852626762166
 20
1432.3448596764224
 40
2.1074177843195616
 50
2.573866627470641
 51
45.948715077477146
  0
ARC
  8
_0-1_レイヤ___3
  6
CONTINUOUS
 62
    7
 10
935.35229542331899
 20
1441.6232483799963
 40
7.3915404360933712
 50
311.64235955981167
 51
0.125961158413644
  0
ARC
  8
_0-1_レイヤ___3
  6
CONTINUOUS
 62
    7
 10
937.24789718341583
 20
1439.8556196897764
 40
4.8170766013209922
 50
271.14098685161798
 51
308.76219453792118
  0
ARC
  8
_0-1_レイヤ___3
  6
CONTINUOUS
 62
    7
 10
937.47270521697487
 20
1440.1163325171353
 40
5.0784701017059124
 50
207.39648595431632
 51
268.54572606504087
  0
ARC
  8
_0-1_レイヤ___3
  6
CONTINUOUS
 62
    7
 10
939.45818333399984
 20
1441.5603926696851
 40
7.5147817066572351
 50
179.39685581663656
 51
210.20714035023451
  0
ARC
  8
_0-1_レイヤ___3
  6
CONTINUOUS
 62
    7
 10
939.687809827862
 20
1441.6994111397923
 40
7.7442235912882058
 50
132.82265611600047
 51
180.4432713816262
  0
ARC
  8
_0-1_レイヤ___3
  6
CONTINUOUS
 62
    7
 10
937.42031683741516
 20
1443.6768787561209
 40
4.763233782140369
 50
90.920225485630695
 51
128.98295590390845
  0
ARC
  8
_0-1_レイヤ___3
  6
CONTINUOUS
 62
    7
 10
937.23382484234207
 20
1443.4384487455359
 40
5.0022589062225045
 50
28.163981790601795
 51
88.740038923659952
  0
ARC
  8
_0-1_レイヤ___3
  6
CONTINUOUS
 62
    7
 10
934.87508309097302
 20
1441.7842557993583
 40
7.8700663140729352
 50
358.94607405284125
 51
30.676598705012438
  0
ARC
  8
_0-1_レイヤ___3
  6
CONTINUOUS
 62
    7
 10
853.77366066267746
 20
1456.2958648317087
 40
0.9717934198243672
 50
308.89295229986209
 51
356.67482458553189
  0
ARC
  8
_0-1_レイヤ___3
  6
CONTINUOUS
 62
    7
 10
852.51537721295131
 20
1457.8492926003037
 40
2.9708956772097879
 50
284.99034469317786
 51
308.97011674323073
  0
ARC
  8
_0-1_レイヤ___3
  6
CONTINUOUS
 62
    7
 10
850.77870248838394
 20
1463.9571937743253
 40
9.3206556364800228
 50
268.55596908891891
 51
285.59110626100914
  0
ARC
  8
_0-1_レイヤ___3
  6
CONTINUOUS
 62
    7
 10
850.30893350621625
 20
1463.9571937743253
 40
9.3206556364800228
 50
254.4088937389908
 51
271.44403091108109
  0
ARC
  8
_0-1_レイヤ___3
  6
CONTINUOUS
 62
    7
 10
848.42052340543546
 20
1457.580820842727
 40
2.6734257122864937
 50
227.19212602774206
 51
256.66290010052739
  0
ARC
  8
_0-1_レイヤ___3
  6
CONTINUOUS
 62
    7
 10
847.24137731241683
 20
1456.2513779152653
 40
0.8976379290830639
 50
180.75829825561931
 51
224.74365442993869
  0
ARC
  8
_0-1_レイヤ___3
  6
CONTINUOUS
 62
    7
 10
847.14461448399788
 20
1456.1441762452137
 40
0.8064498054084605
 50
123.13330836025912
 51
173.21179848638633
  0
ARC
  8
_0-1_レイヤ___3
  6
CONTINUOUS
 62
    7
 10
848.65906214332858
 20
1453.9814441787921
 40
3.446379304707464
 50
102.99961589152041
 51
124.56444495488913
  0
ARC
  8
_0-1_レイヤ___3
  6
CONTINUOUS
 62
    7
 10
850.37311233171999
 20
1447.2104217706228
 40
10.430473414263346
 50
89.062252453516876
 51
103.80722584856352
  0
ARC
  8
_0-1_レイヤ___3
  6
CONTINUOUS
 62
    7
 10
850.7505599775692
 20
1447.741392823491
 40
9.9002642560621474
 50
74.454787101876249
 51
91.19656442517271
  0
ARC
  8
_0-1_レイヤ___3
  6
CONTINUOUS
 62
    7
 10
852.83740323320762
 20
1454.8245931599781
 40
2.5194016060677216
 50
46.744890546048893
 51
77.007638687386461
  0
ARC
  8
_0-1_レイヤ___3
  6
CONTINUOUS
 62
    7
 10
854.13165980708357
 20
1456.2257161209529
 40
0.6123133149135885
 50
1.2897348071296608
 51
45.10744622015968
  0
ARC
  8
_0-1_レイヤ___3
  6
CONTINUOUS
 62
    7
 10
861.25159795576769
 20
1357.4890055514975
 40
1.4930410014238291
 50
320.50922555768773
 51
358.09987297418127
  0
ARC
  8
_0-1_レイヤ___3
  6
CONTINUOUS
 62
    7
 10
859.83458277694331
 20
1358.6909879155994
 40
3.3510996698471378
 50
297.53604334132433
 51
320.05706085532915
  0
ARC
  8
_0-1_レイヤ___3
  6
CONTINUOUS
 62
    7
 10
858.16574774135256
 20
1361.8291934063359
 40
6.9053839297704087
 50
282.18974044137246
 51
297.77647260239144
  0
ARC
  8
_0-1_レイヤ___3
  6
CONTINUOUS
 62
    7
 10
857.41336427195483
 20
1365.128810593262
 40
10.289545422528615
 50
269.61273912553747
 51
282.40527278944245
  0
ARC
  8
_0-1_レイヤ___3
  6
CONTINUOUS
 62
    7
 10
857.17954822588354
 20
1363.4160284611723
 40
8.578101277674568
 50
240.10268193454314
 51
271.09727545189025
  0
ARC
  8
_0-1_レイヤ___3
  6
CONTINUOUS
 62
    7
 10
853.97842414857769
 20
1357.7317069868755
 40
2.0554821808193928
 50
188.1728396363327
 51
238.47973973788135
  0
ARC
  8
_0-1_レイヤ___3
  6
CONTINUOUS
 62
    7
 10
853.23994930120057
 20
1357.3369027689591
 40
1.3001855984104795
 50
134.79851274310477
 51
175.47409411339311
  0
ARC
  8
_0-1_レイヤ___3
  6
CONTINUOUS
 62
    7
 10
854.92635549610611
 20
1355.7548960374938
 40
3.6119583962064428
 50
114.58165823956374
 51
136.09855560360521
  0
ARC
  8
_0-1_レイヤ___3
  6
CONTINUOUS
 62
    7
 10
857.10251102475945
 20
1351.017904367925
 40
8.8248955870957619
 50
88.433115219985183
 51
114.63612608730836
  0
ARC
  8
_0-1_レイヤ___3
  6
CONTINUOUS
 62
    7
 10
857.49536785082569
 20
1350.9096803234727
 40
8.9311057786549615
 50
60.716744015062673
 51
90.972285399575824
  0
ARC
  8
_0-1_レイヤ___3
  6
CONTINUOUS
 62
    7
 10
860.94951964212805
 20
1357.1236410337829
 40
1.8218873735274477
 50
9.9837699707762795
 51
59.878104631433011
  0
ARC
  8
_0-1_レイヤ___3
  6
CONTINUOUS
 62
    7
 10
892.35348906808122
 20
1380.7736537027758
 40
2.9910538053411511
 50
308.70477424180217
 51
1.2614388020217382
  0
ARC
  8
_0-1_レイヤ___3
  6
CONTINUOUS
 62
    7
 10
893.5281796378132
 20
1379.548670624732
 40
1.3092638209321468
 50
270.68437948838846
 51
302.09470117964742
  0
ARC
  8
_0-1_レイヤ___3
  6
CONTINUOUS
 62
    7
 10
893.59301781984072
 20
1379.6674997588264
 40
1.4288468621512704
 50
228.37045024315353
 51
268.02673078417399
  0
ARC
  8
_0-1_レイヤ___3
  6
CONTINUOUS
 62
    7
 10
894.57185169993954
 20
1380.6749601722845
 40
2.8328162744516812
 50
176.67018354287947
 51
227.10892999691944
  0
ARC
  8
_0-1_レイヤ___3
  6
CONTINUOUS
 62
    7
 10
894.34702353392709
 20
1380.9321461077491
 40
2.6048536100305739
 50
125.24533522097099
 51
182.03824856641953
  0
ARC
  8
_0-1_レイヤ___3
  6
CONTINUOUS
 62
    7
 10
893.55056264957227
 20
1381.7621598880839
 40
1.4773557103341544
 50
90.261576443085247
 51
118.57996981197287
  0
ARC
  8
_0-1_レイヤ___3
  6
CONTINUOUS
 62
    7
 10
893.46464850582208
 20
1381.4850879554058
 40
1.7561976372392811
 50
17.032404089252076
 51
87.41622729884908
  0
ARC
  8
_0-1_レイヤ___3
  6
CONTINUOUS
 62
    7
 10
892.13922949937364
 20
1380.8842263235219
 40
3.2049006017263793
 50
359.20038045570823
 51
20.364433607891264
  0
ARC
  8
_0-1_レイヤ___3
  6
CONTINUOUS
 62
    7
 10
928.75348906808108
 20
1358.9736537027761
 40
2.9910538053412141
 50
308.70477424179592
 51
1.2614388020155172
  0
ARC
  8
_0-1_レイヤ___3
  6
CONTINUOUS
 62
    7
 10
929.92817963781306
 20
1357.7486706247314
 40
1.3092638209316427
 50
270.68437948839494
 51
302.0947011796539
  0
ARC
  8
_0-1_レイヤ___3
  6
CONTINUOUS
 62
    7
 10
929.99301781984059
 20
1357.8674997588264
 40
1.4288468621516206
 50
228.3704502431637
 51
268.02673078418422
  0
ARC
  8
_0-1_レイヤ___3
  6
CONTINUOUS
 62
    7
 10
930.97185169993941
 20
1358.8749601722841
 40
2.8328162744516812
 50
176.67018354287947
 51
227.10892999691944
  0
ARC
  8
_0-1_レイヤ___3
  6
CONTINUOUS
 62
    7
 10
930.74702353392718
 20
1359.1321461077484
 40
2.6048536100307733
 50
125.24533522096581
 51
182.03824856641438
  0
ARC
  8
_0-1_レイヤ___3
  6
CONTINUOUS
 62
    7
 10
929.95056264957248
 20
1359.962159888084
 40
1.4773557103341544
 50
90.261576443085247
 51
118.57996981197287
  0
ARC
  8
_0-1_レイヤ___3
  6
CONTINUOUS
 62
    7
 10
929.86464850582229
 20
1359.6850879554058
 40
1.7561976372391235
 50
17.03240408924556
 51
87.416227298842557
  0
ARC
  8
_0-1_レイヤ___3
  6
CONTINUOUS
 62
    7
 10
928.5392294993735
 20
1359.0842263235211
 40
3.2049006017265107
 50
359.20038045572187
 51
20.364433607904896
  0
ARC
  8
_0-1_レイヤ___3
  6
CONTINUOUS
 62
    7
 10
896.81333543768665
 20
1315.5352086305957
 40
2.1326312480198846
 50
293.50286621335221
 51
357.42781064383286
  0
ARC
  8
_0-1_レイヤ___3
  6
CONTINUOUS
 62
    7
 10
895.46191994963294
 20
1317.785802925785
 40
4.7477718576666286
 50
268.57460685358211
 51
297.6309730289438
  0
ARC
  8
_0-1_レイヤ___3
  6
CONTINUOUS
 62
    7
 10
895.22322624108597
 20
1317.510217680644
 40
4.4723435848866941
 50
228.91019488245868
 51
271.54510405241319
  0
ARC
  8
_0-1_レイヤ___3
  6
CONTINUOUS
 62
    7
 10
893.67021864880883
 20
1315.4775435500237
 40
1.9267762626797857
 50
181.13135341495962
 51
223.98313985444798
  0
ARC
  8
_0-1_レイヤ___3
  6
CONTINUOUS
 62
    7
 10
894.09781841326912
 20
1315.3214595295249
 40
2.3569581156338928
 50
117.10819654692099
 51
177.12932412253679
  0
ARC
  8
_0-1_レイヤ___3
  6
CONTINUOUS
 62
    7
 10
895.26846315451621
 20
1313.6708280012786
 40
4.3693220473927488
 50
89.011808131730291
 51
120.91250237691874
  0
ARC
  8
_0-1_レイヤ___3
  6
CONTINUOUS
 62
    7
 10
895.39997587426137
 20
1313.7760092312194
 40
4.263860805551424
 50
46.707235056421105
 51
90.754645265126939
  0
ARC
  8
_0-1_レイヤ___3
  6
CONTINUOUS
 62
    7
 10
896.75814254341446
 20
1315.3519177153848
 40
2.1874295146961114
 50
2.2946790176957603
 51
44.294447490087101
  0
ARC
  8
_0-1_レイヤ___3
  6
CONTINUOUS
 62
    7
 10
931.55229542331904
 20
1324.6232503799961
 40
7.3915404360933712
 50
311.64235955981167
 51
0.125961158413644
  0
ARC
  8
_0-1_レイヤ___3
  6
CONTINUOUS
 62
    7
 10
933.44789718341735
 20
1322.8556216897766
 40
4.8170766013205393
 50
271.1409868516032
 51
308.7621945379064
  0
ARC
  8
_0-1_レイヤ___3
  6
CONTINUOUS
 62
    7
 10
933.67270521697401
 20
1323.1163345171358
 40
5.0784701017057046
 50
207.39648595432598
 51
268.54572606505053
  0
ARC
  8
_0-1_レイヤ___3
  6
CONTINUOUS
 62
    7
 10
935.65818333399966
 20
1324.5603946696849
 40
7.5147817066572351
 50
179.39685581663656
 51
210.20714035023451
  0
ARC
  8
_0-1_レイヤ___3
  6
CONTINUOUS
 62
    7
 10
935.88780982786284
 20
1324.6994131397923
 40
7.744223591289316
 50
132.82265611600118
 51
180.44327138162691
  0
ARC
  8
_0-1_レイヤ___3
  6
CONTINUOUS
 62
    7
 10
933.62031683741407
 20
1326.6768807561209
 40
4.7632337821399222
 50
90.920225485615916
 51
128.98295590389367
  0
ARC
  8
_0-1_レイヤ___3
  6
CONTINUOUS
 62
    7
 10
933.43382484234212
 20
1326.4384507455356
 40
5.0022589062225045
 50
28.163981790601795
 51
88.740038923659952
  0
ARC
  8
_0-1_レイヤ___3
  6
CONTINUOUS
 62
    7
 10
931.07508309097307
 20
1324.7842577993583
 40
7.8700663140729352
 50
358.94607405284125
 51
30.676598705012438
  0
ARC
  8
_0-1_レイヤ___3
  6
CONTINUOUS
 62
    7
 10
850.14302151060235
 20
1339.1348221597354
 40
0.8064498054086376
 50
303.1333083602388
 51
353.21179848636604
  0
ARC
  8
_0-1_レイヤ___3
  6
CONTINUOUS
 62
    7
 10
848.62857385126949
 20
1341.2975542261563
 40
3.4463793047083824
 50
282.9996158915551
 51
304.56444495492383
  0
ARC
  8
_0-1_レイヤ___3
  6
CONTINUOUS
 62
    7
 10
846.91452366288013
 20
1348.0685766343252
 40
10.430473414263346
 50
269.06225245351686
 51
283.80722584856352
  0
ARC
  8
_0-1_レイヤ___3
  6
CONTINUOUS
 62
    7
 10
846.53707601703422
 20
1347.5376055814577
 40
9.9002642560625418
 50
254.45478710185802
 51
271.19656442515452
  0
ARC
  8
_0-1_レイヤ___3
  6
CONTINUOUS
 62
    7
 10
844.45023276139273
 20
1340.4544052449705
 40
2.5194016060671776
 50
226.74489054604581
 51
257.00763868738341
  0
ARC
  8
_0-1_レイヤ___3
  6
CONTINUOUS
 62
    7
 10
843.1559761875169
 20
1339.0532822839959
 40
0.6123133149135885
 50
181.28973480712969
 51
225.10744622015969
  0
ARC
  8
_0-1_レイヤ___3
  6
CONTINUOUS
 62
    7
 10
843.51397533192198
 20
1338.9831335732404
 40
0.9717934198231102
 50
128.89295229987053
 51
176.67482458554028
  0
ARC
  8
_0-1_レイヤ___3
  6
CONTINUOUS
 62
    7
 10
844.77225878164859
 20
1337.4297058046436
 40
2.9708956772103972
 50
104.99034469317189
 51
128.97011674322476
  0
ARC
  8
_0-1_レイヤ___3
  6
CONTINUOUS
 62
    7
 10
846.50893350621629
 20
1331.3218046306226
 40
9.3206556364800228
 50
88.555969088918928
 51
105.59110626100917
  0
ARC
  8
_0-1_レイヤ___3
  6
CONTINUOUS
 62
    7
 10
846.97870248838399
 20
1331.3218046306226
 40
9.3206556364800228
 50
74.408893738990827
 51
91.444030911081057
  0
ARC
  8
_0-1_レイヤ___3
  6
CONTINUOUS
 62
    7
 10
848.86711258916671
 20
1337.6981775622216
 40
2.6734257122856393
 50
47.192126027776389
 51
76.662900100561714
  0
ARC
  8
_0-1_レイヤ___3
  6
CONTINUOUS
 62
    7
 10
850.04625868218341
 20
1339.0276204896832
 40
0.897637929083298
 50
0.7582982556392937
 51
44.743654429958674
  0
ARC
  8
_0-1_レイヤ___3
  6
CONTINUOUS
 62
    7
 10
706.31845499111819
 20
1457.8648632086563
 40
4.4254376982936297
 50
270.328400456184
 51
359.6715995438114
  0
ARC
  8
_0-1_レイヤ___3
  6
CONTINUOUS
 62
    7
 10
706.37665765580073
 20
1457.8723338460488
 40
4.4329572696746391
 50
180.42440314311139
 51
269.57557081334903
  0
ARC
  8
_0-1_レイヤ___3
  6
CONTINUOUS
 62
    7
 10
706.52698704977661
 20
1457.6563332332555
 40
4.5868236617718088
 50
92.28861868095666
 51
177.71140736259497
  0
ARC
  8
_0-1_レイヤ___3
  6
CONTINUOUS
 62
    7
 10
706.16065394482348
 20
1457.656332149998
 40
4.5868247042319368
 50
2.2886056591771489
 51
87.71139434081546
  0
ARC
  8
_0-1_レイヤ___3
  6
CONTINUOUS
 62
    7
 10
694.96262880247605
 20
1307.7015424169554
 40
0.9831527459897516
 50
309.18585214167291
 51
356.38192474366429
  0
ARC
  8
_0-1_レイヤ___3
  6
CONTINUOUS
 62
    7
 10
693.91895775849866
 20
1308.9448108247411
 40
2.6063467968436389
 50
284.32493686897419
 51
309.70039382685638
  0
ARC
  8
_0-1_レイヤ___3
  6
CONTINUOUS
 62
    7
 10
693.18337783474271
 20
1311.6185597070835
 40
5.3792049429636366
 50
269.57867324440429
 51
284.86995814370994
  0
ARC
  8
_0-1_レイヤ___3
  6
CONTINUOUS
 62
    7
 10
693.0601448759711
 20
1311.5101828617621
 40
5.2713468445504024
 50
248.6825037435716
 51
270.90954881298285
  0
ARC
  8
_0-1_レイヤ___3
  6
CONTINUOUS
 62
    7
 10
691.56294306617247
 20
1308.0032704610051
 40
1.4650028700004731
 50
194.37734331525218
 51
253.37605125661045
  0
ARC
  8
_0-1_レイヤ___3
  6
CONTINUOUS
 62
    7
 10
691.222457796095
 20
1307.5304979753323
 40
1.0841294535081998
 50
130.12227875524007
 51
174.22952847625561
  0
ARC
  8
_0-1_レイヤ___3
  6
CONTINUOUS
 62
    7
 10
692.53211308923801
 20
1306.1118318487754
 40
3.0141742050146174
 50
107.93725269249761
 51
131.78077963733912
  0
ARC
  8
_0-1_レイヤ___3
  6
CONTINUOUS
 62
    7
 10
693.160474840451
 20
1304.4500949007372
 40
4.7894342527579798
 50
90.199217590556103
 51
108.96667185652218
  0
ARC
  8
_0-1_レイヤ___3
  6
CONTINUOUS
 62
    7
 10
693.27077244242389
 20
1305.7853588498569
 40
3.4564734773146122
 50
43.840591838264196
 51
92.104850823379223
  0
ARC
  8
_0-1_レイヤ___3
  6
CONTINUOUS
 62
    7
 10
694.98575347681594
 20
1307.6201440289788
 40
0.9582640301063933
 50
1.1574080244272293
 51
35.712489621475591
  0
ARC
  8
_0-1_レイヤ___3
  6
CONTINUOUS
 62
    7
 10
716.21422593307898
 20
1334.5183696920492
 40
0.9329338243524755
 50
307.6286089091592
 51
355.15047175893289
  0
ARC
  8
_0-1_レイヤ___3
  6
CONTINUOUS
 62
    7
 10
715.03132462430904
 20
1335.9844909484541
 40
2.8165979873267331
 50
284.65292302568531
 51
308.47717932850821
  0
ARC
  8
_0-1_レイヤ___3
  6
CONTINUOUS
 62
    7
 10
714.15593219608604
 20
1338.8795933022293
 40
5.8401056599314636
 50
269.88117023749601
 51
285.77698278257742
  0
ARC
  8
_0-1_レイヤ___3
  6
CONTINUOUS
 62
    7
 10
714.06014287597122
 20
1338.3101828617628
 40
5.2713468445511609
 50
248.68250374357103
 51
270.90954881298228
  0
ARC
  8
_0-1_レイヤ___3
  6
CONTINUOUS
 62
    7
 10
712.56294106617224
 20
1334.803270461005
 40
1.4650028700002209
 50
194.37734331524598
 51
253.37605125660426
  0
ARC
  8
_0-1_レイヤ___3
  6
CONTINUOUS
 62
    7
 10
712.07341406152159
 20
1334.3606307128982
 40
0.9329338243528907
 50
127.62860890912374
 51
175.15047175889745
  0
ARC
  8
_0-1_レイヤ___3
  6
CONTINUOUS
 62
    7
 10
713.2563153702913
 20
1332.8945094564947
 40
2.8165979873260403
 50
104.65292302568845
 51
128.47717932851134
  0
ARC
  8
_0-1_レイヤ___3
  6
CONTINUOUS
 62
    7
 10
714.13170779851748
 20
1329.9994071027195
 40
5.8401056599319201
 50
89.881170237528522
 51
105.77698278260992
  0
ARC
  8
_0-1_レイヤ___3
  6
CONTINUOUS
 62
    7
 10
714.22749711862684
 20
1330.5688175431862
 40
5.2713468445508287
 50
68.682503743545979
 51
90.909548812957226
  0
ARC
  8
_0-1_レイヤ___3
  6
CONTINUOUS
 62
    7
 10
715.72469892842776
 20
1334.0757299439429
 40
1.4650028700002733
 50
14.377343315244023
 51
73.37605125660231
  0
ARC
  8
_0-1_レイヤ___3
  6
CONTINUOUS
 62
    7
 10
727.80141729607465
 20
1498.9765902973754
 40
9.5426100578866517
 50
344.20731390939545
 51
0.3777146446850956
  0
ARC
  8
_0-1_レイヤ___3
  6
CONTINUOUS
 62
    7
 10
733.28228333181471
 20
1497.2468905167318
 40
3.8018078742577992
 50
322.63288690479908
 51
346.81166862407576
  0
ARC
  8
_0-1_レイヤ___3
  6
CONTINUOUS
 62
    7
 10
735.69991223212037
 20
1495.3941260308093
 40
0.7559041282735523
 50
273.32998112183998
 51
323.02719909809286
  0
ARC
  8
_0-1_レイヤ___3
  6
CONTINUOUS
 62
    7
 10
735.85214943012659
 20
1495.4374747052091
 40
0.8052960728412952
 50
211.26751477121132
 51
262.26906309280827
  0
ARC
  8
_0-1_レイヤ___3
  6
CONTINUOUS
 62
    7
 10
738.34244344105286
 20
1497.0220076556009
 40
3.7568192805930178
 50
191.71050118860197
 51
212.21062685160837
  0
ARC
  8
_0-1_レイヤ___3
  6
CONTINUOUS
 62
    7
 10
745.67894418700348
 20
1498.9358434329426
 40
11.335598118636767
 50
179.47606967650199
 51
193.65652756498449
  0
ARC
  8
_0-1_レイヤ___3
  6
CONTINUOUS
 62
    7
 10
746.15521431023467
 20
1499.2574142432898
 40
11.813404378775353
 50
165.77914377091054
 51
181.05696691873644
  0
ARC
  8
_0-1_レイヤ___3
  6
CONTINUOUS
 62
    7
 10
737.52809165047893
 20
1501.5816478704662
 40
2.8827801472103998
 50
139.87444010929107
 51
168.43678478159035
  0
ARC
  8
_0-1_レイヤ___3
  6
CONTINUOUS
 62
    7
 10
735.76215483633916
 20
1503.0599950404915
 40
0.5797931364465031
 50
91.812170575768633
 51
139.11451954793242
  0
ARC
  8
_0-1_レイヤ___3
  6
CONTINUOUS
 62
    7
 10
735.61578935573175
 20
1502.7736603473663
 40
0.8752525558477628
 50
33.716435004099445
 51
81.588677997003586
  0
ARC
  8
_0-1_レイヤ___3
  6
CONTINUOUS
 62
    7
 10
733.24458076142469
 20
1500.977741201224
 40
3.8485969981205601
 50
16.014557155906378
 51
36.361664239046526
  0
ARC
  8
_0-1_レイヤ___3
  6
CONTINUOUS
 62
    7
 10
727.18664386245359
 20
1499.2118747178279
 40
10.158638722650659
 50
359.02773185459739
 51
16.161554882582642
  0
ARC
  8
_0-1_レイヤ___3
  6
CONTINUOUS
 62
    7
 10
762.36036937012591
 20
1451.3913976112203
 40
11.554577656539042
 50
57.528331264975293
 51
72.972935753585716
  0
ARC
  8
_0-1_レイヤ___3
  6
CONTINUOUS
 62
    7
 10
767.2732143486121
 20
1458.89450466676
 40
2.5895287053484841
 50
28.736355541903492
 51
60.106193326871278
  0
ARC
  8
_0-1_レイヤ___3
  6
CONTINUOUS
 62
    7
 10
769.02885777841277
 20
1459.889498202474
 40
0.5724387188872517
 50
334.10470160075965
 51
25.895298399240346
  0
ARC
  8
_0-1_レイヤ___3
  6
CONTINUOUS
 62
    7
 10
768.81540390176838
 20
1460.0583599314425
 40
0.8402589816382739
 50
282.95794107615365
 51
330.09976965779362
  0
ARC
  8
_0-1_レイヤ___3
  6
CONTINUOUS
 62
    7
 10
767.74363233542147
 20
1463.9112809902995
 40
4.8387629989253114
 50
266.92208264046849
 51
285.09592927457629
  0
ARC
  8
_0-1_レイヤ___3
  6
CONTINUOUS
 62
    7
 10
767.82807608696487
 20
1470.6489717239785
 40
11.574594153579287
 50
255.57050128744643
 51
268.29563525294105
  0
ARC
  8
_0-1_レイヤ___3
  6
CONTINUOUS
 62
    7
 10
768.15402641911669
 20
1469.7477150361779
 40
10.796516084428349
 50
236.93668533857237
 51
252.7022577206115
  0
ARC
  8
_0-1_レイヤ___3
  6
CONTINUOUS
 62
    7
 10
763.84638996138301
 20
1463.3220681665575
 40
3.0630705032250738
 50
211.10856284869416
 51
238.89143715131365
  0
ARC
  8
_0-1_レイヤ___3
  6
CONTINUOUS
 62
    7
 10
761.82266690134497
 20
1462.0917137071217
 40
0.6947469871818476
 50
167.71837687439174
 51
210.46217696727578
  0
ARC
  8
_0-1_レイヤ___3
  6
CONTINUOUS
 62
    7
 10
761.86157836536211
 20
1461.9610651937114
 40
0.7698714277668901
 50
106.43039372212363
 51
158.7977182170938
  0
ARC
  8
_0-1_レイヤ___3
  6
CONTINUOUS
 62
    7
 10
762.73485867782961
 20
1459.1960589231676
 40
3.6693939807825826
 50
86.735405806567712
 51
107.29759768286166
  0
ARC
  8
_0-1_レイヤ___3
  6
CONTINUOUS
 62
    7
 10
762.68879962209007
 20
1451.616029034411
 40
11.246360936986136
 50
74.237808518184309
 51
88.70066026191428
  0
ARC
  8
_0-1_レイヤ___3
  6
CONTINUOUS
 62
    7
 10
734.35921063539581
 20
1384.135909939851
 40
5.7855368300910639
 50
323.06709597604822
 51
1.0259379897876786
  0
ARC
  8
_0-1_レイヤ___3
  6
CONTINUOUS
 62
    7
 10
737.2196755388245
 20
1382.1377891194265
 40
2.3016393706125831
 50
273.09188616620054
 51
320.03821618793557
  0
ARC
  8
_0-1_レイヤ___3
  6
CONTINUOUS
 62
    7
 10
737.40019440468791
 20
1382.0366628359454
 40
2.1978857367318092
 50
235.76912582822712
 51
268.53023756740947
  0
ARC
  8
_0-1_レイヤ___3
  6
CONTINUOUS
 62
    7
 10
738.44946658183517
 20
1383.4880967337531
 40
3.9884713354476902
 50
191.69684911202347
 51
235.03588289009718
  0
ARC
  8
_0-1_レイヤ___3
  6
CONTINUOUS
 62
    7
 10
740.40081639362029
 20
1384.223217689181
 40
6.0570182817352052
 50
179.84597695238773
 51
194.76554211421694
  0
ARC
  8
_0-1_レイヤ___3
  6
CONTINUOUS
 62
    7
 10
739.88487800899293
 20
1384.2809890886601
 40
5.5412133343357182
 50
141.90809749549109
 51
180.42899634840052
  0
ARC
  8
_0-1_レイヤ___3
  6
CONTINUOUS
 62
    7
 10
737.52916681080001
 20
1386.0487223295265
 40
2.5973993586330457
 50
94.092025133626109
 51
140.53919081324091
  0
ARC
  8
_0-1_レイヤ___3
  6
CONTINUOUS
 62
    7
 10
737.23265675587754
 20
1386.2800182925923
 40
2.3620990981120173
 50
26.64966990206257
 51
87.302594986379034
  0
ARC
  8
_0-1_レイヤ___3
  6
CONTINUOUS
 62
    7
 10
734.44695113247406
 20
1384.4225663018744
 40
5.699809475743316
 50
358.159461456239
 51
30.781126743883853
  0
ARC
  8
_0-1_レイヤ___3
  6
CONTINUOUS
 62
    7
 10
746.36186015497685
 20
1400.2143142792168
 40
26.182928214488616
 50
342.72596831443605
 51
0.492777659059411
  0
ARC
  8
_0-1_レイヤ___3
  6
CONTINUOUS
 62
    7
 10
761.50093201500363
 20
1395.7156050361941
 40
10.392758162915687
 50
327.68232224685454
 51
341.62532586924652
  0
ARC
  8
_0-1_レイヤ___3
  6
CONTINUOUS
 62
    7
 10
766.7538898093344
 20
1392.3474012251536
 40
4.1529890460911973
 50
305.81033211763685
 51
328.20877550842442
  0
ARC
  8
_0-1_レイヤ___3
  6
CONTINUOUS
 62
    7
 10
768.10634376457051
 20
1390.5147216202349
 40
1.8755958609597545
 50
271.14490168926039
 51
305.06262437976864
  0
ARC
  8
_0-1_レイヤ___3
  6
CONTINUOUS
 62
    7
 10
768.19212700890603
 20
1390.5478510615033
 40
1.9089621705335644
 50
235.24252014539479
 51
268.54995378557624
  0
ARC
  8
_0-1_レイヤ___3
  6
CONTINUOUS
 62
    7
 10
769.41194712887182
 20
1392.1996224443701
 40
3.9618982960508653
 50
213.38568470583178
 51
234.36770986601843
  0
ARC
  8
_0-1_レイヤ___3
  6
CONTINUOUS
 62
    7
 10
773.77611703523235
 20
1395.1456726489189
 40
9.2272306673754851
 50
200.33255817751649
 51
213.74848964153969
  0
ARC
  8
_0-1_レイヤ___3
  6
CONTINUOUS
 62
    7
 10
782.04789616142648
 20
1398.3888919757144
 40
18.111295046293499
 50
191.23727042956466
 51
200.86073915549173
  0
ARC
  8
_0-1_レイヤ___3
  6
CONTINUOUS
 62
    7
 10
791.5047577040724
 20
1400.309913528936
 40
27.761240157191086
 50
179.73254809956282
 51
191.32253220375009
  0
ARC
  8
_0-1_レイヤ___3
  6
CONTINUOUS
 62
    7
 10
790.07636847446065
 20
1400.7200686179385
 40
26.334043136931374
 50
162.77211330111922
 51
180.61045279405374
  0
ARC
  8
_0-1_レイヤ___3
  6
CONTINUOUS
 62
    7
 10
774.50281733404972
 20
1405.2877767023735
 40
10.109462238841338
 50
147.63487973693441
 51
161.35684128943885
  0
ARC
  8
_0-1_レイヤ___3
  6
CONTINUOUS
 62
    7
 10
769.50369716000466
 20
1408.5023265762254
 40
4.1663295922094941
 50
125.84665341182985
 51
148.17245421423146
  0
ARC
  8
_0-1_レイヤ___3
  6
CONTINUOUS
 62
    7
 10
768.18078605135327
 20
1410.3286020403134
 40
1.9112556802536669
 50
91.108240502848872
 51
125.76165714296802
  0
ARC
  8
_0-1_レイヤ___3
  6
CONTINUOUS
 62
    7
 10
768.0964476157402
 20
1410.2973830577932
 40
1.9426948155073758
 50
54.527391609438602
 51
88.602710744744513
  0
ARC
  8
_0-1_レイヤ___3
  6
CONTINUOUS
 62
    7
 10
766.86185398157568
 20
1408.6076098027393
 40
4.0353624678975928
 50
33.578778170812036
 51
54.174616401038193
  0
ARC
  8
_0-1_レイヤ___3
  6
CONTINUOUS
 62
    7
 10
762.59421318095121
 20
1405.7351175566293
 40
9.1796308404687448
 50
20.297613806254784
 51
33.783434012801401
  0
ARC
  8
_0-1_レイヤ___3
  6
CONTINUOUS
 62
    7
 10
754.3843033386654
 20
1402.6439887534684
 40
17.952108081690749
 50
10.707809432110956
 51
20.46099290169019
  0
ARC
  8
_0-1_レイヤ___3
  6
CONTINUOUS
 62
    7
 10
744.24164693187527
 20
1400.5773828750339
 40
28.302508932189308
 50
359.7208683345014
 51
11.003596732033797
  0
ARC
  8
_0-1_レイヤ___3
  6
CONTINUOUS
 62
    7
 10
843.03476850446464
 20
870.17713193456416
 40
27.666580522982976
 50
283.18162594285104
 51
300.42119302985117
  0
ARC
  8
_0-1_レイヤ___3
  6
CONTINUOUS
 62
    7
 10
854.12724012229683
 20
850.96792806358872
 40
5.487643729886714
 50
302.10556855634871
 51
321.86885643528876
  0
ARC
  8
_0-1_レイヤ___3
  6
CONTINUOUS
 62
    7
 10
857.42970633231266
 20
848.43897376803693
 40
1.3293244628200984
 50
319.71852899623877
 51
8.6764430958875032
  0
ARC
  8
_0-1_レイヤ___3
  6
CONTINUOUS
 62
    7
 10
857.69472775714553
 20
848.23832698633487
 40
1.1231815081149166
 50
20.927288062771009
 51
63.047136928873293
  0
ARC
  8
_0-1_レイヤ___3
  6
CONTINUOUS
 62
    7
 10
856.29793174330848
 20
845.47997176097738
 40
4.2150345986832862
 50
63.117400973585973
 51
82.558761420683837
  0
ARC
  8
_0-1_レイヤ___3
  6
CONTINUOUS
 62
    7
 10
854.91928792757312
 20
836.30226834675352
 40
13.495172194252987
 50
81.801166531377135
 51
92.954030547544988
  0
ARC
  8
_0-1_レイヤ___3
  6
CONTINUOUS
 62
    7
 10
855.44581008993362
 20
820.16768868998747
 40
29.637022784256516
 50
92.363086320918825
 51
104.66275215475724
  0
ARC
  8
_0-1_レイヤ___3
  6
CONTINUOUS
 62
    7
 10
853.97342381639476
 20
823.19219121457627
 40
26.346556037011251
 50
103.22981481161798
 51
120.89889105669438
  0
ARC
  8
_0-1_レイヤ___3
  6
CONTINUOUS
 62
    7
 10
843.39472633370656
 20
841.11294338424477
 40
5.5382081764176725
 50
122.19668177245329
 51
141.77774321918378
  0
ARC
  8
_0-1_レイヤ___3
  6
CONTINUOUS
 62
    7
 10
840.11737685571291
 20
843.6558128293758
 40
1.3904841368787479
 50
140.54064251702857
 51
188.94931400113487
  0
ARC
  8
_0-1_レイヤ___3
  6
CONTINUOUS
 62
    7
 10
839.85191407118259
 20
843.79521981415053
 40
1.1637883086089538
 50
197.79725899975142
 51
240.7813467204582
  0
ARC
  8
_0-1_レイヤ___3
  6
CONTINUOUS
 62
    7
 10
841.09293001382207
 20
845.96056134144737
 40
3.6595061635822206
 50
240.37246926112977
 51
261.68671512189644
  0
ARC
  8
_0-1_レイヤ___3
  6
CONTINUOUS
 62
    7
 10
842.3299225730043
 20
853.80623152466751
 40
11.601933852597917
 50
261.2441083789173
 51
272.93421596875226
  0
ARC
  8
_0-1_レイヤ___3
  6
CONTINUOUS
 62
    7
 10
841.63126191269293
 20
871.06912591147284
 40
28.87855853721274
 50
272.56532047782179
 51
285.48990542360809
  0
ARC
  8
_0-1_レイヤ___3
  6
CONTINUOUS
 62
    7
 10
817.7912114698463
 20
1127.7695042024741
 40
3.0415123074536563
 50
346.11274075160151
 51
13.887259248398509
  0
ARC
  8
_0-1_レイヤ___3
  6
CONTINUOUS
 62
    7
 10
816.10245602175019
 20
1127.3901578566922
 40
4.7720969047612574
 50
13.442250521708333
 51
32.575489643945055
  0
ARC
  8
_0-1_レイヤ___3
  6
CONTINUOUS
 62
    7
 10
813.09196941588743
 20
1125.3604312082759
 40
8.4022851061645483
 50
33.186071263374281
 51
47.543001882792964
  0
ARC
  8
_0-1_レイヤ___3
  6
CONTINUOUS
 62
    7
 10
808.28008341608722
 20
1120.2550066482061
 40
15.417535395085766
 50
47.157307226142478
 51
69.323732604236042
  0
ARC
  8
_0-1_レイヤ___3
  6
CONTINUOUS
 62
    7
 10
805.38272243340828
 20
1113.8925555145606
 40
22.398016526565915
 50
68.136082095322863
 51
76.151471390047604
  0
ARC
  8
_0-1_レイヤ___3
  6
CONTINUOUS
 62
    7
 10
805.41261117081467
 20
1115.4195037744312
 40
20.911006787375452
 50
75.229525913949956
 51
95.347412193855234
  0
ARC
  8
_0-1_レイヤ___3
  6
CONTINUOUS
 62
    7
 10
804.35323639206047
 20
1126.5870640346388
 40
9.6933308370703362
 50
95.264607644629734
 51
122.0887958197393
  0
ARC
  8
_0-1_レイヤ___3
  6
CONTINUOUS
 62
    7
 10
801.20111253516086
 20
1132.0386015901427
 40
3.4076033684354341
 50
125.88273448125113
 51
162.9188256008139
  0
ARC
  8
_0-1_レイヤ___3
  6
CONTINUOUS
 62
    7
 10
801.72072737837709
 20
1132.2119494888361
 40
3.8665069726171648
 50
167.64127977916948
 51
215.2665030530128
  0
ARC
  8
_0-1_レイヤ___3
  6
CONTINUOUS
 62
    7
 10
805.64126475843864
 20
1134.4647022970757
 40
8.3789752532623716
 50
212.36371365526574
 51
226.97196858140185
  0
ARC
  8
_0-1_レイヤ___3
  6
CONTINUOUS
 62
    7
 10
810.2242925868868
 20
1139.323895481944
 40
15.058439074131195
 50
226.84037715079077
 51
249.06515187596048
  0
ARC
  8
_0-1_レイヤ___3
  6
CONTINUOUS
 62
    7
 10
813.29179300305384
 20
1145.7139319650523
 40
22.130338067920938
 50
247.55867038579581
 51
256.01558307373614
  0
ARC
  8
_0-1_レイヤ___3
  6
CONTINUOUS
 62
    7
 10
813.22575098393122
 20
1144.249213976286
 40
20.695102806696141
 50
255.21301521199874
 51
275.20672334328322
  0
ARC
  8
_0-1_レイヤ___3
  6
CONTINUOUS
 62
    7
 10
814.19691471443139
 20
1133.2720586464793
 40
9.6751528312898181
 50
275.37854449589582
 51
302.13875619977824
  0
ARC
  8
_0-1_レイヤ___3
  6
CONTINUOUS
 62
    7
 10
817.23294604635521
 20
1128.0672713102915
 40
3.6582155660014628
 50
305.24141664603405
 51
343.68322777002385
  0
ARC
  8
_0-1_レイヤ___3
  6
CONTINUOUS
 62
    7
 10
837.31355010497714
 20
1054.8697720810387
 40
4.4303712871745251
 50
270.39146844762041
 51
359.60855759591573
  0
ARC
  8
_0-1_レイヤ___3
  6
CONTINUOUS
 62
    7
 10
837.34109966193671
 20
1054.8367838671109
 40
4.3972805060910645
 50
179.96455451388533
 51
270.03544548611541
  0
ARC
  8
_0-1_レイヤ___3
  6
CONTINUOUS
 62
    7
 10
837.52698604977604
 20
1054.656338149998
 40
4.5868247042313159
 50
92.28860565918049
 51
177.7113943408188
  0
ARC
  8
_0-1_レイヤ___3
  6
CONTINUOUS
 62
    7
 10
837.16065294482405
 20
1054.656339233255
 40
4.5868236617714837
 50
2.288592637412791
 51
87.7113813190511
  0
ARC
  8
_0-1_レイヤ___3
  6
CONTINUOUS
 62
    7
 10
815.20498866594153
 20
961.95519897860606
 40
2.3403503379922412
 50
278.32442610537532
 51
2.0644317100887446
  0
ARC
  8
_0-1_レイヤ___3
  6
CONTINUOUS
 62
    7
 10
815.66102201958358
 20
961.95527472290064
 40
2.3187324455887306
 50
177.91818570674769
 51
267.10270844926993
  0
ARC
  8
_0-1_レイヤ___3
  6
CONTINUOUS
 62
    7
 10
815.63897668968912
 20
961.94434951008543
 40
2.2971284332235813
 50
92.374110760971902
 51
177.62588923904011
  0
ARC
  8
_0-1_レイヤ___3
  6
CONTINUOUS
 62
    7
 10
815.45317006679761
 20
962.14800626565398
 40
2.093463492784311
 50
357.02914228055187
 51
87.518235731613302
  0
ARC
  8
_0-1_レイヤ___3
  6
CONTINUOUS
 62
    7
 10
825.96262680247605
 20
904.70154841695512
 40
0.9831527459895426
 50
309.18585214168991
 51
356.38192474368128
  0
ARC
  8
_0-1_レイヤ___3
  6
CONTINUOUS
 62
    7
 10
824.91895575849639
 20
905.94481682474088
 40
2.6063467968446083
 50
284.32493686901603
 51
309.70039382689822
  0
ARC
  8
_0-1_レイヤ___3
  6
CONTINUOUS
 62
    7
 10
824.18337583474624
 20
908.61856570708346
 40
5.3792049429632049
 50
269.57867324436813
 51
284.86995814367378
  0
ARC
  8
_0-1_レイヤ___3
  6
CONTINUOUS
 62
    7
 10
823.96204436329299
 20
908.4388523984303
 40
5.2025227771264273
 50
249.07303913996412
 51
272.00231644397741
  0
ARC
  8
_0-1_レイヤ___3
  6
CONTINUOUS
 62
    7
 10
822.51758589786073
 20
904.91895456524674
 40
1.4019001879591253
 50
191.49809890263461
 51
252.8336790647819
  0
ARC
  8
_0-1_レイヤ___3
  6
CONTINUOUS
 62
    7
 10
822.27428988931342
 20
904.56928362204667
 40
1.1326488368205068
 50
132.86218275823461
 51
176.44546535784804
  0
ARC
  8
_0-1_レイヤ___3
  6
CONTINUOUS
 62
    7
 10
823.31977335685281
 20
903.39282960464061
 40
2.7063698144124899
 50
107.10379872604733
 51
132.143698776306
  0
ARC
  8
_0-1_レイヤ___3
  6
CONTINUOUS
 62
    7
 10
824.11514579671211
 20
901.24124545229597
 40
4.9983429990901787
 50
89.671307133892128
 51
108.56441837371379
  0
ARC
  8
_0-1_レイヤ___3
  6
CONTINUOUS
 62
    7
 10
824.27077044242401
 20
902.78536484985693
 40
3.4564734773146251
 50
43.840591838263663
 51
92.104850823378683
  0
ARC
  8
_0-1_レイヤ___3
  6
CONTINUOUS
 62
    7
 10
825.98575147681572
 20
904.62015002897931
 40
0.9582640301062644
 50
1.1574080243996474
 51
35.712489621448007
  0
ARC
  8
_0-1_レイヤ___3
  6
CONTINUOUS
 62
    7
 10
847.21422393307876
 20
931.51837569204929
 40
0.932933824352524
 50
307.62860890916079
 51
355.15047175893449
  0
ARC
  8
_0-1_レイヤ___3
  6
CONTINUOUS
 62
    7
 10
846.03132262430927
 20
932.98449694845442
 40
2.8165979873266704
 50
284.65292302568275
 51
308.47717932850566
  0
ARC
  8
_0-1_レイヤ___3
  6
CONTINUOUS
 62
    7
 10
845.15593019608275
 20
935.87959930222894
 40
5.840105659931913
 50
269.88117023752807
 51
285.77698278260942
  0
ARC
  8
_0-1_レイヤ___3
  6
CONTINUOUS
 62
    7
 10
845.0601408759735
 20
935.31018886176275
 40
5.2713468445515534
 50
248.68250374354739
 51
270.90954881295863
  0
ARC
  8
_0-1_レイヤ___3
  6
CONTINUOUS
 62
    7
 10
843.56293906617225
 20
931.80327646100534
 40
1.4650028700002538
 50
194.37734331524476
 51
253.37605125660303
  0
ARC
  8
_0-1_レイヤ___3
  6
CONTINUOUS
 62
    7
 10
843.07341206152137
 20
931.36063671289889
 40
0.9329338243526881
 50
127.6286089091416
 51
175.1504717589153
  0
ARC
  8
_0-1_レイヤ___3
  6
CONTINUOUS
 62
    7
 10
844.25631337029108
 20
929.89451545649422
 40
2.8165979873266753
 50
104.65292302568298
 51
128.47717932850585
  0
ARC
  8
_0-1_レイヤ___3
  6
CONTINUOUS
 62
    7
 10
845.13170579851419
 20
926.99941310271913
 40
5.8401056599314636
 50
89.88117023749605
 51
105.77698278257745
  0
ARC
  8
_0-1_レイヤ___3
  6
CONTINUOUS
 62
    7
 10
845.22749511862912
 20
927.568823543186
 40
5.2713468445504112
 50
68.682503743571118
 51
90.909548812982365
  0
ARC
  8
_0-1_レイヤ___3
  6
CONTINUOUS
 62
    7
 10
846.72469692842787
 20
931.0757359439433
 40
1.4650028700002504
 50
14.377343315244875
 51
73.376051256603162
  0
ARC
  8
_0-1_レイヤ___3
  6
CONTINUOUS
 62
    7
 10
776.24866330491182
 20
832.93466489486264
 40
2.2971284332229551
 50
272.37411076096373
 51
357.62588923903189
  0
ARC
  8
_0-1_レイヤ___3
  6
CONTINUOUS
 62
    7
 10
776.53436672427597
 20
832.82182340881582
 40
2.1906181125405149
 50
179.53744788335359
 51
265.00993012883532
  0
ARC
  8
_0-1_レイヤ___3
  6
CONTINUOUS
 62
    7
 10
776.77854672946955
 20
832.84390259233328
 40
2.4347306978393908
 50
100.28544591477259
 51
180.10341190070238
  0
ARC
  8
_0-1_レイヤ___3
  6
CONTINUOUS
 62
    7
 10
776.22661797501655
 20
832.92373968204754
 40
2.3187324455888358
 50
357.91818570673848
 51
87.102708449260732
  0
ARC
  8
_0-1_レイヤ___3
  6
CONTINUOUS
 62
    7
 10
787.01422593307848
 20
775.7183776920499
 40
0.9329338243533552
 50
307.6286089091393
 51
355.150471758913
  0
ARC
  8
_0-1_レイヤ___3
  6
CONTINUOUS
 62
    7
 10
785.83132462431024
 20
777.18449894845344
 40
2.8165979873255598
 50
284.65292302566888
 51
308.47717932849179
  0
ARC
  8
_0-1_レイヤ___3
  6
CONTINUOUS
 62
    7
 10
784.95593219608452
 20
780.07960130222932
 40
5.840105659931691
 50
269.88117023751226
 51
285.77698278259368
  0
ARC
  8
_0-1_レイヤ___3
  6
CONTINUOUS
 62
    7
 10
784.82767942281976
 20
778.82043294827076
 40
4.5823967702166071
 50
247.08996775444569
 51
271.45231364952599
  0
ARC
  8
_0-1_レイヤ___3
  6
CONTINUOUS
 62
    7
 10
783.49287486273147
 20
775.89753645140559
 40
1.3735092308357633
 50
190.82795669628203
 51
250.91685989871695
  0
ARC
  8
_0-1_レイヤ___3
  6
CONTINUOUS
 62
    7
 10
783.12501319212402
 20
775.57746598799281
 40
0.9831527459897125
 50
129.18585214167177
 51
176.38192474366309
  0
ARC
  8
_0-1_レイヤ___3
  6
CONTINUOUS
 62
    7
 10
784.16868423610276
 20
774.33419758020727
 40
2.6063467968441349
 50
104.32493686899561
 51
129.70039382687779
  0
ARC
  8
_0-1_レイヤ___3
  6
CONTINUOUS
 62
    7
 10
784.90426415985576
 20
771.66044869786469
 40
5.3792049429634181
 50
89.578673244385939
 51
104.86995814369159
  0
ARC
  8
_0-1_レイヤ___3
  6
CONTINUOUS
 62
    7
 10
785.02749711862919
 20
771.76882554318604
 40
5.2713468445504024
 50
68.682503743571601
 51
90.909548812982848
  0
ARC
  8
_0-1_レイヤ___3
  6
CONTINUOUS
 62
    7
 10
786.52469892842782
 20
775.275737943943
 40
1.46500287000046
 50
14.377343315252647
 51
73.376051256610936
  0
ARC
  8
_0-1_レイヤ___3
  6
CONTINUOUS
 62
    7
 10
807.77500389066836
 20
802.52636733134636
 40
1.172039077586907
 50
312.30126513387648
 51
355.74994694123319
  0
ARC
  8
_0-1_レイヤ___3
  6
CONTINUOUS
 62
    7
 10
806.70989464408058
 20
803.67164548138908
 40
2.7360072449664221
 50
287.30670179974572
 51
312.65657693793963
  0
ARC
  8
_0-1_レイヤ___3
  6
CONTINUOUS
 62
    7
 10
806.16302215964481
 20
805.15724009321605
 40
4.3177745892262616
 50
269.74519131006087
 51
288.37058494719406
  0
ARC
  8
_0-1_レイヤ___3
  6
CONTINUOUS
 62
    7
 10
806.03924346317717
 20
805.5250601040342
 40
4.6867187747616512
 50
248.00332644594849
 51
271.27856857787287
  0
ARC
  8
_0-1_レイヤ___3
  6
CONTINUOUS
 62
    7
 10
804.86538710264597
 20
802.85140225016812
 40
1.770155361750759
 50
193.45538192829227
 51
250.81980761949708
  0
ARC
  8
_0-1_レイヤ___3
  6
CONTINUOUS
 62
    7
 10
804.10692916976018
 20
802.38676634235208
 40
0.9645522183302041
 50
128.70228202315974
 51
176.86549486224149
  0
ARC
  8
_0-1_レイヤ___3
  6
CONTINUOUS
 62
    7
 10
805.1964862394093
 20
801.02945778586718
 40
2.7050751870881466
 50
103.52568277178023
 51
128.7363183180974
  0
ARC
  8
_0-1_レイヤ___3
  6
CONTINUOUS
 62
    7
 10
806.04907015372987
 20
797.64675682936308
 40
6.1934761727179328
 50
89.123436052052199
 51
103.87525650724706
  0
ARC
  8
_0-1_レイヤ___3
  6
CONTINUOUS
 62
    7
 10
806.25996057178043
 20
799.25858345667689
 40
4.5823967702172688
 50
67.08996775444723
 51
91.452313649527511
  0
ARC
  8
_0-1_レイヤ___3
  6
CONTINUOUS
 62
    7
 10
807.59476513186883
 20
802.18147995354286
 40
1.3735092308355772
 50
10.827956696273072
 51
70.916859898708012
  0
ARC
  8
_0-1_レイヤ___3
  6
CONTINUOUS
 62
    7
 10
857.30152225460392
 20
1095.8750914362729
 40
10.843542250103415
 50
345.16911754917146
 51
0.8687676371773439
  0
ARC
  8
_0-1_レイヤ___3
  6
CONTINUOUS
 62
    7
 10
865.0499687416891
 20
1093.6664288302807
 40
2.7920127660916405
 50
318.58540418928658
 51
348.28449345653331
  0
ARC
  8
_0-1_レイヤ___3
  6
CONTINUOUS
 62
    7
 10
866.73060084216422
 20
1092.2033201027757
 40
0.5639707994414218
 50
271.34290028227593
 51
317.11259035371023
  0
ARC
  8
_0-1_レイヤ___3
  6
CONTINUOUS
 62
    7
 10
866.85214743012671
 20
1092.4374807052095
 40
0.8052960728415714
 50
211.2675147712242
 51
262.26906309282117
  0
ARC
  8
_0-1_レイヤ___3
  6
CONTINUOUS
 62
    7
 10
869.34244144105287
 20
1094.0220136556002
 40
3.7568192805928118
 50
191.71050118859011
 51
212.21062685159652
  0
ARC
  8
_0-1_レイヤ___3
  6
CONTINUOUS
 62
    7
 10
876.67894218700326
 20
1095.935849432944
 40
11.335598118636753
 50
179.47606967650785
 51
193.65652756499034
  0
ARC
  8
_0-1_レイヤ___3
  6
CONTINUOUS
 62
    7
 10
876.16413484274119
 20
1096.3143673811817
 40
10.823807389396119
 50
165.52694359748256
 51
181.45514352150673
  0
ARC
  8
_0-1_レイヤ___3
  6
CONTINUOUS
 62
    7
 10
868.29890953609242
 20
1098.4580642401365
 40
2.6746810253884306
 50
138.23797085436931
 51
167.88297301801714
  0
ARC
  8
_0-1_レイヤ___3
  6
CONTINUOUS
 62
    7
 10
866.76297950517073
 20
1099.8133488851604
 40
0.6264484374507643
 50
91.75280953873775
 51
137.13510002223683
  0
ARC
  8
_0-1_レイヤ___3
  6
CONTINUOUS
 62
    7
 10
866.65271532969746
 20
1099.6455054602266
 40
0.799208169837821
 50
32.890547069984628
 51
83.4545597765797
  0
ARC
  8
_0-1_レイヤ___3
  6
CONTINUOUS
 62
    7
 10
864.39186729597191
 20
1098.1090006248585
 40
3.5325938436809978
 50
12.266033915361696
 51
33.904233430271795
  0
ARC
  8
_0-1_レイヤ___3
  6
CONTINUOUS
 62
    7
 10
856.70820083220747
 20
1096.24890663172
 40
11.437534232689044
 50
358.95094995603176
 51
13.193962858381321
  0
ARC
  8
_0-1_レイヤ___3
  6
CONTINUOUS
 62
    7
 10
888.2014152960744
 20
1057.776596297377
 40
9.5426100578868471
 50
344.20731390938948
 51
0.3777146446791344
  0
ARC
  8
_0-1_レイヤ___3
  6
CONTINUOUS
 62
    7
 10
893.68228133181242
 20
1056.0468965167311
 40
3.8018078742594263
 50
322.63288690482199
 51
346.81166862409862
  0
ARC
  8
_0-1_レイヤ___3
  6
CONTINUOUS
 62
    7
 10
896.0999102321216
 20
1054.1941320308092
 40
0.7559041282730534
 50
273.32998112176938
 51
323.02719909802227
  0
ARC
  8
_0-1_レイヤ___3
  6
CONTINUOUS
 62
    7
 10
896.25214743012657
 20
1054.2374807052095
 40
0.8052960728412952
 50
211.26751477121132
 51
262.26906309280827
  0
ARC
  8
_0-1_レイヤ___3
  6
CONTINUOUS
 62
    7
 10
898.74244144105296
 20
1055.8220136556013
 40
3.7568192805931107
 50
191.7105011886014
 51
212.2106268516078
  0
ARC
  8
_0-1_レイヤ___3
  6
CONTINUOUS
 62
    7
 10
906.07894218700358
 20
1057.735849432943
 40
11.335598118636696
 50
179.47606967650199
 51
193.65652756498451
  0
ARC
  8
_0-1_レイヤ___3
  6
CONTINUOUS
 62
    7
 10
905.58611373999634
 20
1058.0039169686752
 40
10.843542250103479
 50
165.16911754917152
 51
180.8687676371774
  0
ARC
  8
_0-1_レイヤ___3
  6
CONTINUOUS
 62
    7
 10
897.83766725291287
 20
1060.2125795746679
 40
2.792012766093221
 50
138.58540418930278
 51
168.28449345654951
  0
ARC
  8
_0-1_レイヤ___3
  6
CONTINUOUS
 62
    7
 10
896.1570351524349
 20
1061.6756883021728
 40
0.5639707994409438
 50
91.342900282168031
 51
137.11259035360234
  0
ARC
  8
_0-1_レイヤ___3
  6
CONTINUOUS
 62
    7
 10
896.01139604153582
 20
1061.3667326933714
 40
0.8827602627379184
 50
33.932559253002005
 51
81.372553748224504
  0
ARC
  8
_0-1_レイヤ___3
  6
CONTINUOUS
 62
    7
 10
893.63528017151589
 20
1059.590211706128
 40
3.8487265229301082
 50
15.511819766116032
 51
36.130164182238921
  0
ARC
  8
_0-1_レイヤ___3
  6
CONTINUOUS
 62
    7
 10
888.37108565637834
 20
1057.9096865994638
 40
9.3729950978011818
 50
359.57098102819549
 51
16.804622995611783
  0
ARC
  8
_0-1_レイヤ___3
  6
CONTINUOUS
 62
    7
 10
811.79288753737546
 20
1013.0962523414508
 40
11.987830207258492
 50
159.7802507513162
 51
175.39116395650731
  0
ARC
  8
_0-1_レイヤ___3
  6
CONTINUOUS
 62
    7
 10
801.63882255502676
 20
1013.726358843748
 40
1.8256564147921395
 50
169.48570345483262
 51
224.81914002560032
  0
ARC
  8
_0-1_レイヤ___3
  6
CONTINUOUS
 62
    7
 10
800.42608144190444
 20
1013.2454957242019
 40
0.8101765575496326
 50
264.17241861063746
 51
311.5849745810084
  0
ARC
  8
_0-1_レイヤ___3
  6
CONTINUOUS
 62
    7
 10
797.72163531945466
 20
1016.8155433969827
 40
5.2868750822367669
 50
307.82498902235699
 51
325.2165502999311
  0
ARC
  8
_0-1_レイヤ___3
  6
CONTINUOUS
 62
    7
 10
791.5002935427483
 20
1021.3215213193604
 40
12.96799146262379
 50
324.54631117370729
 51
335.96392623240899
  0
ARC
  8
_0-1_レイヤ___3
  6
CONTINUOUS
 62
    7
 10
796.46641814477789
 20
1019.3440727514981
 40
7.6301255768176626
 50
334.33588480937527
 51
6.7394619257948492
  0
ARC
  8
_0-1_レイヤ___3
  6
CONTINUOUS
 62
    7
 10
803.52590332963223
 20
1020.1635667017234
 40
0.5234540845847796
 50
8.3413346011734166
 51
65.398460690442192
  0
ARC
  8
_0-1_レイヤ___3
  6
CONTINUOUS
 62
    7
 10
803.45701342565098
 20
1019.8722475383881
 40
0.8191097595107748
 50
69.503861716521897
 51
120.29432319111842
  0
ARC
  8
_0-1_レイヤ___3
  6
CONTINUOUS
 62
    7
 10
804.65755700812019
 20
1017.7182998971228
 40
3.284910534101229
 50
119.42326844143489
 51
141.58242832920709
  0
ARC
  8
_0-1_レイヤ___3
  6
CONTINUOUS
 62
    7
 10
810.23547480463685
 20
1013.047378493128
 40
10.559455839958897
 50
140.53173610925742
 51
156.60909219531962
  0
ARC
  8
_0-1_レイヤ___3
  6
CONTINUOUS
 62
    7
 10
725.88240959454822
 20
897.36922787436595
 40
11.297302172089346
 50
158.88213802582339
 51
174.15608234430363
  0
ARC
  8
_0-1_レイヤ___3
  6
CONTINUOUS
 62
    7
 10
717.25248898508517
 20
898.10849694393596
 40
2.6408488215792487
 50
171.04635746169507
 51
201.99324604163806
  0
ARC
  8
_0-1_レイヤ___3
  6
CONTINUOUS
 62
    7
 10
715.26935988551054
 20
897.33837606672887
 40
0.5144233713526321
 50
205.18018911843293
 51
255.87489118473468
  0
ARC
  8
_0-1_レイヤ___3
  6
CONTINUOUS
 62
    7
 10
715.38790533038059
 20
897.36231153935
 40
0.5769775299706551
 50
244.97325211847368
 51
303.19798144146671
  0
ARC
  8
_0-1_レイヤ___3
  6
CONTINUOUS
 62
    7
 10
713.93333893728686
 20
899.7424140301066
 40
3.3661319661277394
 50
301.73349870750673
 51
323.06137688751312
  0
ARC
  8
_0-1_レイヤ___3
  6
CONTINUOUS
 62
    7
 10
707.69835215056082
 20
904.82153442749109
 40
11.406260613895933
 50
321.49060239244062
 51
336.31477183600418
  0
ARC
  8
_0-1_レイヤ___3
  6
CONTINUOUS
 62
    7
 10
711.26641470315667
 20
903.54407375149822
 40
7.6301291120121064
 50
334.3358892337651
 51
6.739466350184685
  0
ARC
  8
_0-1_レイヤ___3
  6
CONTINUOUS
 62
    7
 10
718.32590332963287
 20
904.36356870172347
 40
0.5234540845840208
 50
8.341334601235701
 51
65.398460690504479
  0
ARC
  8
_0-1_レイヤ___3
  6
CONTINUOUS
 62
    7
 10
718.25701342564969
 20
904.07224953838818
 40
0.8191097595106846
 50
69.503861716448569
 51
120.29432319104509
  0
ARC
  8
_0-1_レイヤ___3
  6
CONTINUOUS
 62
    7
 10
719.45755700812242
 20
901.91830189712289
 40
3.2849105341027736
 50
119.42326844146643
 51
141.58242832923864
  0
ARC
  8
_0-1_レイヤ___3
  6
CONTINUOUS
 62
    7
 10
725.03548188532
 20
897.24737949312771
 40
10.559461941733257
 50
140.53175634212619
 51
156.60911242818838
  0
ARC
  8
_0-1_レイヤ___3
  6
CONTINUOUS
 62
    7
 10
865.56422884065569
 20
981.13270258802254
 40
5.5806112719848491
 50
322.03348951503665
 51
1.096612839120384
  0
ARC
  8
_0-1_レイヤ___3
  6
CONTINUOUS
 62
    7
 10
868.06273366931066
 20
979.36691722217131
 40
2.5287113577341547
 50
271.83753130310913
 51
318.74651101095975
  0
ARC
  8
_0-1_レイヤ___3
  6
CONTINUOUS
 62
    7
 10
868.2549812387233
 20
979.19898811235555
 40
2.3620990981122896
 50
206.6496699020399
 51
267.30259498635633
  0
ARC
  8
_0-1_レイヤ___3
  6
CONTINUOUS
 62
    7
 10
871.04068686212599
 20
981.05644010307458
 40
5.699809475743411
 50
178.159461456244
 51
210.78112674388885
  0
ARC
  8
_0-1_レイヤ___3
  6
CONTINUOUS
 62
    7
 10
871.12842735920458
 20
981.34309646509735
 40
5.7855368300912504
 50
143.0670959760443
 51
181.02593798978373
  0
ARC
  8
_0-1_レイヤ___3
  6
CONTINUOUS
 62
    7
 10
868.26796245577555
 20
983.34121728552259
 40
2.3016393706122544
 50
93.09188616620402
 51
140.03821618793904
  0
ARC
  8
_0-1_レイヤ___3
  6
CONTINUOUS
 62
    7
 10
868.09006311892381
 20
983.065926410972
 40
2.5741411247592949
 50
30.68370014399834
 51
88.803425528936472
  0
ARC
  8
_0-1_レイヤ___3
  6
CONTINUOUS
 62
    7
 10
865.71618814768385
 20
981.4698854783727
 40
5.4325169484510845
 50
357.56950232832639
 51
32.384169550764128
  0
ARC
  8
_0-1_レイヤ___3
  6
CONTINUOUS
 62
    7
 10
914.65074942537649
 20
1157.9600702022431
 40
3.6939227008141295
 50
1.2321506297587934
 51
48.801636326445887
  0
ARC
  8
_0-1_レイヤ___3
  6
CONTINUOUS
 62
    7
 10
912.66485477321112
 20
1155.876510624719
 40
6.5708388399934474
 50
47.738816441796892
 51
92.800461048744438
  0
ARC
  8
_0-1_レイヤ___3
  6
CONTINUOUS
 62
    7
 10
912.2866559058599
 20
1155.7866264185766
 40
6.6531213502132847
 50
89.507721757801093
 51
139.81615007402809
  0
ARC
  8
_0-1_レイヤ___3
  6
CONTINUOUS
 62
    7
 10
910.16995006813147
 20
1157.9931065324988
 40
3.6264288705701757
 50
144.87720907430713
 51
179.2669514016616
  0
ARC
  8
_0-1_レイヤ___3
  6
CONTINUOUS
 62
    7
 10
910.5759714931778
 20
1158.086728573069
 40
4.0324300544955332
 50
180.67104290500217
 51
226.96029940491567
  0
ARC
  8
_0-1_レイヤ___3
  6
CONTINUOUS
 62
    7
 10
912.11198937501513
 20
1159.6820519832195
 40
6.2468529897218446
 50
226.65001015142641
 51
272.12680728808516
  0
ARC
  8
_0-1_レイヤ___3
  6
CONTINUOUS
 62
    7
 10
912.44946011646539
 20
1160.2955092480299
 40
6.8568209008297973
 50
269.11721668942766
 51
319.24834180435425
  0
ARC
  8
_0-1_レイヤ___3
  6
CONTINUOUS
 62
    7
 10
914.43275155463027
 20
1158.0523609907029
 40
3.911087581148363
 50
325.18665361252226
 51
359.81162384957912
  0
ARC
  8
_0-1_レイヤ___3
  6
CONTINUOUS
 62
    7
 10
920.97528028980605
 20
843.46254360960529
 40
8.377023675866397
 50
2.5791709697641476
 51
90.215191084826941
  0
ARC
  8
_0-1_レイヤ___3
  6
CONTINUOUS
 62
    7
 10
921.25779523349422
 20
843.31518153537536
 40
8.5301070821098932
 50
92.10942664158128
 51
176.47593462132866
  0
ARC
  8
_0-1_レイヤ___3
  6
CONTINUOUS
 62
    7
 10
920.94474696453346
 20
844.25074121930925
 40
8.2112330693839706
 50
182.87067445225486
 51
269.99351791607455
  0
ARC
  8
_0-1_レイヤ___3
  6
CONTINUOUS
 62
    7
 10
920.69457681774998
 20
844.73099870352803
 40
8.6950634440179293
 50
271.64258997166439
 51
354.11521723501579
  0
ARC
  8
_0-1_レイヤ___3
  6
CONTINUOUS
 62
    7
 10
891.51339168828849
 20
901.76189470410441
 40
3.2327438938594959
 50
305.78706357790867
 51
357.83031967449989
  0
ARC
  8
_0-1_レイヤ___3
  6
CONTINUOUS
 62
    7
 10
888.39638589178571
 20
905.32822167923143
 40
7.9608150049849424
 50
278.7238292777497
 51
308.97711853841201
  0
ARC
  8
_0-1_レイヤ___3
  6
CONTINUOUS
 62
    7
 10
887.3399280611884
 20
908.99764827347428
 40
11.758142714451898
 50
270.01895511317167
 51
281.10093941341455
  0
ARC
  8
_0-1_レイヤ___3
  6
CONTINUOUS
 62
    7
 10
887.25543491131043
 20
908.0482219398109
 40
10.809077086432335
 50
242.97382909539726
 51
270.46849829987025
  0
ARC
  8
_0-1_レイヤ___3
  6
CONTINUOUS
 62
    7
 10
884.67396193000752
 20
902.89220808677499
 40
5.0432760080094328
 50
205.01656454330353
 51
242.48183382716667
  0
ARC
  8
_0-1_レイヤ___3
  6
CONTINUOUS
 62
    7
 10
882.55935696310075
 20
901.66051328716389
 40
2.6156233251803611
 50
180.46016955916971
 51
200.14952337831286
  0
ARC
  8
_0-1_レイヤ___3
  6
CONTINUOUS
 62
    7
 10
883.40890167339751
 20
901.54078948809183
 40
3.4664895603555088
 50
127.8093671185345
 51
178.36814282639807
  0
ARC
  8
_0-1_レイヤ___3
  6
CONTINUOUS
 62
    7
 10
886.28277289048071
 20
898.38167367713663
 40
7.7313633028712836
 50
98.921249020456898
 51
130.28433929610816
  0
ARC
  8
_0-1_レイヤ___3
  6
CONTINUOUS
 62
    7
 10
887.33658805902053
 20
894.59559556845204
 40
11.643912878629186
 50
89.964423902814829
 51
101.15547062381707
  0
ARC
  8
_0-1_レイヤ___3
  6
CONTINUOUS
 62
    7
 10
887.4075589161481
 20
895.64483783709898
 40
10.594860106533803
 50
62.230820677854645
 51
90.344705605075802
  0
ARC
  8
_0-1_レイヤ___3
  6
CONTINUOUS
 62
    7
 10
889.93760774980865
 20
900.54967983716688
 40
5.0763368181325976
 50
24.31041384607526
 51
61.705399007991367
  0
ARC
  8
_0-1_レイヤ___3
  6
CONTINUOUS
 62
    7
 10
891.75376339390425
 20
901.61749637386276
 40
2.9901356096077776
 50
0.4217473185002134
 51
19.986200124963904
  0
ARC
  8
_0-1_レイヤ___3
  6
CONTINUOUS
 62
    7
 10
789.30956257313119
 20
911.63284193521929
 40
29.279058427002841
 50
147.32572416767496
 51
157.07135827246279
  0
ARC
  8
_0-1_レイヤ___3
  6
CONTINUOUS
 62
    7
 10
769.12316702421151
 20
924.80435619176637
 40
5.1797482067528744
 50
127.02904644031699
 51
149.4199987727167
  0
ARC
  8
_0-1_レイヤ___3
  6
CONTINUOUS
 62
    7
 10
766.35668248686045
 20
928.54204875884636
 40
0.5314925738275805
 50
69.384303629767672
 51
131.59865039478271
  0
ARC
  8
_0-1_レイヤ___3
  6
CONTINUOUS
 62
    7
 10
766.30643776645798
 20
928.57935387375608
 40
0.5177745543612462
 50
2.2305752383809425
 51
62.711809343347539
  0
ARC
  8
_0-1_レイヤ___3
  6
CONTINUOUS
 62
    7
 10
762.60111197684409
 20
928.13851808935692
 40
4.2477962599987675
 50
347.2287828378947
 51
6.2302413157516705
  0
ARC
  8
_0-1_レイヤ___3
  6
CONTINUOUS
 62
    7
 10
743.47901145817616
 20
932.03007623426902
 40
23.7610126718996
 50
334.60363858530377
 51
348.2701072412076
  0
ARC
  8
_0-1_レイヤ___3
  6
CONTINUOUS
 62
    7
 10
737.79732820851848
 20
932.79275092055605
 40
29.272949736789201
 50
328.22833578406869
 51
338.02658623262033
  0
ARC
  8
_0-1_レイヤ___3
  6
CONTINUOUS
 62
    7
 10
757.708885855169
 20
920.18488854651071
 40
5.7114043644953849
 50
309.52645172313424
 51
330.58120037696909
  0
ARC
  8
_0-1_レイヤ___3
  6
CONTINUOUS
 62
    7
 10
760.93056697093607
 20
916.19487631546247
 40
0.5859269532654445
 50
251.41443186504691
 51
314.85361274780411
  0
ARC
  8
_0-1_レイヤ___3
  6
CONTINUOUS
 62
    7
 10
760.98090979302788
 20
916.09947243611896
 40
0.5174751272590121
 50
182.21124629067776
 51
242.73113829094359
  0
ARC
  8
_0-1_レイヤ___3
  6
CONTINUOUS
 62
    7
 10
764.79612602622205
 20
916.54768614450632
 40
4.3575300327540925
 50
167.38309962504417
 51
186.16785516190436
  0
ARC
  8
_0-1_レイヤ___3
  6
CONTINUOUS
 62
    7
 10
786.18018833593851
 20
912.2324190166355
 40
26.171847260320547
 50
155.61110288570217
 51
168.38992831543587
  0
ARC
  8
_0-1_レイヤ___3
  6
CONTINUOUS
 62
    7
 10
884.06469167336354
 20
834.31863452641096
 40
7.6841975900995489
 50
272.0817111025861
 51
357.91828889741043
  0
ARC
  8
_0-1_レイヤ___3
  6
CONTINUOUS
 62
    7
 10
884.65720714216877
 20
834.14713007315743
 40
7.5141598937793042
 50
180.82064926755018
 51
267.60970152646871
  0
ARC
  8
_0-1_レイヤ___3
  6
CONTINUOUS
 62
    7
 10
884.50683449050871
 20
834.07819485773064
 40
7.3631181259406588
 50
91.26860931632342
 51
180.30103988966115
  0
ARC
  8
_0-1_レイヤ___3
  6
CONTINUOUS
 62
    7
 10
884.36656594515796
 20
834.06225615033213
 40
7.3772871240020113
 50
359.82332753919525
 51
90.176672460804753
  0
ARC
  8
_0-1_レイヤ___3
  6
CONTINUOUS
 62
    7
 10
795.46847220279778
 20
859.71839714805981
 40
7.8890319810141305
 50
330.04717864842968
 51
18.637022746756024
  0
ARC
  8
_0-1_レイヤ___3
  6
CONTINUOUS
 62
    7
 10
792.70455009221848
 20
861.15241804611617
 40
11.00064284023934
 50
287.12527178999972
 51
330.76335847813147
  0
ARC
  8
_0-1_レイヤ___3
  6
CONTINUOUS
 62
    7
 10
792.43942765939551
 20
861.23771908291928
 40
11.162564200233994
 50
236.77915346180583
 51
288.29692596654274
  0
ARC
  8
_0-1_レイヤ___3
  6
CONTINUOUS
 62
    7
 10
791.18975649080176
 20
858.67679011887867
 40
8.3431941205522477
 50
199.881225745563
 51
234.32250044872103
  0
ARC
  8
_0-1_レイヤ___3
  6
CONTINUOUS
 62
    7
 10
790.81916779180256
 20
858.36061925688853
 40
7.889031981014142
 50
150.04717864842968
 51
198.63702274675603
  0
ARC
  8
_0-1_レイヤ___3
  6
CONTINUOUS
 62
    7
 10
793.58308990238186
 20
856.92659835883217
 40
11.00064284023933
 50
107.1252717899997
 51
150.76335847813144
  0
ARC
  8
_0-1_レイヤ___3
  6
CONTINUOUS
 62
    7
 10
793.84821233520483
 20
856.84129732202905
 40
11.162564200233994
 50
56.779153461805791
 51
108.29692596654273
  0
ARC
  8
_0-1_レイヤ___3
  6
CONTINUOUS
 62
    7
 10
795.09788350379858
 20
859.40222628606944
 40
8.3431941205522477
 50
19.881225745562983
 51
54.32250044872103
  0
ARC
  8
_0-1_レイヤ___3
  6
CONTINUOUS
 62
    7
 10
755.03056708051849
 20
1066.5527571192551
 40
1.3181272497731462
 50
274.92890538576751
 51
355.07109461426552
  0
ARC
  8
_0-1_レイヤ___3
  6
CONTINUOUS
 62
    7
 10
755.14808683418755
 20
1066.6611488455089
 40
1.4216510461317633
 50
188.96937422604967
 51
269.82803648390109
  0
ARC
  8
_0-1_レイヤ___3
  6
CONTINUOUS
 62
    7
 10
755.17149187189943
 20
1066.4118323278749
 40
1.4279400247089049
 50
91.110397391086565
 51
178.88960260890397
  0
ARC
  8
_0-1_レイヤ___3
  6
CONTINUOUS
 62
    7
 10
755.00321856740447
 20
1066.5047029768493
 40
1.3421859312398765
 50
357.21567241903216
 51
83.986916870993809
  0
ARC
  8
_0-1_レイヤ___3
  6
CONTINUOUS
 62
    7
 10
829.73467834542248
 20
1022.9616250675442
 40
2.4122348568280301
 50
297.37409736399349
 51
357.09812565482906
  0
ARC
  8
_0-1_レイヤ___3
  6
CONTINUOUS
 62
    7
 10
828.76157470283692
 20
1024.2669440617315
 40
4.0274789942972999
 50
269.74741693497401
 51
301.13187413570961
  0
ARC
  8
_0-1_レイヤ___3
  6
CONTINUOUS
 62
    7
 10
828.68766212033984
 20
1024.5029951737292
 40
4.2638608055518628
 50
226.70723505640601
 51
270.75464526511183
  0
ARC
  8
_0-1_レイヤ___3
  6
CONTINUOUS
 62
    7
 10
827.32949545118458
 20
1022.9270866895639
 40
2.1874295146949962
 50
182.29467901770832
 51
224.29444749009969
  0
ARC
  8
_0-1_レイヤ___3
  6
CONTINUOUS
 62
    7
 10
827.70672526017734
 20
1022.7837086295924
 40
2.5635125379910848
 50
121.06778479362502
 51
178.75284272883107
  0
ARC
  8
_0-1_レイヤ___3
  6
CONTINUOUS
 62
    7
 10
828.6471571931329
 20
1021.4357530173737
 40
4.2048623906073264
 50
88.682749131627133
 51
122.56572003073732
  0
ARC
  8
_0-1_レイヤ___3
  6
CONTINUOUS
 62
    7
 10
828.73937766186623
 20
1022.1698242237334
 40
3.4696828225674348
 50
11.12843776970792
 51
89.926642533596848
  0
ARC
  8
_0-1_レイヤ___3
  6
CONTINUOUS
 62
    7
 10
865.05159795576787
 20
1121.0890095514974
 40
1.4930410014237778
 50
320.50922555768699
 51
358.09987297418053
  0
ARC
  8
_0-1_レイヤ___3
  6
CONTINUOUS
 62
    7
 10
863.63458277694554
 20
1122.2909919155989
 40
3.3510996698451461
 50
297.53604334130182
 51
320.05706085530664
  0
ARC
  8
_0-1_レイヤ___3
  6
CONTINUOUS
 62
    7
 10
861.96574774134945
 20
1125.4291974063372
 40
6.9053839297725137
 50
282.18974044139497
 51
297.77647260241406
  0
ARC
  8
_0-1_レイヤ___3
  6
CONTINUOUS
 62
    7
 10
861.21336427195479
 20
1128.7288145932616
 40
10.289545422528615
 50
269.61273912553747
 51
282.40527278944245
  0
ARC
  8
_0-1_レイヤ___3
  6
CONTINUOUS
 62
    7
 10
860.97954822588372
 20
1127.0160324611718
 40
8.5781012776740511
 50
240.10268193454226
 51
271.09727545188935
  0
ARC
  8
_0-1_レイヤ___3
  6
CONTINUOUS
 62
    7
 10
857.77842414857764
 20
1121.3317109868756
 40
2.0554821808195411
 50
188.17283963634114
 51
238.47973973788979
  0
ARC
  8
_0-1_レイヤ___3
  6
CONTINUOUS
 62
    7
 10
857.23603803883384
 20
1120.9899988534507
 40
1.4930410014251185
 50
140.50922555770646
 51
178.0998729742
  0
ARC
  8
_0-1_レイヤ___3
  6
CONTINUOUS
 62
    7
 10
858.65305321765481
 20
1119.7880164893493
 40
3.3510996698457127
 50
117.53604334129405
 51
140.05706085529883
  0
ARC
  8
_0-1_レイヤ___3
  6
CONTINUOUS
 62
    7
 10
860.32188825325079
 20
1116.6498109986137
 40
6.9053839297705446
 50
102.18974044140096
 51
117.77647260241997
  0
ARC
  8
_0-1_レイヤ___3
  6
CONTINUOUS
 62
    7
 10
861.07427172264522
 20
1113.3501938116858
 40
10.289545422529883
 50
89.612739125536763
 51
102.4052727894417
  0
ARC
  8
_0-1_レイヤ___3
  6
CONTINUOUS
 62
    7
 10
861.30808776871504
 20
1115.0629759437766
 40
8.5781012776744827
 50
60.102681934531077
 51
91.097275451878161
  0
ARC
  8
_0-1_レイヤ___3
  6
CONTINUOUS
 62
    7
 10
864.50921184602271
 20
1120.7472974180723
 40
2.0554821808195411
 50
8.1728396363411111
 51
58.479739737889766
  0
ARC
  8
_0-1_レイヤ___3
  6
CONTINUOUS
 62
    7
 10
896.54061246067215
 20
1144.3468582971996
 40
2.6048536100314772
 50
305.24533522098079
 51
2.0382485664293628
  0
ARC
  8
_0-1_レイヤ___3
  6
CONTINUOUS
 62
    7
 10
897.33707334502787
 20
1143.5168445168638
 40
1.4773557103335917
 50
270.26157644309086
 51
298.57996981197846
  0
ARC
  8
_0-1_レイヤ___3
  6
CONTINUOUS
 62
    7
 10
897.42298748877829
 20
1143.7939164495424
 40
1.7561976372392998
 50
197.03240408925129
 51
267.4162272988483
  0
ARC
  8
_0-1_レイヤ___3
  6
CONTINUOUS
 62
    7
 10
898.74840649522923
 20
1144.3947780814274
 40
3.2049006017289887
 50
179.20038045571425
 51
200.36443360789727
  0
ARC
  8
_0-1_レイヤ___3
  6
CONTINUOUS
 62
    7
 10
898.53414692651825
 20
1144.5053507021723
 40
2.9910538053403055
 50
128.70477424178785
 51
181.2614388020074
  0
ARC
  8
_0-1_レイヤ___3
  6
CONTINUOUS
 62
    7
 10
897.35945635678718
 20
1145.7303337802161
 40
1.3092638209321468
 50
90.684379488388444
 51
122.0947011796474
  0
ARC
  8
_0-1_レイヤ___3
  6
CONTINUOUS
 62
    7
 10
897.29461817475965
 20
1145.6115046461221
 40
1.4288468621512513
 50
48.370450243155489
 51
88.026730784175982
  0
ARC
  8
_0-1_レイヤ___3
  6
CONTINUOUS
 62
    7
 10
896.31578429466174
 20
1144.6040442326646
 40
2.832816274450551
 50
356.67018354288138
 51
47.108929996921347
  0
ARC
  8
_0-1_レイヤ___3
  6
CONTINUOUS
 62
    7
 10
932.94061246067236
 20
1122.5468582971994
 40
2.6048536100314439
 50
305.24533522098045
 51
2.0382485664289987
  0
ARC
  8
_0-1_レイヤ___3
  6
CONTINUOUS
 62
    7
 10
933.73707334502797
 20
1121.7168445168634
 40
1.4773557103335917
 50
270.26157644309086
 51
298.57996981197846
  0
ARC
  8
_0-1_レイヤ___3
  6
CONTINUOUS
 62
    7
 10
933.82298748877872
 20
1121.9939164495429
 40
1.7561976372399668
 50
197.03240408923634
 51
267.41622729883335
  0
ARC
  8
_0-1_レイヤ___3
  6
CONTINUOUS
 62
    7
 10
935.14840649522648
 20
1122.5947780814267
 40
3.2049006017263793
 50
179.20038045570828
 51
200.36443360789127
  0
ARC
  8
_0-1_レイヤ___3
  6
CONTINUOUS
 62
    7
 10
934.93414692651845
 20
1122.7053507021722
 40
2.991053805340341
 50
128.70477424178813
 51
181.26143880200775
  0
ARC
  8
_0-1_レイヤ___3
  6
CONTINUOUS
 62
    7
 10
933.75945635678727
 20
1123.9303337802162
 40
1.3092638209321468
 50
90.684379488388444
 51
122.0947011796474
  0
ARC
  8
_0-1_レイヤ___3
  6
CONTINUOUS
 62
    7
 10
933.69461817475985
 20
1123.8115046461221
 40
1.4288468621508621
 50
48.370450243149257
 51
88.026730784169743
  0
ARC
  8
_0-1_レイヤ___3
  6
CONTINUOUS
 62
    7
 10
932.71578429466194
 20
1122.804044232664
 40
2.8328162744507135
 50
356.67018354288734
 51
47.108929996927287
  0
ARC
  8
_0-1_レイヤ___3
  6
CONTINUOUS
 62
    7
 10
901.03492420093312
 20
1079.2966756804858
 40
1.9097497489739881
 50
324.19819835172927
 51
358.28450095256795
  0
ARC
  8
_0-1_レイヤ___3
  6
CONTINUOUS
 62
    7
 10
899.43566756188716
 20
1080.5996584218381
 40
3.9708938048625275
 50
265.7851202939753
 51
322.44856261695844
  0
ARC
  8
_0-1_レイヤ___3
  6
CONTINUOUS
 62
    7
 10
899.08766012033857
 20
1080.9029951737293
 40
4.263860805551424
 50
226.7072350564211
 51
270.75464526512695
  0
ARC
  8
_0-1_レイヤ___3
  6
CONTINUOUS
 62
    7
 10
897.72949345118468
 20
1079.3270866895632
 40
2.1874295146948164
 50
182.29467901769905
 51
224.29444749009042
  0
ARC
  8
_0-1_レイヤ___3
  6
CONTINUOUS
 62
    7
 10
897.67430055691443
 20
1079.1437957743526
 40
2.1326312480206031
 50
113.50286621336549
 51
177.42781064384616
  0
ARC
  8
_0-1_レイヤ___3
  6
CONTINUOUS
 62
    7
 10
899.02571604496734
 20
1076.8932014791642
 40
4.7477718576660619
 50
88.57460685358285
 51
117.63097302894454
  0
ARC
  8
_0-1_レイヤ___3
  6
CONTINUOUS
 62
    7
 10
899.23902452834227
 20
1076.724472979221
 40
4.9159532350407797
 50
50.532275778079068
 51
91.109708170302611
  0
ARC
  8
_0-1_レイヤ___3
  6
CONTINUOUS
 62
    7
 10
901.08119071171222
 20
1079.166907463692
 40
1.8640414940389929
 50
2.2319991136484689
 51
46.520938119695195
  0
ARC
  8
_0-1_レイヤ___3
  6
CONTINUOUS
 62
    7
 10
934.99982616673742
 20
1088.3795912651558
 40
7.7442235912891757
 50
312.8226561160036
 51
0.4432713816293098
  0
ARC
  8
_0-1_レイヤ___3
  6
CONTINUOUS
 62
    7
 10
937.26731915718631
 20
1086.4021236488272
 40
4.7632337821399044
 50
270.92022548561533
 51
308.98295590389307
  0
ARC
  8
_0-1_レイヤ___3
  6
CONTINUOUS
 62
    7
 10
937.45381115225712
 20
1086.6405536594125
 40
5.0022589062222833
 50
208.1639817906121
 51
268.74003892367023
  0
ARC
  8
_0-1_レイヤ___3
  6
CONTINUOUS
 62
    7
 10
939.81255290362867
 20
1088.2947466055891
 40
7.8700663140743101
 50
178.94607405283469
 51
210.67659870500589
  0
ARC
  8
_0-1_レイヤ___3
  6
CONTINUOUS
 62
    7
 10
939.33534057128122
 20
1088.4557540249523
 40
7.3915404360933712
 50
131.64235955981167
 51
180.12596115841367
  0
ARC
  8
_0-1_レイヤ___3
  6
CONTINUOUS
 62
    7
 10
937.43973881118313
 20
1090.2233827151717
 40
4.8170766013205393
 50
91.140986851603174
 51
128.7621945379064
  0
ARC
  8
_0-1_レイヤ___3
  6
CONTINUOUS
 62
    7
 10
937.21493077762625
 20
1089.9626698878126
 40
5.0784701017057046
 50
27.396485954325986
 51
88.54572606505053
  0
ARC
  8
_0-1_レイヤ___3
  6
CONTINUOUS
 62
    7
 10
935.22945266060083
 20
1088.5186097352639
 40
7.5147817066570983
 50
359.39685581663264
 51
30.207140350230564
  0
ARC
  8
_0-1_レイヤ___3
  6
CONTINUOUS
 62
    7
 10
853.8242080750166
 20
1102.9527100938299
 40
0.9265516623483111
 50
305.61847634018812
 51
352.98207855819373
  0
ARC
  8
_0-1_レイヤ___3
  6
CONTINUOUS
 62
    7
 10
852.16495223206039
 20
1105.0972357329565
 40
3.6375621886500147
 50
285.93803385571204
 51
307.19206849840049
  0
ARC
  8
_0-1_レイヤ___3
  6
CONTINUOUS
 62
    7
 10
850.68369075817259
 20
1109.9354302205559
 40
8.6970508622860976
 50
269.07848482007864
 51
286.56893664371682
  0
ARC
  8
_0-1_レイヤ___3
  6
CONTINUOUS
 62
    7
 10
850.44764751391483
 20
1109.9752824048649
 40
8.7363075474280389
 50
253.48232376390172
 51
270.63073261489097
  0
ARC
  8
_0-1_レイヤ___3
  6
CONTINUOUS
 62
    7
 10
848.77083810904367
 20
1104.8501026579713
 40
3.3492792925698796
 50
230.13062857181851
 51
256.05718451635539
  0
ARC
  8
_0-1_レイヤ___3
  6
CONTINUOUS
 62
    7
 10
847.12601354496655
 20
1102.8806019763067
 40
0.7832744741168555
 50
183.00764398784344
 51
230.12245836626599
  0
ARC
  8
_0-1_レイヤ___3
  6
CONTINUOUS
 62
    7
 10
847.26342791958416
 20
1102.7262983111184
 40
0.9265516623483492
 50
125.61847634018956
 51
172.98207855819516
  0
ARC
  8
_0-1_レイヤ___3
  6
CONTINUOUS
 62
    7
 10
848.9226837625398
 20
1100.5817726719924
 40
3.6375621886493255
 50
105.93803385571746
 51
127.19206849840593
  0
ARC
  8
_0-1_レイヤ___3
  6
CONTINUOUS
 62
    7
 10
850.4039452364276
 20
1095.7435781843924
 40
8.6970508622860976
 50
89.078484820078643
 51
106.56893664371687
  0
ARC
  8
_0-1_レイヤ___3
  6
CONTINUOUS
 62
    7
 10
850.63998848068536
 20
1095.7037260000823
 40
8.7363075474289822
 50
73.482323763902571
 51
90.630732614891841
  0
ARC
  8
_0-1_レイヤ___3
  6
CONTINUOUS
 62
    7
 10
852.31679788555675
 20
1100.8289057469769
 40
3.3492792925699155
 50
50.130628571817297
 51
76.057184516354155
  0
ARC
  8
_0-1_レイヤ___3
  6
CONTINUOUS
 62
    7
 10
853.96162244963398
 20
1102.7984064286416
 40
0.7832744741168555
 50
3.0076439878434247
 51
50.122458366266009
  0
ARC
  8
_0-1_レイヤ___3
  6
CONTINUOUS
 62
    7
 10
861.25159795576792
 20
1004.0890115514974
 40
1.4930410014237778
 50
320.50922555768699
 51
358.09987297418053
  0
ARC
  8
_0-1_レイヤ___3
  6
CONTINUOUS
 62
    7
 10
859.83458277694558
 20
1005.2909939155994
 40
3.3510996698457411
 50
297.53604334129466
 51
320.05706085529943
  0
ARC
  8
_0-1_レイヤ___3
  6
CONTINUOUS
 62
    7
 10
858.16574774134915
 20
1008.4291994063359
 40
6.9053839297715509
 50
282.1897404413985
 51
297.77647260241753
  0
ARC
  8
_0-1_レイヤ___3
  6
CONTINUOUS
 62
    7
 10
857.41336427195506
 20
1011.7288165932614
 40
10.289545422528603
 50
269.61273912553708
 51
282.40527278944199
  0
ARC
  8
_0-1_レイヤ___3
  6
CONTINUOUS
 62
    7
 10
857.17954822588524
 20
1010.0160344611725
 40
8.5781012776749996
 50
240.10268193453194
 51
271.097275451879
  0
ARC
  8
_0-1_レイヤ___3
  6
CONTINUOUS
 62
    7
 10
853.97842414857678
 20
1004.3317129868756
 40
2.0554821808184669
 50
188.17283963634964
 51
238.47973973789829
  0
ARC
  8
_0-1_レイヤ___3
  6
CONTINUOUS
 62
    7
 10
853.33867167978815
 20
1004.0062672796945
 40
1.3952496627979405
 50
139.11564369058988
 51
178.63491801727878
  0
ARC
  8
_0-1_レイヤ___3
  6
CONTINUOUS
 62
    7
 10
854.58625116642474
 20
1002.8188550774667
 40
3.1167184100073948
 50
114.29715180381761
 51
137.62388258952097
  0
ARC
  8
_0-1_レイヤ___3
  6
CONTINUOUS
 62
    7
 10
856.38429733703083
 20
999.1386917226298
 40
7.2118218532531175
 50
100.06583245673313
 51
115.28638494057184
  0
ARC
  8
_0-1_レイヤ___3
  6
CONTINUOUS
 62
    7
 10
857.30389585701096
 20
994.46164195967356
 40
11.977930772727285
 50
89.809034262587872
 51
100.48673538567503
  0
ARC
  8
_0-1_レイヤ___3
  6
CONTINUOUS
 62
    7
 10
857.59333960719971
 20
997.32637522205005
 40
9.1165463471741681
 50
61.782545215644951
 51
91.568392260574853
  0
ARC
  8
_0-1_レイヤ___3
  6
CONTINUOUS
 62
    7
 10
860.97345444257166
 20
1003.8401839403746
 40
1.7815488991544588
 50
6.4237839173670794
 51
58.518600664307542
  0
ARC
  8
_0-1_レイヤ___3
  6
CONTINUOUS
 62
    7
 10
892.7406124606722
 20
1027.3468582971996
 40
2.6048536100314772
 50
305.24533522098079
 51
2.0382485664293628
  0
ARC
  8
_0-1_レイヤ___3
  6
CONTINUOUS
 62
    7
 10
893.53707334502792
 20
1026.5168445168636
 40
1.4773557103335917
 50
270.26157644309086
 51
298.57996981197846
  0
ARC
  8
_0-1_レイヤ___3
  6
CONTINUOUS
 62
    7
 10
893.62298748877834
 20
1026.7939164495424
 40
1.7561976372393093
 50
197.03240408925089
 51
267.4162272988479
  0
ARC
  8
_0-1_レイヤ___3
  6
CONTINUOUS
 62
    7
 10
894.94840649522894
 20
1027.3947780814271
 40
3.2049006017289416
 50
179.2003804557144
 51
200.36443360789741
  0
ARC
  8
_0-1_レイヤ___3
  6
CONTINUOUS
 62
    7
 10
894.73414692651829
 20
1027.5053507021723
 40
2.9910538053403055
 50
128.70477424178785
 51
181.2614388020074
  0
ARC
  8
_0-1_レイヤ___3
  6
CONTINUOUS
 62
    7
 10
893.55945635678722
 20
1028.7303337802164
 40
1.3092638209321468
 50
90.684379488388444
 51
122.0947011796474
  0
ARC
  8
_0-1_レイヤ___3
  6
CONTINUOUS
 62
    7
 10
893.49461817476003
 20
1028.6115046461218
 40
1.4288468621512411
 50
48.370450243156469
 51
88.026730784176962
  0
ARC
  8
_0-1_レイヤ___3
  6
CONTINUOUS
 62
    7
 10
892.51578429466178
 20
1027.6040442326646
 40
2.83281627445057
 50
356.67018354288126
 51
47.108929996921191
  0
ARC
  8
_0-1_レイヤ___3
  6
CONTINUOUS
 62
    7
 10
929.14061246067206
 20
1005.5468602971995
 40
2.60485361003161
 50
305.24533522097488
 51
2.0382485664234711
  0
ARC
  8
_0-1_レイヤ___3
  6
CONTINUOUS
 62
    7
 10
929.93707334502972
 20
1004.716846516863
 40
1.4773557103325585
 50
270.26157644302555
 51
298.5799698119132
  0
ARC
  8
_0-1_レイヤ___3
  6
CONTINUOUS
 62
    7
 10
930.0229874887782
 20
1004.9939184495431
 40
1.7561976372394947
 50
197.03240408925623
 51
267.41622729885324
  0
ARC
  8
_0-1_レイヤ___3
  6
CONTINUOUS
 62
    7
 10
931.34840649522653
 20
1005.5947800814273
 40
3.2049006017265107
 50
179.2003804557219
 51
200.36443360790491
  0
ARC
  8
_0-1_レイヤ___3
  6
CONTINUOUS
 62
    7
 10
931.13414692651816
 20
1005.7053527021718
 40
2.9910538053404405
 50
128.70477424178225
 51
181.26143880200183
  0
ARC
  8
_0-1_レイヤ___3
  6
CONTINUOUS
 62
    7
 10
929.95945635678913
 20
1006.9303357802163
 40
1.3092638209326279
 50
90.684379488460095
 51
122.09470117971905
  0
ARC
  8
_0-1_レイヤ___3
  6
CONTINUOUS
 62
    7
 10
929.89461817475876
 20
1006.8115066461224
 40
1.4288468621513484
 50
48.370450243100514
 51
88.026730784121
  0
ARC
  8
_0-1_レイヤ___3
  6
CONTINUOUS
 62
    7
 10
928.91578429466199
 20
1005.8040462326639
 40
2.8328162744507135
 50
356.67018354288734
 51
47.108929996927287
  0
ARC
  8
_0-1_レイヤ___3
  6
CONTINUOUS
 62
    7
 10
896.81333543768665
 20
962.13521463059521
 40
2.1326312480199059
 50
293.5028662133526
 51
357.42781064383325
  0
ARC
  8
_0-1_レイヤ___3
  6
CONTINUOUS
 62
    7
 10
895.46191994963294
 20
964.38580892578466
 40
4.7477718576666001
 50
268.57460685358069
 51
297.63097302894232
  0
ARC
  8
_0-1_レイヤ___3
  6
CONTINUOUS
 62
    7
 10
895.2232262410871
 20
964.11022368064414
 40
4.4723435848870956
 50
228.91019488244439
 51
271.54510405239887
  0
ARC
  8
_0-1_レイヤ___3
  6
CONTINUOUS
 62
    7
 10
893.67021864880769
 20
962.07754955002383
 40
1.9267762626786522
 50
181.13135341497366
 51
223.983139854462
  0
ARC
  8
_0-1_レイヤ___3
  6
CONTINUOUS
 62
    7
 10
894.09781841326912
 20
961.92146552952454
 40
2.3569581156338701
 50
117.10819654692064
 51
177.12932412253645
  0
ARC
  8
_0-1_レイヤ___3
  6
CONTINUOUS
 62
    7
 10
895.26846315451621
 20
960.27083400127822
 40
4.3693220473927772
 50
89.011808131731712
 51
120.91250237692016
  0
ARC
  8
_0-1_レイヤ___3
  6
CONTINUOUS
 62
    7
 10
895.39997587426137
 20
960.37601523121907
 40
4.263860805551424
 50
46.707235056421105
 51
90.754645265126939
  0
ARC
  8
_0-1_レイヤ___3
  6
CONTINUOUS
 62
    7
 10
896.75814254341412
 20
961.9519237153844
 40
2.1874295146961575
 50
2.2946790176952452
 51
44.29444749008659
  0
ARC
  8
_0-1_レイヤ___3
  6
CONTINUOUS
 62
    7
 10
931.19982616673838
 20
971.37959326515613
 40
7.7442235912881348
 50
312.82265611600025
 51
0.443271381625985
  0
ARC
  8
_0-1_レイヤ___3
  6
CONTINUOUS
 62
    7
 10
933.46731915718522
 20
969.40212564882756
 40
4.7632337821403823
 50
270.92022548563114
 51
308.98295590390893
  0
ARC
  8
_0-1_レイヤ___3
  6
CONTINUOUS
 62
    7
 10
933.65381115225796
 20
969.64055565941283
 40
5.0022589062227487
 50
208.1639817906034
 51
268.74003892366159
  0
ARC
  8
_0-1_レイヤ___3
  6
CONTINUOUS
 62
    7
 10
936.01255290362701
 20
971.2947486055898
 40
7.8700663140728562
 50
178.94607405284142
 51
210.67659870501259
  0
ARC
  8
_0-1_レイヤ___3
  6
CONTINUOUS
 62
    7
 10
935.53534057128127
 20
971.45575602495171
 40
7.3915404360935346
 50
131.64235955980928
 51
180.12596115841126
  0
ARC
  8
_0-1_レイヤ___3
  6
CONTINUOUS
 62
    7
 10
933.63973881118318
 20
973.22338471517151
 40
4.817076601320526
 50
91.140986851602719
 51
128.76219453790594
  0
ARC
  8
_0-1_レイヤ___3
  6
CONTINUOUS
 62
    7
 10
933.4149307776263
 20
972.96267188781258
 40
5.0784701017054621
 50
27.396485954324397
 51
88.545726065048939
  0
ARC
  8
_0-1_レイヤ___3
  6
CONTINUOUS
 62
    7
 10
931.42945266060053
 20
971.51861173526311
 40
7.5147817066572351
 50
359.39685581663656
 51
30.207140350234507
  0
ARC
  8
_0-1_レイヤ___3
  6
CONTINUOUS
 62
    7
 10
850.02420807501744
 20
985.95271209382997
 40
0.9265516623473414
 50
305.61847634015254
 51
352.98207855815815
  0
ARC
  8
_0-1_レイヤ___3
  6
CONTINUOUS
 62
    7
 10
848.36495223205816
 20
988.09723773295673
 40
3.637562188651124
 50
285.93803385574699
 51
307.19206849843545
  0
ARC
  8
_0-1_レイヤ___3
  6
CONTINUOUS
 62
    7
 10
846.88369075817548
 20
992.93543222055609
 40
8.6970508622856908
 50
269.07848482005897
 51
286.56893664369721
  0
ARC
  8
_0-1_レイヤ___3
  6
CONTINUOUS
 62
    7
 10
846.64764751391181
 20
992.97528440486622
 40
8.7363075474285594
 50
253.48232376392247
 51
270.63073261491172
  0
ARC
  8
_0-1_レイヤ___3
  6
CONTINUOUS
 62
    7
 10
844.97083810904542
 20
987.85010465797086
 40
3.3492792925702375
 50
230.13062857178249
 51
256.05718451631935
  0
ARC
  8
_0-1_レイヤ___3
  6
CONTINUOUS
 62
    7
 10
843.32601354496546
 20
985.88060397630693
 40
0.7832744741158417
 50
183.00764398788053
 51
230.12245836630311
  0
ARC
  8
_0-1_レイヤ___3
  6
CONTINUOUS
 62
    7
 10
843.46342791958386
 20
985.72630031111862
 40
0.9265516623481397
 50
125.61847634020732
 51
172.98207855821292
  0
ARC
  8
_0-1_レイヤ___3
  6
CONTINUOUS
 62
    7
 10
845.12268376254212
 20
983.58177467199198
 40
3.6375621886511134
 50
105.93803385574664
 51
127.19206849843512
  0
ARC
  8
_0-1_レイヤ___3
  6
CONTINUOUS
 62
    7
 10
846.60394523642481
 20
978.74358018439261
 40
8.6970508622856926
 50
89.078484820059188
 51
106.56893664369741
  0
ARC
  8
_0-1_レイヤ___3
  6
CONTINUOUS
 62
    7
 10
846.83998848068859
 20
978.70372800008249
 40
8.7363075474285612
 50
73.482323763922295
 51
90.63073261491158
  0
ARC
  8
_0-1_レイヤ___3
  6
CONTINUOUS
 62
    7
 10
848.51679788555487
 20
983.82890774697785
 40
3.3492792925702375
 50
50.130628571782502
 51
76.057184516319367
  0
ARC
  8
_0-1_レイヤ___3
  6
CONTINUOUS
 62
    7
 10
850.16162244963368
 20
985.79840842864087
 40
0.7832744741170145
 50
3.007643987866687
 51
50.122458366289273
  0
CIRCLE
  8
_0-1_レイヤ___3
  6
CONTINUOUS
 62
    7
 10
706.3438199973001
 20
1104.5795042024738
 40
4.4199999999999999
  0
ARC
  8
_0-1_レイヤ___3
  6
CONTINUOUS
 62
    7
 10
694.77500589066835
 20
954.5263653313466
 40
1.172039077586907
 50
312.30126513387648
 51
355.74994694123319
  0
ARC
  8
_0-1_レイヤ___3
  6
CONTINUOUS
 62
    7
 10
693.70989664407944
 20
955.67164348138886
 40
2.7360072449669377
 50
287.30670179976443
 51
312.65657693795833
  0
ARC
  8
_0-1_レイヤ___3
  6
CONTINUOUS
 62
    7
 10
693.16302415964492
 20
957.15723809321571
 40
4.3177745892262616
 50
269.74519131006087
 51
288.37058494719406
  0
ARC
  8
_0-1_レイヤ___3
  6
CONTINUOUS
 62
    7
 10
693.04308997594603
 20
956.79815036893785
 40
3.9599255771801105
 50
226.63080744987045
 51
271.45763908886545
  0
ARC
  8
_0-1_レイヤ___3
  6
CONTINUOUS
 62
    7
 10
690.99542300692178
 20
954.4431373211894
 40
0.8516087509015396
 50
180.24430045777575
 51
217.94268354322278
  0
ARC
  8
_0-1_レイヤ___3
  6
CONTINUOUS
 62
    7
 10
691.07341606152147
 20
954.36063671289844
 40
0.9329338243528522
 50
127.62860890912246
 51
175.15047175889615
  0
ARC
  8
_0-1_レイヤ___3
  6
CONTINUOUS
 62
    7
 10
692.25631737029119
 20
952.89451545649467
 40
2.8165979873260598
 50
104.65292302568923
 51
128.47717932851214
  0
ARC
  8
_0-1_レイヤ___3
  6
CONTINUOUS
 62
    7
 10
693.13170979851407
 20
949.99941310271902
 40
5.8401056599314636
 50
89.88117023749605
 51
105.77698278257745
  0
ARC
  8
_0-1_レイヤ___3
  6
CONTINUOUS
 62
    7
 10
693.25996257178133
 20
951.25858145667758
 40
4.5823967702164028
 50
67.089967754459124
 51
91.452313649539406
  0
ARC
  8
_0-1_レイヤ___3
  6
CONTINUOUS
 62
    7
 10
694.59476713186882
 20
954.18147795354287
 40
1.3735092308357633
 50
10.827956696282028
 51
70.916859898716964
  0
ARC
  8
_0-1_レイヤ___3
  6
CONTINUOUS
 62
    7
 10
716.21422593307875
 20
981.11837569204886
 40
0.932933824352524
 50
307.62860890916079
 51
355.15047175893449
  0
ARC
  8
_0-1_レイヤ___3
  6
CONTINUOUS
 62
    7
 10
715.03132462431131
 20
982.58449694845444
 40
2.8165979873256846
 50
284.65292302564268
 51
308.47717932846552
  0
ARC
  8
_0-1_レイヤ___3
  6
CONTINUOUS
 62
    7
 10
714.15593219608297
 20
985.4795993022293
 40
5.8401056599319103
 50
269.8811702375279
 51
285.77698278260925
  0
ARC
  8
_0-1_レイヤ___3
  6
CONTINUOUS
 62
    7
 10
714.06014287597122
 20
984.91018886176266
 40
5.2713468445511324
 50
248.68250374357277
 51
270.90954881298399
  0
ARC
  8
_0-1_レイヤ___3
  6
CONTINUOUS
 62
    7
 10
712.56294106617224
 20
981.40327646100468
 40
1.4650028700002538
 50
194.37734331524476
 51
253.37605125660303
  0
ARC
  8
_0-1_レイヤ___3
  6
CONTINUOUS
 62
    7
 10
712.28907662610732
 20
981.00514071951034
 40
1.1457721118295219
 50
133.26325644437091
 51
178.28125291969482
  0
ARC
  8
_0-1_レイヤ___3
  6
CONTINUOUS
 62
    7
 10
713.2015043642466
 20
980.00605856031962
 40
2.498732171781274
 50
106.69155885097985
 51
132.79820374294755
  0
ARC
  8
_0-1_レイヤ___3
  6
CONTINUOUS
 62
    7
 10
714.07494301229008
 20
977.25507201545668
 40
5.384874701734975
 50
89.267119778882673
 51
107.18632514931959
  0
ARC
  8
_0-1_レイヤ___3
  6
CONTINUOUS
 62
    7
 10
714.23463745245635
 20
977.72168915525799
 40
4.9186555398858758
 50
67.916783266660914
 51
91.057962393513648
  0
ARC
  8
_0-1_レイヤ___3
  6
CONTINUOUS
 62
    7
 10
715.5679677115063
 20
980.76547118397343
 40
1.5995016780253537
 50
9.8648805963651665
 51
71.185326391108248
  0
ARC
  8
_0-1_レイヤ___3
  6
CONTINUOUS
 62
    7
 10
727.80141729607465
 20
1145.776596297376
 40
9.5426100578866517
 50
344.20731390939545
 51
0.3777146446850956
  0
ARC
  8
_0-1_レイヤ___3
  6
CONTINUOUS
 62
    7
 10
733.28228333181244
 20
1144.0468965167317
 40
3.8018078742597163
 50
322.63288690481272
 51
346.81166862408941
  0
ARC
  8
_0-1_レイヤ___3
  6
CONTINUOUS
 62
    7
 10
735.69991223212151
 20
1142.1941320308092
 40
0.7559041282730534
 50
273.32998112176938
 51
323.02719909802227
  0
ARC
  8
_0-1_レイヤ___3
  6
CONTINUOUS
 62
    7
 10
735.85214943012659
 20
1142.2374807052095
 40
0.8052960728412952
 50
211.26751477121132
 51
262.26906309280827
  0
ARC
  8
_0-1_レイヤ___3
  6
CONTINUOUS
 62
    7
 10
738.34244344105286
 20
1143.8220136556013
 40
3.7568192805931107
 50
191.7105011886014
 51
212.2106268516078
  0
ARC
  8
_0-1_レイヤ___3
  6
CONTINUOUS
 62
    7
 10
745.67894418700325
 20
1145.735849432943
 40
11.335598118636627
 50
179.47606967650205
 51
193.65652756498457
  0
ARC
  8
_0-1_レイヤ___3
  6
CONTINUOUS
 62
    7
 10
745.18611573999669
 20
1146.0039169686743
 40
10.84354225010367
 50
165.16911754916609
 51
180.86876763717197
  0
ARC
  8
_0-1_レイヤ___3
  6
CONTINUOUS
 62
    7
 10
737.43766925291288
 20
1148.2125795746683
 40
2.7920127660929421
 50
138.58540418931264
 51
168.28449345655937
  0
ARC
  8
_0-1_レイヤ___3
  6
CONTINUOUS
 62
    7
 10
735.75703715243492
 20
1149.6756883021728
 40
0.5639707994409531
 50
91.342900282170149
 51
137.11259035360445
  0
ARC
  8
_0-1_レイヤ___3
  6
CONTINUOUS
 62
    7
 10
735.61139804153584
 20
1149.3667326933714
 40
0.8827602627379302
 50
33.932559253000797
 51
81.372553748223297
  0
ARC
  8
_0-1_レイヤ___3
  6
CONTINUOUS
 62
    7
 10
733.23528217151591
 20
1147.5902117061278
 40
3.8487265229301082
 50
15.511819766116032
 51
36.130164182238921
  0
ARC
  8
_0-1_レイヤ___3
  6
CONTINUOUS
 62
    7
 10
727.97108765637836
 20
1145.9096865994638
 40
9.3729950978011818
 50
359.57098102819549
 51
16.804622995611783
  0
ARC
  8
_0-1_レイヤ___3
  6
CONTINUOUS
 62
    7
 10
763.48513159123797
 20
1099.2670165632499
 40
10.03011405590518
 50
60.764653970502259
 51
76.985907737371562
  0
ARC
  8
_0-1_レイヤ___3
  6
CONTINUOUS
 62
    7
 10
767.00088213515642
 20
1105.3246795687678
 40
3.0289597120106309
 50
34.941937247368891
 51
62.833881874302143
  0
ARC
  8
_0-1_レイヤ___3
  6
CONTINUOUS
 62
    7
 10
768.95951701995614
 20
1106.6958619788606
 40
0.6380668294518783
 50
336.31096015323652
 51
34.744120150026504
  0
ARC
  8
_0-1_レイヤ___3
  6
CONTINUOUS
 62
    7
 10
768.76069175106545
 20
1106.7109073188597
 40
0.8288241681044988
 50
291.45269206608401
 51
340.88558658972948
  0
ARC
  8
_0-1_レイヤ___3
  6
CONTINUOUS
 62
    7
 10
767.94186861967205
 20
1108.9516027437562
 40
3.2142670262678621
 50
267.89525598807074
 51
290.42943810344013
  0
ARC
  8
_0-1_レイヤ___3
  6
CONTINUOUS
 62
    7
 10
767.85380031206023
 20
1114.4565908154909
 40
8.7171381678919371
 50
250.49902520101023
 51
269.8029457767542
  0
ARC
  8
_0-1_レイヤ___3
  6
CONTINUOUS
 62
    7
 10
767.03728262654465
 20
1115.282699280755
 40
9.2823468478555036
 50
240.05494310621245
 51
256.96585929659193
  0
ARC
  8
_0-1_レイヤ___3
  6
CONTINUOUS
 62
    7
 10
763.94532820335576
 20
1110.1466235573766
 40
3.2905304273001441
 50
215.42087352276062
 51
242.06510306860284
  0
ARC
  8
_0-1_レイヤ___3
  6
CONTINUOUS
 62
    7
 10
761.89470091116391
 20
1108.677680385247
 40
0.7681204948619168
 50
167.83808566807463
 51
214.78177928000497
  0
ARC
  8
_0-1_レイヤ___3
  6
CONTINUOUS
 62
    7
 10
761.86157836536177
 20
1108.5610711937111
 40
0.769871427766863
 50
106.43039372212144
 51
158.79771821709161
  0
ARC
  8
_0-1_レイヤ___3
  6
CONTINUOUS
 62
    7
 10
762.73485867782995
 20
1105.7960649231673
 40
3.6693939807825942
 50
86.735405806569261
 51
107.29759768286321
  0
ARC
  8
_0-1_レイヤ___3
  6
CONTINUOUS
 62
    7
 10
762.68879962209007
 20
1098.2160350344107
 40
11.246360936986136
 50
74.237808518184309
 51
88.70066026191428
  0
ARC
  8
_0-1_レイヤ___3
  6
CONTINUOUS
 62
    7
 10
733.94631651602879
 20
1030.8925637871212
 40
6.1992451867976071
 50
324.35069181094178
 51
1.3582063513405527
  0
ARC
  8
_0-1_レイヤ___3
  6
CONTINUOUS
 62
    7
 10
737.21311069701619
 20
1028.7156509316017
 40
2.2798966761010671
 50
273.28664014499429
 51
320.95596666327612
  0
ARC
  8
_0-1_レイヤ___3
  6
CONTINUOUS
 62
    7
 10
737.46346462744327
 20
1028.9639267264574
 40
2.5272562032992156
 50
209.49848992448665
 51
267.28650558302581
  0
ARC
  8
_0-1_レイヤ___3
  6
CONTINUOUS
 62
    7
 10
740.06442832782704
 20
1030.8372631374393
 40
5.7241821354390741
 50
177.97526156512524
 51
213.00174132069179
  0
ARC
  8
_0-1_レイヤ___3
  6
CONTINUOUS
 62
    7
 10
739.88487800899293
 20
1031.0809930886599
 40
5.5412133343357182
 50
141.90809749549109
 51
180.42899634840052
  0
ARC
  8
_0-1_レイヤ___3
  6
CONTINUOUS
 62
    7
 10
737.52916681080114
 20
1032.8487263295269
 40
2.5973993586335835
 50
94.092025133649059
 51
140.53919081326384
  0
ARC
  8
_0-1_レイヤ___3
  6
CONTINUOUS
 62
    7
 10
737.23265675587697
 20
1033.0800222925925
 40
2.3620990981125161
 50
26.649669902043968
 51
87.302594986360432
  0
ARC
  8
_0-1_レイヤ___3
  6
CONTINUOUS
 62
    7
 10
734.44695113247406
 20
1031.2225703018744
 40
5.699809475743316
 50
358.159461456239
 51
30.781126743883853
  0
ARC
  8
_0-1_レイヤ___3
  6
CONTINUOUS
 62
    7
 10
746.21127152013969
 20
1046.9589357870095
 40
26.334043136931374
 50
342.77211330111919
 51
0.6104527940537216
  0
ARC
  8
_0-1_レイヤ___3
  6
CONTINUOUS
 62
    7
 10
761.78482266055425
 20
1042.3912277025747
 40
10.10946223883785
 50
327.63487973692497
 51
341.35684128942938
  0
ARC
  8
_0-1_レイヤ___3
  6
CONTINUOUS
 62
    7
 10
766.78394283459534
 20
1039.1766778287233
 40
4.1663295922095935
 50
305.84665341183114
 51
328.17245421423274
  0
ARC
  8
_0-1_レイヤ___3
  6
CONTINUOUS
 62
    7
 10
768.10685394324707
 20
1037.3504023646353
 40
1.9112556802536382
 50
271.10824050284634
 51
305.76165714296548
  0
ARC
  8
_0-1_レイヤ___3
  6
CONTINUOUS
 62
    7
 10
768.19119237886014
 20
1037.3816213471557
 40
1.9426948155073469
 50
234.52739160944111
 51
268.60271074474701
  0
ARC
  8
_0-1_レイヤ___3
  6
CONTINUOUS
 62
    7
 10
769.42578601302466
 20
1039.0713946022092
 40
4.0353624678977003
 50
213.57877817081058
 51
234.17461640103673
  0
ARC
  8
_0-1_レイヤ___3
  6
CONTINUOUS
 62
    7
 10
773.69342681364913
 20
1041.9438868483194
 40
9.1796308404687448
 50
200.29761380625479
 51
213.78343401280139
  0
ARC
  8
_0-1_レイヤ___3
  6
CONTINUOUS
 62
    7
 10
781.90333665592959
 20
1045.0350156514799
 40
17.952108081685413
 50
190.70780943211571
 51
200.46099290169494
  0
ARC
  8
_0-1_レイヤ___3
  6
CONTINUOUS
 62
    7
 10
792.0454211512083
 20
1047.1015678486885
 40
28.301937289037063
 50
179.72075402044914
 51
191.00371104608607
  0
ARC
  8
_0-1_レイヤ___3
  6
CONTINUOUS
 62
    7
 10
789.13075483254204
 20
1047.485658239742
 40
25.388128173201082
 50
162.45387802832181
 51
180.55552769891054
  0
ARC
  8
_0-1_レイヤ___3
  6
CONTINUOUS
 62
    7
 10
774.38033669434753
 20
1051.9604693663971
 40
9.9765710808136294
 50
147.09988832354324
 51
161.41869496398482
  0
ARC
  8
_0-1_レイヤ___3
  6
CONTINUOUS
 62
    7
 10
769.36158404221806
 20
1055.1818788012154
 40
4.0129959862427738
 50
124.23670318816158
 51
146.79562527137037
  0
ARC
  8
_0-1_レイヤ___3
  6
CONTINUOUS
 62
    7
 10
768.19715750879993
 20
1056.9157659320044
 40
1.9244775455698651
 50
91.588174245846204
 51
124.61935182317754
  0
ARC
  8
_0-1_レイヤ___3
  6
CONTINUOUS
 62
    7
 10
768.09471204892111
 20
1056.8921803573348
 40
1.947942953076973
 50
54.57469101799861
 51
88.555411336189579
  0
ARC
  8
_0-1_レイヤ___3
  6
CONTINUOUS
 62
    7
 10
766.84803741338953
 20
1055.1943286410221
 40
4.0542226573754885
 50
33.627202840409673
 51
54.12619173143861
  0
ARC
  8
_0-1_レイヤ___3
  6
CONTINUOUS
 62
    7
 10
762.65399523561291
 20
1052.3323314306572
 40
9.1315639757845766
 50
20.561852551216692
 51
34.006562036022302
  0
ARC
  8
_0-1_レイヤ___3
  6
CONTINUOUS
 62
    7
 10
754.66226880556951
 20
1049.2963069689499
 40
17.680509820854617
 50
10.89964819244242
 51
20.677767292102761
  0
ARC
  8
_0-1_レイヤ___3
  6
CONTINUOUS
 62
    7
 10
745.38214189805353
 20
1047.348972237362
 40
27.16189868948323
 50
359.76908560621791
 51
11.231737334183192
  0
ARC
  8
_0-1_レイヤ___3
  6
CONTINUOUS
 62
    7
 10
760.44572290427573
 20
951.55598262162914
 40
3.3001532072369377
 50
306.39404370054001
 51
357.97736858790358
  0
ARC
  8
_0-1_レイヤ___3
  6
CONTINUOUS
 62
    7
 10
757.5266279049074
 20
954.89762294520983
 40
7.7307442827701225
 50
277.85992195764999
 51
309.11526959765297
  0
ARC
  8
_0-1_レイヤ___3
  6
CONTINUOUS
 62
    7
 10
756.36654006604999
 20
959.4290414324289
 40
12.389556062096165
 50
269.894930474288
 51
280.30940003046578
  0
ARC
  8
_0-1_レイヤ___3
  6
CONTINUOUS
 62
    7
 10
756.22479261195679
 20
957.39017168053169
 40
10.351349832612245
 50
242.36730880159519
 51
270.65884326505403
  0
ARC
  8
_0-1_レイヤ___3
  6
CONTINUOUS
 62
    7
 10
753.52265497992084
 20
952.12284277401909
 40
4.4318331055031335
 50
188.86972020810387
 51
241.73295631647386
  0
ARC
  8
_0-1_レイヤ___3
  6
CONTINUOUS
 62
    7
 10
752.45879513965428
 20
951.32975534109335
 40
3.3167914384235822
 50
126.97578318244784
 51
178.10376704297164
  0
ARC
  8
_0-1_レイヤ___3
  6
CONTINUOUS
 62
    7
 10
755.31334168130775
 20
948.09660795055322
 40
7.624064034759451
 50
98.367908048278409
 51
129.5002006454809
  0
ARC
  8
_0-1_レイヤ___3
  6
CONTINUOUS
 62
    7
 10
756.33195296804672
 20
944.41748341547645
 40
11.422028951682385
 50
89.940471975969842
 51
100.73800163149573
  0
ARC
  8
_0-1_レイヤ___3
  6
CONTINUOUS
 62
    7
 10
756.48891804982384
 20
944.93925036079054
 40
10.90122153059003
 50
63.083432130275469
 51
90.762644029899334
  0
ARC
  8
_0-1_レイヤ___3
  6
CONTINUOUS
 62
    7
 10
759.37646624487286
 20
950.73861778457649
 40
4.4232367530107615
 50
9.1172884917985986
 51
62.427977119618191
  0
CIRCLE
  8
_0-1_レイヤ___3
  6
CONTINUOUS
 62
    7
 10
753.46381999730033
 20
883.69950620247414
 40
7.3599999999999994
  0
ARC
  8
_0-1_レイヤ___3
  6
CONTINUOUS
 62
    7
 10
698.30370389943573
 20
1072.7410098071291
 40
2.8419314202834678
 50
276.87354844119562
 51
357.95312442450904
  0
ARC
  8
_0-1_レイヤ___3
  6
CONTINUOUS
 62
    7
 10
697.77739193652428
 20
1074.5643423862082
 40
4.7249574393099349
 50
269.5929207737986
 51
280.56629494622229
  0
ARC
  8
_0-1_レイヤ___3
  6
CONTINUOUS
 62
    7
 10
697.65735261945622
 20
1073.590095359403
 40
3.7515877944862659
 50
223.67223042648206
 51
271.32071257398775
  0
ARC
  8
_0-1_レイヤ___3
  6
CONTINUOUS
 62
    7
 10
696.90092091787938
 20
1072.6452721002468
 40
2.5571054257249197
 50
180.12923850379659
 51
220.0612238800077
  0
ARC
  8
_0-1_レイヤ___3
  6
CONTINUOUS
 62
    7
 10
696.76594617044657
 20
1072.5621649104219
 40
2.4233585942313933
 50
118.11858862324371
 51
178.1711466118509
  0
ARC
  8
_0-1_レイヤ___3
  6
CONTINUOUS
 62
    7
 10
697.64280313645918
 20
1071.2046152857743
 40
4.0361532899966175
 50
88.565822846850068
 51
120.01482731678232
  0
ARC
  8
_0-1_レイヤ___3
  6
CONTINUOUS
 62
    7
 10
697.82057427480913
 20
1071.371470362626
 40
3.8687952515363837
 50
44.840679188445179
 51
91.136754415737215
  0
ARC
  8
_0-1_レイヤ___3
  6
CONTINUOUS
 62
    7
 10
698.87237020063935
 20
1072.5823521188695
 40
2.2721706857570121
 50
1.4413171471413686
 51
41.890600299432968
  0
ARC
  8
_0-1_レイヤ___3
  6
CONTINUOUS
 62
    7
 10
849.96976216059784
 20
799.59132598346469
 40
5.7281713847232227
 50
321.67938402193352
 51
37.011055173534132
  0
ARC
  8
_0-1_レイヤ___3
  6
CONTINUOUS
 62
    7
 10
844.1742575434173
 20
803.29430232512686
 40
12.589959971985289
 50
300.07664908794521
 51
324.81373082035566
  0
ARC
  8
_0-1_レイヤ___3
  6
CONTINUOUS
 62
    7
 10
838.57208903126377
 20
811.87300723929889
 40
22.827756168697988
 50
277.48002348488876
 51
301.4536750707997
  0
ARC
  8
_0-1_レイヤ___3
  6
CONTINUOUS
 62
    7
 10
831.70559690533219
 20
811.7934966402953
 40
24.606360736764916
 50
267.0606700968147
 51
293.56719542615724
  0
ARC
  8
_0-1_レイヤ___3
  6
CONTINUOUS
 62
    7
 10
831.41824297200424
 20
799.16127708861893
 40
11.981458352960377
 50
241.62309458949068
 51
265.33512103250081
  0
ARC
  8
_0-1_レイヤ___3
  6
CONTINUOUS
 62
    7
 10
828.58305550005525
 20
793.49251101811774
 40
5.6499012470559116
 50
176.4788775348872
 51
239.59771069204729
  0
ARC
  8
_0-1_レイヤ___3
  6
CONTINUOUS
 62
    7
 10
827.23488102870817
 20
797.16844475901212
 40
5.4309320906012299
 50
159.62259640734618
 51
217.80373816881803
  0
ARC
  8
_0-1_レイヤ___3
  6
CONTINUOUS
 62
    7
 10
830.62860691622427
 20
795.86629806065048
 40
9.065770792899885
 50
130.30943944432028
 51
159.37640494925577
  0
ARC
  8
_0-1_レイヤ___3
  6
CONTINUOUS
 62
    7
 10
836.22894211571577
 20
790.09171829976879
 40
17.100556651915511
 50
111.70810217161902
 51
132.10204897501964
  0
ARC
  8
_0-1_レイヤ___3
  6
CONTINUOUS
 62
    7
 10
839.22037184455462
 20
783.51644583689506
 40
24.318456142659926
 50
97.26802165054977
 51
112.52622239527163
  0
ARC
  8
_0-1_レイヤ___3
  6
CONTINUOUS
 62
    7
 10
846.06379060266534
 20
786.32121215027632
 40
23.513306092093327
 50
87.95263718758919
 51
114.95381255617788
  0
ARC
  8
_0-1_レイヤ___3
  6
CONTINUOUS
 62
    7
 10
846.14154699553501
 20
798.06968391265002
 40
11.774524530607358
 50
62.140627624539505
 51
86.288132335993396
  0
ARC
  8
_0-1_レイヤ___3
  6
CONTINUOUS
 62
    7
 10
848.73073303916294
 20
803.43359894170226
 40
5.826428085994614
 50
356.1216394977335
 51
60.00146575610615
  0
ARC
  8
_0-1_レイヤ___3
  6
CONTINUOUS
 62
    7
 10
877.94135148712883
 20
754.21259038333631
 40
3.9793056384288472
 50
273.20484083531812
 51
342.85471309813136
  0
ARC
  8
_0-1_レイヤ___3
  6
CONTINUOUS
 62
    7
 10
877.44362193458733
 20
757.92450860330314
 40
7.7186730420123739
 50
260.15470542624382
 51
275.35380944197067
  0
ARC
  8
_0-1_レイヤ___3
  6
CONTINUOUS
 62
    7
 10
878.36004860503181
 20
763.48987531112186
 40
13.358865861573264
 50
236.89524988654165
 51
260.36350557477158
  0
ARC
  8
_0-1_レイヤ___3
  6
CONTINUOUS
 62
    7
 10
881.55630463165835
 20
769.39918516839589
 40
20.06218403143237
 50
224.89335435720528
 51
238.46641776923656
  0
ARC
  8
_0-1_レイヤ___3
  6
CONTINUOUS
 62
    7
 10
875.12091215319379
 20
769.90292687908777
 40
16.598163777818737
 50
210.25677633985194
 51
242.05968920220158
  0
ARC
  8
_0-1_レイヤ___3
  6
CONTINUOUS
 62
    7
 10
866.76618091107889
 20
764.6631502874726
 40
6.7487632872497283
 50
174.93041691337936
 51
207.57094594760474
  0
ARC
  8
_0-1_レイヤ___3
  6
CONTINUOUS
 62
    7
 10
863.71564624661596
 20
764.66899046018511
 40
3.7190098005290868
 50
115.00181535517135
 51
170.86370127317326
  0
ARC
  8
_0-1_レイヤ___3
  6
CONTINUOUS
 62
    7
 10
865.94475235616846
 20
766.84530354664071
 40
3.9841218305218113
 50
94.043481255029349
 51
162.55795243425482
  0
ARC
  8
_0-1_レイヤ___3
  6
CONTINUOUS
 62
    7
 10
866.72319129661389
 20
761.81784972737216
 40
9.0637810592309052
 50
67.964034321033608
 51
96.712063369023994
  0
ARC
  8
_0-1_レイヤ___3
  6
CONTINUOUS
 62
    7
 10
864.20991370810248
 20
754.11623893533431
 40
17.154869426253349
 50
44.030167031968865
 51
69.834307470503134
  0
ARC
  8
_0-1_レイヤ___3
  6
CONTINUOUS
 62
    7
 10
867.30708451256817
 20
749.57531887209927
 40
18.878209019247386
 50
40.11701909712928
 51
60.706719207509394
  0
ARC
  8
_0-1_レイヤ___3
  6
CONTINUOUS
 62
    7
 10
873.93752136168814
 20
755.2437281708344
 40
10.15546283448554
 50
12.718160828815403
 51
39.764538475499549
  0
ARC
  8
_0-1_レイヤ___3
  6
CONTINUOUS
 62
    7
 10
879.60850079268937
 20
756.76607715060072
 40
4.2949849463589871
 50
299.81263007458085
 51
9.5616023216696338
  0
ARC
  8
_0-1_レイヤ___3
  6
CONTINUOUS
 62
    7
 10
827.70908542418374
 20
736.29336645877743
 40
13.746088545984826
 50
342.84787119315831
 51
7.2979089115416844
  0
ARC
  8
_0-1_レイヤ___3
  6
CONTINUOUS
 62
    7
 10
835.40253626760091
 20
734.11562680291297
 40
5.7556372679660814
 50
322.09351772779416
 51
340.97615798690543
  0
ARC
  8
_0-1_レイヤ___3
  6
CONTINUOUS
 62
    7
 10
838.14901670400729
 20
731.94800340917413
 40
2.2570080503159349
 50
249.09901711618281
 51
322.67534309744792
  0
ARC
  8
_0-1_レイヤ___3
  6
CONTINUOUS
 62
    7
 10
836.46257244706044
 20
731.69827945059455
 40
2.0570902660214472
 50
230.12785364184185
 51
295.36575713272089
  0
ARC
  8
_0-1_レイヤ___3
  6
CONTINUOUS
 62
    7
 10
837.70195259040747
 20
733.16628736339624
 40
3.9783028331481791
 50
209.6286068383869
 51
229.9825353461313
  0
ARC
  8
_0-1_レイヤ___3
  6
CONTINUOUS
 62
    7
 10
840.60919119752975
 20
735.00466928828655
 40
7.4160087773041621
 50
195.52659548305445
 51
210.87058554423976
  0
ARC
  8
_0-1_レイヤ___3
  6
CONTINUOUS
 62
    7
 10
845.78689408251216
 20
736.32524400870307
 40
12.758762906616901
 50
172.2783919659401
 51
195.01637933897615
  0
ARC
  8
_0-1_レイヤ___3
  6
CONTINUOUS
 62
    7
 10
846.49485601776746
 20
739.69524024972975
 40
13.453312038646763
 50
162.50544341006622
 51
187.06944709613464
  0
ARC
  8
_0-1_レイヤ___3
  6
CONTINUOUS
 62
    7
 10
839.54475567214308
 20
741.68515876038953
 40
6.229427281799909
 50
143.39757184041696
 51
160.74447074223374
  0
ARC
  8
_0-1_レイヤ___3
  6
CONTINUOUS
 62
    7
 10
836.46596743358884
 20
744.07901874817696
 40
2.3320266824597273
 50
67.887071041895268
 51
145.51141742607973
  0
ARC
  8
_0-1_レイヤ___3
  6
CONTINUOUS
 62
    7
 10
838.27561659445996
 20
744.60810514272396
 40
1.8787568675740163
 50
51.552675012890589
 51
119.73336670837483
  0
ARC
  8
_0-1_レイヤ___3
  6
CONTINUOUS
 62
    7
 10
837.23102813554476
 20
743.33283317811208
 40
3.527133914164073
 50
30.05835359470256
 51
51.144235695307039
  0
ARC
  8
_0-1_レイヤ___3
  6
CONTINUOUS
 62
    7
 10
833.9890311485899
 20
741.47965181343875
 40
7.2613852829447536
 50
14.351332967396024
 51
29.90133665133823
  0
ARC
  8
_0-1_レイヤ___3
  6
CONTINUOUS
 62
    7
 10
827.92858169808767
 20
739.85003012313257
 40
13.536858843424817
 50
352.31380460536928
 51
14.675473249139966
  0
ARC
  8
_0-1_レイヤ___3
  6
CONTINUOUS
 62
    7
 10
780.43267239113106
 20
744.3870134754012
 40
5.8454063821043576
 50
279.36464206963376
 51
317.52121517909541
  0
ARC
  8
_0-1_レイヤ___3
  6
CONTINUOUS
 62
    7
 10
779.46363632938051
 20
749.06329092708972
 40
10.618835206480954
 50
253.92775354429787
 51
280.41799729937338
  0
ARC
  8
_0-1_レイヤ___3
  6
CONTINUOUS
 62
    7
 10
781.56286757486419
 20
757.99495543584271
 40
19.787805961454982
 50
226.50789994054821
 51
255.24690510666994
  0
ARC
  8
_0-1_レイヤ___3
  6
CONTINUOUS
 62
    7
 10
783.09426560922566
 20
760.06608782504009
 40
22.346553529125938
 50
199.30196156969146
 51
227.31425270774619
  0
ARC
  8
_0-1_レイヤ___3
  6
CONTINUOUS
 62
    7
 10
772.19325764365499
 20
755.90780411650246
 40
10.688617032033809
 50
171.43589847847269
 51
197.57964310833316
  0
ARC
  8
_0-1_レイヤ___3
  6
CONTINUOUS
 62
    7
 10
767.43587148745064
 20
756.38749799553989
 40
5.9174749027340479
 50
139.38635223481134
 51
169.16859393250607
  0
ARC
  8
_0-1_レイヤ___3
  6
CONTINUOUS
 62
    7
 10
767.34774167800288
 20
755.99963652734505
 40
6.113185584564313
 50
98.882434609630323
 51
136.08728242959151
  0
ARC
  8
_0-1_レイヤ___3
  6
CONTINUOUS
 62
    7
 10
768.09497740130098
 20
751.67885728271142
 40
10.497766469410607
 50
72.659576302599532
 51
99.27056866514593
  0
ARC
  8
_0-1_レイヤ___3
  6
CONTINUOUS
 62
    7
 10
765.71396141472951
 20
742.14210179846168
 40
20.318727490953886
 50
46.331167124206416
 51
74.266013784971321
  0
ARC
  8
_0-1_レイヤ___3
  6
CONTINUOUS
 62
    7
 10
764.21346615775724
 20
739.91230996877084
 40
22.972199076807943
 50
19.974111467167276
 51
47.464262652342377
  0
ARC
  8
_0-1_レイヤ___3
  6
CONTINUOUS
 62
    7
 10
776.24662953042616
 20
744.73053496512398
 40
10.025696016166874
 50
351.56279101194247
 51
17.585051507859607
  0
ARC
  8
_0-1_レイヤ___3
  6
CONTINUOUS
 62
    7
 10
780.52657949211243
 20
744.33060293912922
 40
5.7380937744033043
 50
317.30341078560804
 51
349.24186574835932
  0
ARC
  8
_0-1_レイヤ___3
  6
CONTINUOUS
 62
    7
 10
746.84826403609122
 20
804.04513419587511
 40
4.0778536367644485
 50
274.4381479502934
 51
342.80335571448234
  0
ARC
  8
_0-1_レイヤ___3
  6
CONTINUOUS
 62
    7
 10
746.21206964215105
 20
808.84136944964905
 40
8.9128229816769728
 50
246.95996204917969
 51
276.12998259645713
  0
ARC
  8
_0-1_レイヤ___3
  6
CONTINUOUS
 62
    7
 10
748.81816276107338
 20
816.84286697220705
 40
17.311552476396447
 50
223.89768794197306
 51
249.38791568309836
  0
ARC
  8
_0-1_レイヤ___3
  6
CONTINUOUS
 62
    7
 10
745.58055348203334
 20
821.3036975328489
 40
18.878209019248182
 50
220.11701909712636
 51
240.70671920750647
  0
ARC
  8
_0-1_レイヤ___3
  6
CONTINUOUS
 62
    7
 10
738.9501166329112
 20
815.63528823411332
 40
10.155462834484419
 50
192.71816082881472
 51
219.76453847549885
  0
ARC
  8
_0-1_レイヤ___3
  6
CONTINUOUS
 62
    7
 10
733.279137201911
 20
814.11293925434745
 40
4.2949849463588947
 50
119.81263007458395
 51
189.56160232167272
  0
ARC
  8
_0-1_レイヤ___3
  6
CONTINUOUS
 62
    7
 10
735.06295599796681
 20
816.35107537192027
 40
4.1922618337591935
 50
92.449003221083387
 51
159.20392589434982
  0
ARC
  8
_0-1_レイヤ___3
  6
CONTINUOUS
 62
    7
 10
735.76663138935032
 20
811.25803031480257
 40
9.3233678321337603
 50
67.305031751108885
 51
95.433364671798586
  0
ARC
  8
_0-1_レイヤ___3
  6
CONTINUOUS
 62
    7
 10
733.15809198535226
 20
803.54459239294079
 40
17.455301144077545
 50
43.860736303588439
 51
69.174614709970641
  0
ARC
  8
_0-1_レイヤ___3
  6
CONTINUOUS
 62
    7
 10
736.24061451776834
 20
799.19452481045425
 40
18.993377613000064
 50
38.891643080105247
 51
59.977297932099546
  0
ARC
  8
_0-1_レイヤ___3
  6
CONTINUOUS
 62
    7
 10
743.27576755809878
 20
804.99159096265316
 40
9.8784455406058207
 50
11.846304949886193
 51
38.340392989780256
  0
ARC
  8
_0-1_レイヤ___3
  6
CONTINUOUS
 62
    7
 10
749.00581522694574
 20
806.42319492371348
 40
3.9828973245315518
 50
295.87230717241573
 51
8.6106116254564302
  0
ARC
  8
_0-1_レイヤ___3
  6
CONTINUOUS
 62
    7
 10
697.48477625679413
 20
786.19956188067727
 40
13.161612642637316
 50
342.30690768068479
 51
7.1576980632222922
  0
ARC
  8
_0-1_レイヤ___3
  6
CONTINUOUS
 62
    7
 10
704.25514447694673
 20
784.22243848407618
 40
6.1130895775661394
 50
322.48207449081769
 51
340.67550706014464
  0
ARC
  8
_0-1_レイヤ___3
  6
CONTINUOUS
 62
    7
 10
707.14295261001268
 20
781.93368725935147
 40
2.4293765615306144
 50
250.79521274264295
 51
323.81825003956328
  0
ARC
  8
_0-1_レイヤ___3
  6
CONTINUOUS
 62
    7
 10
705.46257344706055
 20
781.49827588807716
 40
2.0570884257488857
 50
230.12784711824406
 51
295.3657506091231
  0
ARC
  8
_0-1_レイヤ___3
  6
CONTINUOUS
 62
    7
 10
706.70195459040747
 20
782.96628536339608
 40
3.9783028331481791
 50
209.6286068383869
 51
229.9825353461313
  0
ARC
  8
_0-1_レイヤ___3
  6
CONTINUOUS
 62
    7
 10
709.60919319752975
 20
784.80466728828651
 40
7.4160087773041621
 50
195.52659548305445
 51
210.87058554423976
  0
ARC
  8
_0-1_レイヤ___3
  6
CONTINUOUS
 62
    7
 10
714.78689608251216
 20
786.12524200870303
 40
12.758762906616992
 50
172.27839196594007
 51
195.01637933897612
  0
ARC
  8
_0-1_レイヤ___3
  6
CONTINUOUS
 62
    7
 10
715.20286573780618
 20
789.47945452427098
 40
13.161612642637275
 50
162.30690768068476
 51
187.15769806322228
  0
ARC
  8
_0-1_レイヤ___3
  6
CONTINUOUS
 62
    7
 10
708.4324975176537
 20
791.45657792087206
 40
6.1130895775661394
 50
142.48207449081769
 51
160.67550706014464
  0
ARC
  8
_0-1_レイヤ___3
  6
CONTINUOUS
 62
    7
 10
705.54468838458774
 20
793.74533049645129
 40
2.4293749569071394
 50
70.795224534728092
 51
143.81826183164844
  0
ARC
  8
_0-1_レイヤ___3
  6
CONTINUOUS
 62
    7
 10
707.22506754753965
 20
794.18073895435384
 40
2.0570902660214472
 50
50.127853641841845
 51
115.36575713272084
  0
ARC
  8
_0-1_レイヤ___3
  6
CONTINUOUS
 62
    7
 10
705.98568740419296
 20
792.71273104155125
 40
3.9783028331486947
 50
29.628606838395779
 51
49.98253534614016
  0
ARC
  8
_0-1_レイヤ___3
  6
CONTINUOUS
 62
    7
 10
703.07844879707068
 20
790.87434911666173
 40
7.4160087773041621
 50
15.526595483054447
 51
30.870585544239759
  0
ARC
  8
_0-1_レイヤ___3
  6
CONTINUOUS
 62
    7
 10
697.90074591208827
 20
789.55377439624522
 40
12.758762906616944
 50
352.27839196594005
 51
15.016379338976126
  0
ARC
  8
_0-1_レイヤ___3
  6
CONTINUOUS
 62
    7
 10
897.70152225460208
 20
800.07509543627395
 40
10.843542250105283
 50
345.16911754916714
 51
0.8687676371730147
  0
ARC
  8
_0-1_レイヤ___3
  6
CONTINUOUS
 62
    7
 10
905.44996874168851
 20
797.86643283027956
 40
2.7920127660921672
 50
318.58540418930471
 51
348.28449345655144
  0
ARC
  8
_0-1_レイヤ___3
  6
CONTINUOUS
 62
    7
 10
907.13060084216465
 20
796.40332410277563
 40
0.5639707994415206
 50
271.34290028220778
 51
317.11259035364213
  0
ARC
  8
_0-1_レイヤ___3
  6
CONTINUOUS
 62
    7
 10
907.25214743012657
 20
796.63748470520909
 40
0.8052960728412952
 50
211.26751477121132
 51
262.26906309280827
  0
ARC
  8
_0-1_レイヤ___3
  6
CONTINUOUS
 62
    7
 10
909.74244144105285
 20
798.22201765560078
 40
3.7568192805931568
 50
191.71050118860111
 51
212.21062685160751
  0
ARC
  8
_0-1_レイヤ___3
  6
CONTINUOUS
 62
    7
 10
917.07894218700517
 20
800.13585343294289
 40
11.335598118638483
 50
179.476069676501
 51
193.65652756498349
  0
ARC
  8
_0-1_レイヤ___3
  6
CONTINUOUS
 62
    7
 10
916.58611373999838
 20
800.40392096867436
 40
10.843542250105223
 50
165.16911754916708
 51
180.86876763717297
  0
ARC
  8
_0-1_レイヤ___3
  6
CONTINUOUS
 62
    7
 10
908.83766725291116
 20
802.61258357466863
 40
2.7920127660913918
 50
138.58540418929675
 51
168.28449345654349
  0
ARC
  8
_0-1_レイヤ___3
  6
CONTINUOUS
 62
    7
 10
907.15703515243604
 20
804.07569230217291
 40
0.5639707994414218
 50
91.342900282275949
 51
137.11259035371026
  0
ARC
  8
_0-1_レイヤ___3
  6
CONTINUOUS
 62
    7
 10
907.03548856447355
 20
803.84153169973899
 40
0.8052960728415714
 50
31.267514771224192
 51
82.269063092821156
  0
ARC
  8
_0-1_レイヤ___3
  6
CONTINUOUS
 62
    7
 10
904.54519455354614
 20
802.25699874934821
 40
3.7568192805940153
 50
11.710501188582692
 51
32.210626851589097
  0
ARC
  8
_0-1_レイヤ___3
  6
CONTINUOUS
 62
    7
 10
897.208693807597
 20
800.34316297200405
 40
11.335598118636753
 50
359.47606967650785
 51
13.656527564990345
  0
ARC
  8
_0-1_レイヤ___3
  6
CONTINUOUS
 62
    7
 10
927.72179990926134
 20
761.93699987328671
 40
10.42252219882289
 50
344.88646148633057
 51
0.5635285979001951
  0
ARC
  8
_0-1_レイヤ___3
  6
CONTINUOUS
 62
    7
 10
934.06380475060791
 20
760.06376094750919
 40
3.8146115468112107
 50
322.83879789715832
 51
347.21338029106835
  0
ARC
  8
_0-1_レイヤ___3
  6
CONTINUOUS
 62
    7
 10
936.48160049724368
 20
758.19838882757267
 40
0.7614268319828022
 50
274.68696254822748
 51
324.80280004567146
  0
ARC
  8
_0-1_レイヤ___3
  6
CONTINUOUS
 62
    7
 10
936.64840402372079
 20
758.23177108490563
 40
0.7991362285626149
 50
211.0566689210979
 51
262.47990894292172
  0
ARC
  8
_0-1_レイヤ___3
  6
CONTINUOUS
 62
    7
 10
939.09853033949616
 20
759.81668539189843
 40
3.7168720981859598
 50
192.06928781924032
 51
212.50188747441797
  0
ARC
  8
_0-1_レイヤ___3
  6
CONTINUOUS
 62
    7
 10
947.37646111937943
 20
761.82725680216276
 40
12.234484394901505
 50
179.00594752059766
 51
193.17110878779675
  0
ARC
  8
_0-1_レイヤ___3
  6
CONTINUOUS
 62
    7
 10
945.98611373999825
 20
762.20392096867408
 40
10.843542250105283
 50
165.16911754916714
 51
180.86876763717302
  0
ARC
  8
_0-1_レイヤ___3
  6
CONTINUOUS
 62
    7
 10
938.23766725291193
 20
764.41258357466847
 40
2.7920127660921672
 50
138.58540418930468
 51
168.28449345655142
  0
ARC
  8
_0-1_レイヤ___3
  6
CONTINUOUS
 62
    7
 10
936.55703515243545
 20
765.87569230217287
 40
0.5639707994411873
 50
91.342900282223042
 51
137.11259035365737
  0
ARC
  8
_0-1_レイヤ___3
  6
CONTINUOUS
 62
    7
 10
936.41139604153545
 20
765.56673669337158
 40
0.8827602627382258
 50
33.932559252970528
 51
81.372553748193027
  0
ARC
  8
_0-1_レイヤ___3
  6
CONTINUOUS
 62
    7
 10
934.03528017151734
 20
763.79021570612792
 40
3.8487265229289469
 50
15.511819766124397
 51
36.130164182247292
  0
ARC
  8
_0-1_レイヤ___3
  6
CONTINUOUS
 62
    7
 10
928.77108565637684
 20
762.10969059946387
 40
9.3729950978027095
 50
359.57098102819418
 51
16.804622995610444
  0
ARC
  8
_0-1_レイヤ___3
  6
CONTINUOUS
 62
    7
 10
760.39074219325221
 20
1304.8955232990556
 40
3.3535457872749501
 50
308.18297755300637
 51
359.0427933556777
  0
ARC
  8
_0-1_レイヤ___3
  6
CONTINUOUS
 62
    7
 10
758.46990125966727
 20
1306.9659662731669
 40
6.1726987418311072
 50
293.82998346511181
 51
310.31801828545548
  0
ARC
  8
_0-1_レイヤ___3
  6
CONTINUOUS
 62
    7
 10
756.69020273438582
 20
1311.188490832775
 40
10.754570217858319
 50
268.15430078611928
 51
293.414294949007
  0
ARC
  8
_0-1_レイヤ___3
  6
CONTINUOUS
 62
    7
 10
756.17267862934932
 20
1311.0619133427497
 40
10.623791709673267
 50
242.72268845366486
 51
270.92303223839349
  0
ARC
  8
_0-1_レイヤ___3
  6
CONTINUOUS
 62
    7
 10
753.3421753655756
 20
1305.3213162259137
 40
4.2259122658627915
 50
186.54679642031994
 51
241.16121058105443
  0
ARC
  8
_0-1_レイヤ___3
  6
CONTINUOUS
 62
    7
 10
752.45879513965428
 20
1304.7297493410938
 40
3.316791438423591
 50
126.97578318244794
 51
178.10376704297173
  0
ARC
  8
_0-1_レイヤ___3
  6
CONTINUOUS
 62
    7
 10
755.31334168130741
 20
1301.4966019505537
 40
7.6240640347594297
 50
98.367908048278082
 51
129.50020064548059
  0
ARC
  8
_0-1_レイヤ___3
  6
CONTINUOUS
 62
    7
 10
756.33195296804672
 20
1297.8174774154768
 40
11.422028951682385
 50
89.940471975969842
 51
100.73800163149573
  0
ARC
  8
_0-1_レイヤ___3
  6
CONTINUOUS
 62
    7
 10
756.4889180498219
 20
1298.3392443607904
 40
10.901221530590469
 50
63.083432130265585
 51
90.762644029889458
  0
ARC
  8
_0-1_レイヤ___3
  6
CONTINUOUS
 62
    7
 10
759.37646624487365
 20
1304.1386117845764
 40
4.4232367530099097
 50
9.1172884918065495
 51
62.427977119626142
  0
CIRCLE
  8
_0-1_レイヤ___3
  6
CONTINUOUS
 62
    7
 10
753.46381999730033
 20
1237.0395022024743
 40
7.3599999999999994
  0
ARC
  8
_0-1_レイヤ___3
  6
CONTINUOUS
 62
    7
 10
792.05275896589228
 20
616.91057364593667
 40
5.4309320906006917
 50
339.62259640734084
 51
37.803738168812657
  0
ARC
  8
_0-1_レイヤ___3
  6
CONTINUOUS
 62
    7
 10
788.65903693578787
 20
618.21272134429682
 40
9.0657675349186437
 50
310.30942494242515
 51
339.37639044736062
  0
ARC
  8
_0-1_レイヤ___3
  6
CONTINUOUS
 62
    7
 10
783.05869787888469
 20
623.98730210518033
 40
17.100556651916222
 50
291.70810217161772
 51
312.10204897501836
  0
ARC
  8
_0-1_レイヤ___3
  6
CONTINUOUS
 62
    7
 10
780.06726815004549
 20
630.56257456805326
 40
24.318456142659887
 50
277.26802165054949
 51
292.5262223952713
  0
ARC
  8
_0-1_レイヤ___3
  6
CONTINUOUS
 62
    7
 10
773.20050545007348
 20
627.84972477173858
 40
23.606497123592636
 50
267.87169059731883
 51
294.91106202925124
  0
ARC
  8
_0-1_レイヤ___3
  6
CONTINUOUS
 62
    7
 10
773.08889272527779
 20
616.10156159439282
 40
11.866737971310277
 50
242.25137909648089
 51
266.3034606958397
  0
ARC
  8
_0-1_レイヤ___3
  6
CONTINUOUS
 62
    7
 10
770.37916374561723
 20
610.50985583671218
 40
5.6601797698913137
 50
174.63064076115998
 51
240.17221224384599
  0
ARC
  8
_0-1_レイヤ___3
  6
CONTINUOUS
 62
    7
 10
768.69135101015013
 20
614.40372312021952
 40
5.1866093159686582
 50
160.44770913615696
 51
220.43868700137341
  0
ARC
  8
_0-1_レイヤ___3
  6
CONTINUOUS
 62
    7
 10
772.08847772277807
 20
613.0756469058083
 40
8.8330522430798446
 50
130.2279991059593
 51
159.70440851828101
  0
ARC
  8
_0-1_レイヤ___3
  6
CONTINUOUS
 62
    7
 10
778.26446052753249
 20
606.8027414537188
 40
17.623447110800658
 50
111.85554179328112
 51
132.38726931217744
  0
ARC
  8
_0-1_レイヤ___3
  6
CONTINUOUS
 62
    7
 10
781.43347443933658
 20
599.87670494658528
 40
25.234008721269063
 50
98.407790044740281
 51
112.67956840866746
  0
ARC
  8
_0-1_レイヤ___3
  6
CONTINUOUS
 62
    7
 10
787.490674027159
 20
602.85717657351734
 40
24.046291923166493
 50
87.44213520307504
 51
113.91225275210677
  0
ARC
  8
_0-1_レイヤ___3
  6
CONTINUOUS
 62
    7
 10
787.68828601031089
 20
614.53082154351193
 40
12.379687853833765
 50
61.981009574846539
 51
85.944460310923162
  0
ARC
  8
_0-1_レイヤ___3
  6
CONTINUOUS
 62
    7
 10
790.66723340154965
 20
620.53366615421157
 40
5.684202943509014
 50
357.03363402890466
 51
60.064167908519295
  0
ARC
  8
_0-1_レイヤ___3
  6
CONTINUOUS
 62
    7
 10
843.03476850446464
 20
674.97713393456388
 40
27.666580522982976
 50
283.18162594285104
 51
300.42119302985117
  0
ARC
  8
_0-1_レイヤ___3
  6
CONTINUOUS
 62
    7
 10
854.12724012229683
 20
655.76793006358889
 40
5.487643729886714
 50
302.10556855634871
 51
321.86885643528876
  0
ARC
  8
_0-1_レイヤ___3
  6
CONTINUOUS
 62
    7
 10
857.42970633231266
 20
653.23897576803688
 40
1.3293244628200984
 50
319.71852899623877
 51
8.6764430958875032
  0
ARC
  8
_0-1_レイヤ___3
  6
CONTINUOUS
 62
    7
 10
857.63762694174602
 20
653.08535388429334
 40
1.1615013340911504
 50
17.752901985234363
 51
60.825911739781468
  0
ARC
  8
_0-1_レイヤ___3
  6
CONTINUOUS
 62
    7
 10
856.39439978972837
 20
650.91756632590113
 40
3.6604318165419758
 50
60.375195746156507
 51
81.683988636868264
  0
ARC
  8
_0-1_レイヤ___3
  6
CONTINUOUS
 62
    7
 10
855.13234487912598
 20
642.77004783898201
 40
11.905025000343173
 50
81.345231596124847
 51
92.929957951656746
  0
ARC
  8
_0-1_レイヤ___3
  6
CONTINUOUS
 62
    7
 10
855.89125439935344
 20
624.1044792951119
 40
30.585614201181571
 50
92.562461510638698
 51
105.06070511224223
  0
ARC
  8
_0-1_レイヤ___3
  6
CONTINUOUS
 62
    7
 10
853.97342381639476
 20
627.9921932145761
 40
26.346556037011219
 50
103.22981481161789
 51
120.89889105669428
  0
ARC
  8
_0-1_レイヤ___3
  6
CONTINUOUS
 62
    7
 10
843.39472633370542
 20
645.91294538424495
 40
5.5382081764167825
 50
122.19668177244306
 51
141.77774321917354
  0
ARC
  8
_0-1_レイヤ___3
  6
CONTINUOUS
 62
    7
 10
840.11737685571325
 20
648.4558148293761
 40
1.3904841368793015
 50
140.5406425170348
 51
188.94931400114106
  0
ARC
  8
_0-1_レイヤ___3
  6
CONTINUOUS
 62
    7
 10
839.7946058069399
 20
648.64221572852716
 40
1.1253099832730937
 50
200.96894358645662
 51
243.00527037064427
  0
ARC
  8
_0-1_レイヤ___3
  6
CONTINUOUS
 62
    7
 10
841.17938254885394
 20
651.3396447240973
 40
4.1574223320724242
 50
242.87411273306077
 51
262.32047900422344
  0
ARC
  8
_0-1_レイヤ___3
  6
CONTINUOUS
 62
    7
 10
842.53253322323781
 20
660.34834009780047
 40
13.266852235332468
 50
261.7280935451513
 51
272.98681586672353
  0
ARC
  8
_0-1_レイヤ___3
  6
CONTINUOUS
 62
    7
 10
842.06820545536971
 20
675.01583866695546
 40
27.94023685089077
 50
272.37043851690845
 51
285.09374466323186
  0
ARC
  8
_0-1_レイヤ___3
  6
CONTINUOUS
 62
    7
 10
825.96262680247548
 20
709.50155241695506
 40
0.9831527459900629
 50
309.18585214170554
 51
356.38192474369686
  0
ARC
  8
_0-1_レイヤ___3
  6
CONTINUOUS
 62
    7
 10
824.91895575849753
 20
710.74482082474083
 40
2.6063467968441167
 50
284.32493686899483
 51
309.70039382687696
  0
ARC
  8
_0-1_レイヤ___3
  6
CONTINUOUS
 62
    7
 10
824.18337583474454
 20
713.41856970708341
 40
5.379204942963435
 50
269.57867324438735
 51
284.869958143693
  0
ARC
  8
_0-1_レイヤ___3
  6
CONTINUOUS
 62
    7
 10
823.96204436329299
 20
713.23885639843002
 40
5.2025227771264371
 50
249.07303913996356
 51
272.00231644397684
  0
ARC
  8
_0-1_レイヤ___3
  6
CONTINUOUS
 62
    7
 10
822.51758589786107
 20
709.71895856524668
 40
1.401900187959455
 50
191.49809890262239
 51
252.83367906476968
  0
ARC
  8
_0-1_レイヤ___3
  6
CONTINUOUS
 62
    7
 10
822.27428988931274
 20
709.36928762204639
 40
1.1326488368199445
 50
132.86218275822114
 51
176.44546535783459
  0
ARC
  8
_0-1_レイヤ___3
  6
CONTINUOUS
 62
    7
 10
823.31977335685281
 20
708.19283360464033
 40
2.7063698144124899
 50
107.10379872604733
 51
132.143698776306
  0
ARC
  8
_0-1_レイヤ___3
  6
CONTINUOUS
 62
    7
 10
824.11514579671211
 20
706.04124945229569
 40
4.9983429990901751
 50
89.671307133891901
 51
108.56441837371356
  0
ARC
  8
_0-1_レイヤ___3
  6
CONTINUOUS
 62
    7
 10
824.27077044242446
 20
707.58536884985688
 40
3.4564734773144163
 50
43.840591838272211
 51
92.104850823387238
  0
ARC
  8
_0-1_レイヤ___3
  6
CONTINUOUS
 62
    7
 10
825.98575147681572
 20
709.42015402897937
 40
0.9582640301062421
 50
1.1574080244000928
 51
35.712489621448455
  0
ARC
  8
_0-1_レイヤ___3
  6
CONTINUOUS
 62
    7
 10
725.88240959454652
 20
702.16923187436589
 40
11.297302172087706
 50
158.8821380258214
 51
174.15608234430164
  0
ARC
  8
_0-1_レイヤ___3
  6
CONTINUOUS
 62
    7
 10
717.25248898508596
 20
702.90850094393591
 40
2.6408488215800667
 50
171.04635746169302
 51
201.99324604163601
  0
ARC
  8
_0-1_レイヤ___3
  6
CONTINUOUS
 62
    7
 10
715.26935988551031
 20
702.13838006672881
 40
0.5144233713522958
 50
205.18018911847844
 51
255.87489118478021
  0
ARC
  8
_0-1_レイヤ___3
  6
CONTINUOUS
 62
    7
 10
715.38790533038059
 20
702.16231553935017
 40
0.5769775299706563
 50
244.97325211847524
 51
303.1979814414683
  0
ARC
  8
_0-1_レイヤ___3
  6
CONTINUOUS
 62
    7
 10
713.93333893728686
 20
704.54241803010689
 40
3.3661319661277274
 50
301.7334987075065
 51
323.06137688751289
  0
ARC
  8
_0-1_レイヤ___3
  6
CONTINUOUS
 62
    7
 10
707.69835215056241
 20
709.62153842749103
 40
11.406260613894446
 50
321.49060239243613
 51
336.31477183599969
  0
ARC
  8
_0-1_レイヤ___3
  6
CONTINUOUS
 62
    7
 10
708.54353533608651
 20
709.17776434208076
 40
10.454215078154235
 50
336.68128296763916
 51
352.31363944909759
  0
ARC
  8
_0-1_レイヤ___3
  6
CONTINUOUS
 62
    7
 10
716.21600199084298
 20
708.37125074503501
 40
2.7521850420250029
 50
347.58403018934803
 51
32.241472704096402
  0
ARC
  8
_0-1_レイヤ___3
  6
CONTINUOUS
 62
    7
 10
718.4280749805481
 20
708.75715162550478
 40
1.0885297414597381
 50
83.896113732864421
 51
127.6062335940771
  0
ARC
  8
_0-1_レイヤ___3
  6
CONTINUOUS
 62
    7
 10
720.5634767851152
 20
705.73985341465971
 40
4.7843301433735475
 50
125.81515301550417
 51
144.18484698450521
  0
ARC
  8
_0-1_レイヤ___3
  6
CONTINUOUS
 62
    7
 10
726.28398685256457
 20
701.40602168679811
 40
11.960345398532477
 50
143.38548026723501
 51
156.16362028285664
  0
ARC
  8
_0-1_レイヤ___3
  6
CONTINUOUS
 62
    7
 10
921.12472591260257
 20
648.41125718818432
 40
8.2302415117046337
 50
2.9826799501042509
 51
91.259512843218943
  0
ARC
  8
_0-1_レイヤ___3
  6
CONTINUOUS
 62
    7
 10
921.2430624324677
 20
648.11466348857994
 40
8.5300972284828305
 50
92.010406378606817
 51
175.1254012530604
  0
ARC
  8
_0-1_レイヤ___3
  6
CONTINUOUS
 62
    7
 10
921.09794400779742
 20
649.19998936323395
 40
8.3618997018984498
 50
182.47077075590909
 51
268.94386798118092
  0
ARC
  8
_0-1_レイヤ___3
  6
CONTINUOUS
 62
    7
 10
920.68035754362859
 20
649.52614367882938
 40
8.6906278578236638
 50
271.73721455047894
 51
355.46842339493008
  0
ARC
  8
_0-1_レイヤ___3
  6
CONTINUOUS
 62
    7
 10
891.51339168828849
 20
706.7618987041044
 40
3.2327438938594972
 50
305.78706357790867
 51
357.83031967449989
  0
ARC
  8
_0-1_レイヤ___3
  6
CONTINUOUS
 62
    7
 10
888.39638589178662
 20
710.32822567923176
 40
7.9608150049846005
 50
278.72382927774413
 51
308.97711853840644
  0
ARC
  8
_0-1_レイヤ___3
  6
CONTINUOUS
 62
    7
 10
887.33992806118385
 20
713.99765227347416
 40
11.758142714452342
 50
270.01895511319395
 51
281.10093941343689
  0
ARC
  8
_0-1_レイヤ___3
  6
CONTINUOUS
 62
    7
 10
887.25543491131225
 20
713.048225939811
 40
10.809077086432762
 50
242.97382909538766
 51
270.46849829986058
  0
ARC
  8
_0-1_レイヤ___3
  6
CONTINUOUS
 62
    7
 10
884.67396193000673
 20
707.8922120867752
 40
5.0432760080089292
 50
205.01656454330902
 51
242.48183382717218
  0
ARC
  8
_0-1_レイヤ___3
  6
CONTINUOUS
 62
    7
 10
882.55935696310075
 20
706.66051728716388
 40
2.6156233251803842
 50
180.4601695591696
 51
200.14952337831278
  0
ARC
  8
_0-1_レイヤ___3
  6
CONTINUOUS
 62
    7
 10
883.17424430631172
 20
706.51712170084409
 40
3.2327438938593449
 50
125.78706357791371
 51
177.83031967450492
  0
ARC
  8
_0-1_レイヤ___3
  6
CONTINUOUS
 62
    7
 10
886.2912501028145
 20
702.95079472571672
 40
7.9608150049849318
 50
98.723829277749516
 51
128.97711853841182
  0
ARC
  8
_0-1_レイヤ___3
  6
CONTINUOUS
 62
    7
 10
887.34770793341431
 20
699.28136813147398
 40
11.758142714452129
 50
90.018955113183267
 51
101.10093941342618
  0
ARC
  8
_0-1_レイヤ___3
  6
CONTINUOUS
 62
    7
 10
887.43220108328899
 20
700.23079446513736
 40
10.809077086432559
 50
62.973829095392283
 51
90.468498299865217
  0
ARC
  8
_0-1_レイヤ___3
  6
CONTINUOUS
 62
    7
 10
890.01367406459281
 20
705.38680831817351
 40
5.0432760080091024
 50
25.016564543300149
 51
62.481833827163307
  0
ARC
  8
_0-1_レイヤ___3
  6
CONTINUOUS
 62
    7
 10
892.12827903149957
 20
706.61850311778267
 40
2.6156233251806817
 50
0.4601695592054329
 51
20.149523378348604
  0
ARC
  8
_0-1_レイヤ___3
  6
CONTINUOUS
 62
    7
 10
790.33007845607017
 20
715.87671810047198
 40
30.435818658232471
 50
147.21016877053461
 51
156.85560021722463
  0
ARC
  8
_0-1_レイヤ___3
  6
CONTINUOUS
 62
    7
 10
769.55887502410008
 20
729.5227740103237
 40
5.5885442769087001
 50
128.44898494862403
 51
149.49600693288181
  0
ARC
  8
_0-1_レイヤ___3
  6
CONTINUOUS
 62
    7
 10
766.45836222397725
 20
733.49458574339201
 40
0.5515847143706853
 50
81.087184264448595
 51
132.76784186380533
  0
ARC
  8
_0-1_レイヤ___3
  6
CONTINUOUS
 62
    7
 10
766.08786193922901
 20
733.43608362071313
 40
0.75632095719723
 50
1.7749858324324508
 51
52.924765727714956
  0
ARC
  8
_0-1_レイヤ___3
  6
CONTINUOUS
 62
    7
 10
761.73822891349289
 20
733.1472912100935
 40
5.1151286410271997
 50
346.11172731603455
 51
3.4994148684882265
  0
ARC
  8
_0-1_レイヤ___3
  6
CONTINUOUS
 62
    7
 10
740.198705766069
 20
737.82121494621697
 40
27.154211446715255
 50
335.6829668437872
 51
347.4471355103725
  0
ARC
  8
_0-1_レイヤ___3
  6
CONTINUOUS
 62
    7
 10
737.79732820851848
 20
737.5927549205561
 40
29.272949736789265
 50
328.22833578406875
 51
338.02658623262039
  0
ARC
  8
_0-1_レイヤ___3
  6
CONTINUOUS
 62
    7
 10
757.70888585516786
 20
724.98489254651054
 40
5.7114043644963086
 50
309.52645172314203
 51
330.58120037697688
  0
ARC
  8
_0-1_レイヤ___3
  6
CONTINUOUS
 62
    7
 10
760.9305669709363
 20
720.99488031546241
 40
0.5859269532653491
 50
251.414431865007
 51
314.8536127477642
  0
ARC
  8
_0-1_レイヤ___3
  6
CONTINUOUS
 62
    7
 10
761.19977805537133
 20
721.04293678423483
 40
0.7563209571970788
 50
181.77498583241029
 51
232.9247657276928
  0
ARC
  8
_0-1_レイヤ___3
  6
CONTINUOUS
 62
    7
 10
765.54934406640996
 20
721.33173528710108
 40
5.1150621231542051
 50
166.11161338281545
 51
183.49952880172827
  0
ARC
  8
_0-1_レイヤ___3
  6
CONTINUOUS
 62
    7
 10
787.08893422853123
 20
716.65780545873133
 40
27.154211446715255
 50
155.6829668437872
 51
167.4471355103725
  0
CIRCLE
  8
_0-1_レイヤ___3
  6
CONTINUOUS
 62
    7
 10
884.42381799730015
 20
638.83951020247434
 40
7.3599999999999994
  0
ARC
  8
_0-1_レイヤ___3
  6
CONTINUOUS
 62
    7
 10
795.46847220279778
 20
664.51839914805976
 40
7.889031981014142
 50
330.04717864842968
 51
18.637022746756035
  0
ARC
  8
_0-1_レイヤ___3
  6
CONTINUOUS
 62
    7
 10
792.70455009221848
 20
665.952420046116
 40
11.000642840239346
 50
287.12527178999977
 51
330.76335847813152
  0
ARC
  8
_0-1_レイヤ___3
  6
CONTINUOUS
 62
    7
 10
792.43942765939551
 20
666.03772108291901
 40
11.162564200233994
 50
236.77915346180583
 51
288.29692596654274
  0
ARC
  8
_0-1_レイヤ___3
  6
CONTINUOUS
 62
    7
 10
791.18975649080176
 20
663.47679211887885
 40
8.3431941205522477
 50
199.881225745563
 51
234.32250044872103
  0
ARC
  8
_0-1_レイヤ___3
  6
CONTINUOUS
 62
    7
 10
790.81916779180256
 20
663.16062125688848
 40
7.889031981014142
 50
150.04717864842968
 51
198.63702274675603
  0
ARC
  8
_0-1_レイヤ___3
  6
CONTINUOUS
 62
    7
 10
793.58308990238186
 20
661.72660035883212
 40
11.000642840239346
 50
107.1252717899998
 51
150.76335847813155
  0
ARC
  8
_0-1_レイヤ___3
  6
CONTINUOUS
 62
    7
 10
793.92682481168265
 20
661.55585995616912
 40
11.26846511665434
 50
57.12268931115765
 51
108.5400476914528
  0
ARC
  8
_0-1_レイヤ___3
  6
CONTINUOUS
 62
    7
 10
795.16623951057431
 20
664.41896160661815
 40
8.2071939888579575
 50
18.620534931141922
 51
53.536861759978635
  0
ARC
  8
_0-1_レイヤ___3
  6
CONTINUOUS
 62
    7
 10
817.05923221562762
 20
579.25671603537558
 40
3.7741236367345845
 50
347.49480677866745
 51
35.70821628536239
  0
ARC
  8
_0-1_レイヤ___3
  6
CONTINUOUS
 62
    7
 10
813.19856326527406
 20
576.95104398025433
 40
8.2635020732879934
 50
33.064860059236736
 51
47.664213086933039
  0
ARC
  8
_0-1_レイヤ___3
  6
CONTINUOUS
 62
    7
 10
807.9913893974566
 20
571.38357264094134
 40
15.886246431206397
 50
47.304814290601009
 51
68.848062964964441
  0
ARC
  8
_0-1_レイヤ___3
  6
CONTINUOUS
 62
    7
 10
803.87261884660745
 20
562.76145505914121
 40
25.424175242582741
 50
67.202598663644252
 51
74.320112302541801
  0
ARC
  8
_0-1_レイヤ___3
  6
CONTINUOUS
 62
    7
 10
805.46188901066785
 20
567.22980242866151
 40
20.695102806697076
 50
75.213015211994986
 51
95.20672334327945
  0
ARC
  8
_0-1_レイヤ___3
  6
CONTINUOUS
 62
    7
 10
804.49072528016984
 20
578.20695775846957
 40
9.6751528312895569
 50
95.378544495902588
 51
122.13875619978499
  0
ARC
  8
_0-1_レイヤ___3
  6
CONTINUOUS
 62
    7
 10
801.45469394824522
 20
583.41174509465645
 40
3.6582155660014628
 50
125.24141664603405
 51
163.68322777002388
  0
ARC
  8
_0-1_レイヤ___3
  6
CONTINUOUS
 62
    7
 10
801.62135662836988
 20
583.62086078236234
 40
3.7675543553490276
 50
167.45009591473689
 51
215.75292714928261
  0
ARC
  8
_0-1_レイヤ___3
  6
CONTINUOUS
 62
    7
 10
805.30503619081196
 20
585.84676158423133
 40
8.0650190859003601
 50
213.29464420772365
 51
228.14642873178619
  0
ARC
  8
_0-1_レイヤ___3
  6
CONTINUOUS
 62
    7
 10
810.13023777012961
 20
591.04363734991443
 40
15.15596859567329
 50
227.66798927609389
 51
249.58600044368865
  0
ARC
  8
_0-1_レイヤ___3
  6
CONTINUOUS
 62
    7
 10
813.58269508542719
 20
598.6250249756697
 40
23.472888714364892
 50
248.14267968304858
 51
256.09992712527156
  0
ARC
  8
_0-1_レイヤ___3
  6
CONTINUOUS
 62
    7
 10
813.35799436425555
 20
594.26129917377136
 40
19.200924959273525
 50
253.62190574871005
 51
274.49801974669134
  0
ARC
  8
_0-1_レイヤ___3
  6
CONTINUOUS
 62
    7
 10
814.10212305602067
 20
585.1781249086772
 40
10.087411551222674
 50
274.33050628421398
 51
301.30727154483225
  0
ARC
  8
_0-1_レイヤ___3
  6
CONTINUOUS
 62
    7
 10
817.29144329492385
 20
579.5491544276482
 40
3.6263219331713432
 50
304.46943316762355
 51
342.18186749322581
  0
ARC
  8
_0-1_レイヤ___3
  6
CONTINUOUS
 62
    7
 10
837.16065294482382
 20
506.62267717169294
 40
4.5868236617716978
 50
272.28861868095157
 51
357.71140736258985
  0
ARC
  8
_0-1_レイヤ___3
  6
CONTINUOUS
 62
    7
 10
837.52698604977638
 20
506.62267825495002
 40
4.58682470423153
 50
182.28860565917853
 51
267.71139434081687
  0
ARC
  8
_0-1_レイヤ___3
  6
CONTINUOUS
 62
    7
 10
837.52698604977638
 20
506.25634614999802
 40
4.5868247042315655
 50
92.288605659183631
 51
177.71139434082193
  0
ARC
  8
_0-1_レイヤ___3
  6
CONTINUOUS
 62
    7
 10
837.16065294482382
 20
506.2563472332551
 40
4.5868236617717351
 50
2.2885926374096739
 51
87.711381319047987
  0
ARC
  8
_0-1_レイヤ___3
  6
CONTINUOUS
 62
    7
 10
857.30152225460188
 20
547.47509943627301
 40
10.843542250105351
 50
345.16911754917271
 51
0.8687676371785976
  0
ARC
  8
_0-1_レイヤ___3
  6
CONTINUOUS
 62
    7
 10
865.04996874168853
 20
545.26643683028033
 40
2.7920127660923217
 50
318.58540418929357
 51
348.2844934565403
  0
ARC
  8
_0-1_レイヤ___3
  6
CONTINUOUS
 62
    7
 10
866.73060084216468
 20
543.80332810277548
 40
0.5639707994411967
 50
271.34290028222517
 51
317.11259035365947
  0
ARC
  8
_0-1_レイヤ___3
  6
CONTINUOUS
 62
    7
 10
866.85214743012671
 20
544.03748870520951
 40
0.8052960728415714
 50
211.2675147712242
 51
262.26906309282117
  0
ARC
  8
_0-1_レイヤ___3
  6
CONTINUOUS
 62
    7
 10
869.34244144105287
 20
545.62202165560018
 40
3.7568192805929046
 50
191.71050118858955
 51
212.21062685159595
  0
ARC
  8
_0-1_レイヤ___3
  6
CONTINUOUS
 62
    7
 10
876.67894218700496
 20
547.53585743294423
 40
11.335598118638616
 50
179.47606967650677
 51
193.65652756498929
  0
ARC
  8
_0-1_レイヤ___3
  6
CONTINUOUS
 62
    7
 10
876.18611373999806
 20
547.80392496867353
 40
10.843542250105347
 50
165.16911754916165
 51
180.86876763716754
  0
ARC
  8
_0-1_レイヤ___3
  6
CONTINUOUS
 62
    7
 10
868.43766725291118
 20
550.0125875746686
 40
2.7920127660913305
 50
138.5854041892961
 51
168.28449345654283
  0
ARC
  8
_0-1_レイヤ___3
  6
CONTINUOUS
 62
    7
 10
866.75703515243549
 20
551.47569630217276
 40
0.5639707994411967
 50
91.342900282225159
 51
137.11259035365947
  0
ARC
  8
_0-1_レイヤ___3
  6
CONTINUOUS
 62
    7
 10
866.63548856447414
 20
551.24153569973919
 40
0.8052960728410236
 50
31.267514771240783
 51
82.269063092837754
  0
ARC
  8
_0-1_レイヤ___3
  6
CONTINUOUS
 62
    7
 10
864.14519455354593
 20
549.6570027493475
 40
3.7568192805943141
 50
11.710501188593989
 51
32.210626851600395
  0
ARC
  8
_0-1_レイヤ___3
  6
CONTINUOUS
 62
    7
 10
856.80869380759702
 20
547.74316697200538
 40
11.335598118636481
 50
359.47606967650216
 51
13.65652756498465
  0
ARC
  8
_0-1_レイヤ___3
  6
CONTINUOUS
 62
    7
 10
888.2014152960744
 20
509.17660429737714
 40
9.5426100578867867
 50
344.20731390938943
 51
0.3777146446790855
  0
ARC
  8
_0-1_レイヤ___3
  6
CONTINUOUS
 62
    7
 10
893.68228133181356
 20
507.44690451673148
 40
3.8018078742584294
 50
322.63288690481488
 51
346.81166862409151
  0
ARC
  8
_0-1_レイヤ___3
  6
CONTINUOUS
 62
    7
 10
896.09991023212046
 20
505.5941400308094
 40
0.7559041282735923
 50
273.32998112184566
 51
323.02719909809855
  0
ARC
  8
_0-1_レイヤ___3
  6
CONTINUOUS
 62
    7
 10
896.25214743012657
 20
505.63748870520908
 40
0.8052960728412952
 50
211.26751477121132
 51
262.26906309280827
  0
ARC
  8
_0-1_レイヤ___3
  6
CONTINUOUS
 62
    7
 10
898.74244144105319
 20
507.22202165560083
 40
3.7568192805932026
 50
191.71050118860083
 51
212.21062685160726
  0
ARC
  8
_0-1_レイヤ___3
  6
CONTINUOUS
 62
    7
 10
906.07894218700517
 20
509.135857432943
 40
11.335598118638483
 50
179.476069676501
 51
193.65652756498349
  0
ARC
  8
_0-1_レイヤ___3
  6
CONTINUOUS
 62
    7
 10
905.56413484273946
 20
509.51437538118284
 40
10.823807389394345
 50
165.52694359748693
 51
181.4551435215111
  0
ARC
  8
_0-1_レイヤ___3
  6
CONTINUOUS
 62
    7
 10
897.69890953609342
 20
511.65807224013622
 40
2.6746810253894253
 50
138.23797085436678
 51
167.88297301801461
  0
ARC
  8
_0-1_レイヤ___3
  6
CONTINUOUS
 62
    7
 10
896.16297950517037
 20
513.01335688516087
 40
0.6264484374501813
 50
91.752809538701854
 51
137.1351000222009
  0
ARC
  8
_0-1_レイヤ___3
  6
CONTINUOUS
 62
    7
 10
896.0383849333374
 20
512.74404414787182
 40
0.9016535741570298
 50
36.432359436060707
 51
83.284869459786393
  0
ARC
  8
_0-1_レイヤ___3
  6
CONTINUOUS
 62
    7
 10
893.93023002129644
 20
511.15418929901477
 40
3.5420641244509605
 50
15.478975167849928
 51
36.871604795668887
  0
ARC
  8
_0-1_レイヤ___3
  6
CONTINUOUS
 62
    7
 10
888.43020109690906
 20
509.39488046815421
 40
9.3149127245094334
 50
359.04428962764388
 51
16.879212154368695
  0
ARC
  8
_0-1_レイヤ___3
  6
CONTINUOUS
 62
    7
 10
914.65074942537603
 20
609.36008020224301
 40
3.6939227008146087
 50
1.23215062975533
 51
48.801636326442427
  0
ARC
  8
_0-1_レイヤ___3
  6
CONTINUOUS
 62
    7
 10
912.66485477321112
 20
607.27652062471941
 40
6.5708388399934634
 50
47.738816441796509
 51
92.800461048744054
  0
ARC
  8
_0-1_レイヤ___3
  6
CONTINUOUS
 62
    7
 10
912.28665590586047
 20
607.18663641857665
 40
6.6531213502135111
 50
89.507721757805371
 51
139.81615007403238
  0
ARC
  8
_0-1_レイヤ___3
  6
CONTINUOUS
 62
    7
 10
910.16995006813147
 20
609.39311653249865
 40
3.6264288705701757
 50
144.87720907430713
 51
179.2669514016616
  0
ARC
  8
_0-1_レイヤ___3
  6
CONTINUOUS
 62
    7
 10
910.29802828018262
 20
609.51870557420273
 40
3.755045464202408
 50
181.2084493885622
 51
229.59016975299667
  0
ARC
  8
_0-1_レイヤ___3
  6
CONTINUOUS
 62
    7
 10
912.13294103766486
 20
611.46091419064226
 40
6.4248636239034198
 50
228.35839461662513
 51
271.88090065408238
  0
ARC
  8
_0-1_レイヤ___3
  6
CONTINUOUS
 62
    7
 10
912.43265328305085
 20
612.51188391663129
 40
7.4728997546155709
 50
269.31887125468046
 51
302.64537666469215
  0
ARC
  8
_0-1_レイヤ___3
  6
CONTINUOUS
 62
    7
 10
914.07144077631244
 20
609.77512374764717
 40
4.2855387324896386
 50
303.93446052165535
 51
355.50842130830108
  0
ARC
  8
_0-1_レイヤ___3
  6
CONTINUOUS
 62
    7
 10
755.14337206437233
 20
518.039960135402
 40
1.2004480164983031
 50
270.02137924051044
 51
359.97862075947938
  0
ARC
  8
_0-1_レイヤ___3
  6
CONTINUOUS
 62
    7
 10
755.05064010794626
 20
518.14746899822796
 40
1.311271700044812
 50
184.72249793393942
 51
274.07491277605413
  0
ARC
  8
_0-1_レイヤ___3
  6
CONTINUOUS
 62
    7
 10
755.07862122292522
 20
517.89891077257835
 40
1.3421859312401048
 50
87.215672419032515
 51
173.98691687099418
  0
ARC
  8
_0-1_レイヤ___3
  6
CONTINUOUS
 62
    7
 10
755.03056708051872
 20
517.92625928569305
 40
1.3181272497728826
 50
4.9289053857459102
 51
85.07109461424389
  0
ARC
  8
_0-1_レイヤ___3
  6
CONTINUOUS
 62
    7
 10
829.52947400934534
 20
474.49642977349356
 40
2.6149654542573635
 50
301.1929112355308
 51
358.7528402980596
  0
ARC
  8
_0-1_レイヤ___3
  6
CONTINUOUS
 62
    7
 10
828.77667449066189
 20
475.52933901570981
 40
3.889963559649154
 50
269.51607613805209
 51
302.79860359111927
  0
ARC
  8
_0-1_レイヤ___3
  6
CONTINUOUS
 62
    7
 10
828.68079282488088
 20
475.78546257582423
 40
4.1464274187483117
 50
226.06484800418713
 51
270.87094978048987
  0
ARC
  8
_0-1_レイヤ___3
  6
CONTINUOUS
 62
    7
 10
827.60300190445719
 20
474.47638009194014
 40
2.4594582221082035
 50
180.85886353409339
 51
222.98469365382951
  0
ARC
  8
_0-1_レイヤ___3
  6
CONTINUOUS
 62
    7
 10
827.49782041326853
 20
474.32147352952484
 40
2.3569581156334749
 50
117.10819654691443
 51
177.12932412253022
  0
ARC
  8
_0-1_レイヤ___3
  6
CONTINUOUS
 62
    7
 10
828.66846515451641
 20
472.67084200127783
 40
4.3693220473932808
 50
89.011808131730191
 51
120.91250237691864
  0
ARC
  8
_0-1_レイヤ___3
  6
CONTINUOUS
 62
    7
 10
828.75768798680815
 20
473.11299532994246
 40
3.9265433624857593
 50
44.384897400963418
 51
90.202360918426351
  0
ARC
  8
_0-1_レイヤ___3
  6
CONTINUOUS
 62
    7
 10
829.93028723872862
 20
474.36384589263548
 40
2.2148257191891534
 50
1.9578599814325683
 51
42.477328557598163
  0
ARC
  8
_0-1_レイヤ___3
  6
CONTINUOUS
 62
    7
 10
865.05159795576697
 20
572.68901755149773
 40
1.493041001424448
 50
320.50922555769671
 51
358.09987297419025
  0
ARC
  8
_0-1_レイヤ___3
  6
CONTINUOUS
 62
    7
 10
863.6345827769444
 20
573.89099991559863
 40
3.3510996698458868
 50
297.53604334131762
 51
320.05706085532239
  0
ARC
  8
_0-1_レイヤ___3
  6
CONTINUOUS
 62
    7
 10
861.96574774135092
 20
577.02920540633681
 40
6.9053839297720208
 50
282.18974044138378
 51
297.77647260240281
  0
ARC
  8
_0-1_レイヤ___3
  6
CONTINUOUS
 62
    7
 10
861.21336427195297
 20
580.32882259326141
 40
10.289545422528814
 50
269.6127391255481
 51
282.40527278945302
  0
ARC
  8
_0-1_レイヤ___3
  6
CONTINUOUS
 62
    7
 10
860.9795482258852
 20
578.61604046117168
 40
8.5781012776744827
 50
240.10268193453106
 51
271.09727545187815
  0
ARC
  8
_0-1_レイヤ___3
  6
CONTINUOUS
 62
    7
 10
857.77842414857787
 20
572.93171898687592
 40
2.0554821808195762
 50
188.17283963634048
 51
238.47973973788913
  0
ARC
  8
_0-1_レイヤ___3
  6
CONTINUOUS
 62
    7
 10
857.03994930120052
 20
572.53691476895938
 40
1.3001855984104795
 50
134.79851274310477
 51
175.47409411339311
  0
ARC
  8
_0-1_レイヤ___3
  6
CONTINUOUS
 62
    7
 10
858.72635549610527
 20
570.95490803749317
 40
3.6119583962064041
 50
114.58165823954198
 51
136.09855560358343
  0
ARC
  8
_0-1_レイヤ___3
  6
CONTINUOUS
 62
    7
 10
860.90251102475861
 20
566.21791636792511
 40
8.8248955870949253
 50
88.43311521997903
 51
114.6361260873022
  0
ARC
  8
_0-1_レイヤ___3
  6
CONTINUOUS
 62
    7
 10
861.29536785082655
 20
566.10969232347213
 40
8.9311057786547305
 50
60.716744015068606
 51
90.97228539958175
  0
ARC
  8
_0-1_レイヤ___3
  6
CONTINUOUS
 62
    7
 10
864.74951964212869
 20
572.32365303378299
 40
1.8218873735270336
 50
9.9837699707853638
 51
59.878104631442099
  0
ARC
  8
_0-1_レイヤ___3
  6
CONTINUOUS
 62
    7
 10
896.15348906808208
 20
595.97366570277575
 40
2.9910538053401692
 50
308.70477424179336
 51
1.2614388020129645
  0
ARC
  8
_0-1_レイヤ___3
  6
CONTINUOUS
 62
    7
 10
897.32817963781235
 20
594.74868262473194
 40
1.3092638209323875
 50
270.68437948842427
 51
302.09470117968323
  0
ARC
  8
_0-1_レイヤ___3
  6
CONTINUOUS
 62
    7
 10
897.39301781984125
 20
594.86751175882625
 40
1.4288468621514845
 50
228.3704502431321
 51
268.02673078415262
  0
ARC
  8
_0-1_レイヤ___3
  6
CONTINUOUS
 62
    7
 10
898.37185169993836
 20
595.87497217228417
 40
2.8328162744507135
 50
176.67018354288734
 51
227.10892999692729
  0
ARC
  8
_0-1_レイヤ___3
  6
CONTINUOUS
 62
    7
 10
898.14702353392795
 20
596.13215810774886
 40
2.6048536100314772
 50
125.24533522098082
 51
182.03824856642939
  0
ARC
  8
_0-1_レイヤ___3
  6
CONTINUOUS
 62
    7
 10
897.35056264957143
 20
596.96217188808407
 40
1.4773557103339194
 50
90.261576443049805
 51
118.57996981193743
  0
ARC
  8
_0-1_レイヤ___3
  6
CONTINUOUS
 62
    7
 10
897.26464850582204
 20
596.68509995540558
 40
1.7561976372392998
 50
17.032404089251287
 51
87.416227298848284
  0
ARC
  8
_0-1_レイヤ___3
  6
CONTINUOUS
 62
    7
 10
895.93922949937223
 20
596.08423832352162
 40
3.2049006017276183
 50
359.20038045570442
 51
20.364433607887445
  0
ARC
  8
_0-1_レイヤ___3
  6
CONTINUOUS
 62
    7
 10
932.55348906808172
 20
574.17366570277613
 40
2.991053805340778
 50
308.70477424179205
 51
1.2614388020116185
  0
ARC
  8
_0-1_レイヤ___3
  6
CONTINUOUS
 62
    7
 10
933.72817963781301
 20
572.94868262473153
 40
1.3092638209316427
 50
270.68437948839494
 51
302.0947011796539
  0
ARC
  8
_0-1_レイヤ___3
  6
CONTINUOUS
 62
    7
 10
933.79301781984054
 20
573.06751175882664
 40
1.4288468621516206
 50
228.3704502431637
 51
268.02673078418422
  0
ARC
  8
_0-1_レイヤ___3
  6
CONTINUOUS
 62
    7
 10
934.77185169993868
 20
574.07497217228399
 40
2.8328162744510923
 50
176.670183542877
 51
227.10892999691697
  0
ARC
  8
_0-1_レイヤ___3
  6
CONTINUOUS
 62
    7
 10
934.93414692651868
 20
574.30535870217238
 40
2.991053805340778
 50
128.70477424179205
 51
181.26143880201164
  0
ARC
  8
_0-1_レイヤ___3
  6
CONTINUOUS
 62
    7
 10
933.75945635678727
 20
575.53034178021653
 40
1.3092638209321468
 50
90.684379488388444
 51
122.0947011796474
  0
ARC
  8
_0-1_レイヤ___3
  6
CONTINUOUS
 62
    7
 10
933.69461817475917
 20
575.41151264612233
 40
1.428846862151115
 50
48.370450243123912
 51
88.026730784144405
  0
ARC
  8
_0-1_レイヤ___3
  6
CONTINUOUS
 62
    7
 10
932.71578429466194
 20
574.40405223266396
 40
2.8328162744506753
 50
356.67018354288768
 51
47.108929996927607
  0
ARC
  8
_0-1_レイヤ___3
  6
CONTINUOUS
 62
    7
 10
901.20395405444333
 20
530.68005241760034
 40
1.7403361884118556
 50
322.45472609383501
 51
358.66520424981013
  0
ARC
  8
_0-1_レイヤ___3
  6
CONTINUOUS
 62
    7
 10
900.32627552473878
 20
531.34969050344364
 40
2.8442951619976906
 50
298.05081505513357
 51
322.5334804561316
  0
ARC
  8
_0-1_レイヤ___3
  6
CONTINUOUS
 62
    7
 10
899.24069684710639
 20
533.42462103328864
 40
5.1860137966389193
 50
268.92960714547394
 51
297.85538836202215
  0
ARC
  8
_0-1_レイヤ___3
  6
CONTINUOUS
 62
    7
 10
899.02322624108649
 20
532.71022968064392
 40
4.472343584886894
 50
228.91019488245161
 51
271.54510405240615
  0
ARC
  8
_0-1_レイヤ___3
  6
CONTINUOUS
 62
    7
 10
897.47021864880878
 20
530.67755555002395
 40
1.9267762626797857
 50
181.13135341495962
 51
223.98313985444798
  0
ARC
  8
_0-1_レイヤ___3
  6
CONTINUOUS
 62
    7
 10
897.89781841326862
 20
530.52147152952489
 40
2.3569581156334749
 50
117.10819654691443
 51
177.12932412253022
  0
ARC
  8
_0-1_レイヤ___3
  6
CONTINUOUS
 62
    7
 10
899.06846315451617
 20
528.87084000127834
 40
4.3693220473927816
 50
89.011808131731911
 51
120.91250237692037
  0
ARC
  8
_0-1_レイヤ___3
  6
CONTINUOUS
 62
    7
 10
899.18667291129941
 20
528.53308976877656
 40
4.7066175400244994
 50
48.525254535981873
 51
90.521699418262287
  0
ARC
  8
_0-1_レイヤ___3
  6
CONTINUOUS
 62
    7
 10
900.83852626762166
 20
530.54487367642218
 40
2.1074177843195616
 50
2.573866627470641
 51
45.948715077477146
  0
ARC
  8
_0-1_レイヤ___3
  6
CONTINUOUS
 62
    7
 10
935.35229542331899
 20
539.82326237999632
 40
7.3915404360933712
 50
311.64235955981167
 51
0.125961158413644
  0
ARC
  8
_0-1_レイヤ___3
  6
CONTINUOUS
 62
    7
 10
937.2478971834164
 20
538.05563368977664
 40
4.8170766013207658
 50
271.14098685161053
 51
308.76219453791379
  0
ARC
  8
_0-1_レイヤ___3
  6
CONTINUOUS
 62
    7
 10
937.47270521697396
 20
538.31634651713534
 40
5.0784701017054665
 50
207.39648595432431
 51
268.54572606504883
  0
ARC
  8
_0-1_レイヤ___3
  6
CONTINUOUS
 62
    7
 10
939.45818333400075
 20
539.76040666968504
 40
7.5147817066580114
 50
179.39685581663502
 51
210.20714035023295
  0
ARC
  8
_0-1_レイヤ___3
  6
CONTINUOUS
 62
    7
 10
939.68780982786257
 20
539.89942513979247
 40
7.7442235912886908
 50
132.82265611600207
 51
180.44327138162777
  0
ARC
  8
_0-1_レイヤ___3
  6
CONTINUOUS
 62
    7
 10
937.42031683741459
 20
541.87689275612104
 40
4.7632337821401451
 50
90.92022548562332
 51
128.98295590390106
  0
ARC
  8
_0-1_レイヤ___3
  6
CONTINUOUS
 62
    7
 10
937.23382484234207
 20
541.63846274553589
 40
5.0022589062225045
 50
28.163981790601795
 51
88.740038923659952
  0
ARC
  8
_0-1_レイヤ___3
  6
CONTINUOUS
 62
    7
 10
934.87508309097302
 20
539.98426979935846
 40
7.8700663140729352
 50
358.94607405284125
 51
30.676598705012438
  0
ARC
  8
_0-1_レイヤ___3
  6
CONTINUOUS
 62
    7
 10
853.77366066267825
 20
554.49587883170864
 40
0.9717934198234311
 50
308.89295229983372
 51
356.67482458550347
  0
ARC
  8
_0-1_レイヤ___3
  6
CONTINUOUS
 62
    7
 10
852.51537721295051
 20
556.04930660030402
 40
2.9708956772102537
 50
284.99034469319548
 51
308.97011674324835
  0
ARC
  8
_0-1_レイヤ___3
  6
CONTINUOUS
 62
    7
 10
850.77870248838394
 20
562.15720777432534
 40
9.3206556364800228
 50
268.55596908891891
 51
285.59110626100914
  0
ARC
  8
_0-1_レイヤ___3
  6
CONTINUOUS
 62
    7
 10
850.30893350621625
 20
562.15720777432534
 40
9.3206556364800228
 50
254.4088937389908
 51
271.44403091108109
  0
ARC
  8
_0-1_レイヤ___3
  6
CONTINUOUS
 62
    7
 10
848.42052340543432
 20
555.78083484272679
 40
2.6734257122860337
 50
227.19212602776054
 51
256.66290010054587
  0
ARC
  8
_0-1_レイヤ___3
  6
CONTINUOUS
 62
    7
 10
847.24137731241683
 20
554.45139191526482
 40
0.8976379290831514
 50
180.75829825561698
 51
224.74365442993636
  0
ARC
  8
_0-1_レイヤ___3
  6
CONTINUOUS
 62
    7
 10
847.14461448399788
 20
554.34419024521333
 40
0.8064498054084605
 50
123.13330836025912
 51
173.21179848638633
  0
ARC
  8
_0-1_レイヤ___3
  6
CONTINUOUS
 62
    7
 10
848.65906214332972
 20
552.18145817879213
 40
3.4463793047079232
 50
102.99961589153776
 51
124.56444495490648
  0
ARC
  8
_0-1_レイヤ___3
  6
CONTINUOUS
 62
    7
 10
850.37311233171999
 20
545.41043577062294
 40
10.430473414263346
 50
89.062252453516876
 51
103.80722584856352
  0
ARC
  8
_0-1_レイヤ___3
  6
CONTINUOUS
 62
    7
 10
850.75055997756749
 20
545.94140682349075
 40
9.9002642560623606
 50
74.45478710186643
 51
91.196564425162904
  0
ARC
  8
_0-1_レイヤ___3
  6
CONTINUOUS
 62
    7
 10
852.83740323320762
 20
553.02460715997756
 40
2.5194016060676576
 50
46.744890546051629
 51
77.007638687389189
  0
ARC
  8
_0-1_レイヤ___3
  6
CONTINUOUS
 62
    7
 10
854.13165980708357
 20
554.42573012095272
 40
0.6123133149135885
 50
1.2897348071296608
 51
45.10744622015968
  0
ARC
  8
_0-1_レイヤ___3
  6
CONTINUOUS
 62
    7
 10
892.35348906808156
 20
478.97366770277574
 40
2.9910538053406421
 50
308.70477424179762
 51
1.2614388020171878
  0
ARC
  8
_0-1_レイヤ___3
  6
CONTINUOUS
 62
    7
 10
893.5281796378132
 20
477.74868462473194
 40
1.3092638209321468
 50
270.68437948838846
 51
302.09470117964742
  0
ARC
  8
_0-1_レイヤ___3
  6
CONTINUOUS
 62
    7
 10
893.59301781984129
 20
477.86751375882648
 40
1.4288468621515038
 50
228.37045024313016
 51
268.02673078415069
  0
ARC
  8
_0-1_レイヤ___3
  6
CONTINUOUS
 62
    7
 10
894.57185169993841
 20
478.87497417228445
 40
2.8328162744506753
 50
176.67018354288766
 51
227.1089299969276
  0
ARC
  8
_0-1_レイヤ___3
  6
CONTINUOUS
 62
    7
 10
894.34702168419312
 20
479.13215910774898
 40
2.6048517259004074
 50
125.24531468618045
 51
182.03822803162899
  0
ARC
  8
_0-1_レイヤ___3
  6
CONTINUOUS
 62
    7
 10
893.55056264957148
 20
479.96217188808401
 40
1.477355710333901
 50
90.261576443047076
 51
118.5799698119347
  0
ARC
  8
_0-1_レイヤ___3
  6
CONTINUOUS
 62
    7
 10
893.46464992383721
 20
479.68510095540535
 40
1.7561965743323653
 50
17.032448834122608
 51
87.416272043719616
  0
ARC
  8
_0-1_レイヤ___3
  6
CONTINUOUS
 62
    7
 10
892.13922949937364
 20
479.08424032352167
 40
3.2049006017263793
 50
359.20038045570823
 51
20.364433607891264
  0
ARC
  8
_0-1_レイヤ___3
  6
CONTINUOUS
 62
    7
 10
706.32582038524083
 20
556.05751181453377
 40
4.4180362785055802
 50
270.23343055418547
 51
359.76656944580986
  0
ARC
  8
_0-1_レイヤ___3
  6
CONTINUOUS
 62
    7
 10
706.36930786927678
 20
556.06499806286581
 40
4.425559256426566
 50
180.32995610821791
 51
269.67001784824254
  0
ARC
  8
_0-1_レイヤ___3
  6
CONTINUOUS
 62
    7
 10
706.52698704977638
 20
555.85634723325518
 40
4.5868236617715867
 50
92.288618680953888
 51
177.71140736259218
  0
ARC
  8
_0-1_レイヤ___3
  6
CONTINUOUS
 62
    7
 10
706.16065394482371
 20
555.85634614999788
 40
4.5868247042317138
 50
2.2886056591799222
 51
87.711394340818231
  0
ARC
  8
_0-1_レイヤ___3
  6
CONTINUOUS
 62
    7
 10
727.80141729607465
 20
597.17660429737612
 40
9.5426100578866517
 50
344.20731390939545
 51
0.3777146446850956
  0
ARC
  8
_0-1_レイヤ___3
  6
CONTINUOUS
 62
    7
 10
733.28228333181357
 20
595.44690451673216
 40
3.8018078742587198
 50
322.63288690480562
 51
346.8116686240823
  0
ARC
  8
_0-1_レイヤ___3
  6
CONTINUOUS
 62
    7
 10
735.69991223212037
 20
593.5941400308094
 40
0.7559041282735723
 50
273.32998112184282
 51
323.02719909809571
  0
ARC
  8
_0-1_レイヤ___3
  6
CONTINUOUS
 62
    7
 10
735.85214943012659
 20
593.63748870520908
 40
0.8052960728412952
 50
211.26751477121132
 51
262.26906309280827
  0
ARC
  8
_0-1_レイヤ___3
  6
CONTINUOUS
 62
    7
 10
738.34244344105286
 20
595.22202165560077
 40
3.7568192805931107
 50
191.7105011886014
 51
212.2106268516078
  0
ARC
  8
_0-1_レイヤ___3
  6
CONTINUOUS
 62
    7
 10
745.67894418700519
 20
597.135857432943
 40
11.335598118638483
 50
179.476069676501
 51
193.65652756498349
  0
ARC
  8
_0-1_レイヤ___3
  6
CONTINUOUS
 62
    7
 10
745.16413684273948
 20
597.51437538118273
 40
10.823807389394345
 50
165.52694359748693
 51
181.4551435215111
  0
ARC
  8
_0-1_レイヤ___3
  6
CONTINUOUS
 62
    7
 10
737.29891153609344
 20
599.65807224013611
 40
2.6746810253894875
 50
138.23797085436749
 51
167.88297301801529
  0
ARC
  8
_0-1_レイヤ___3
  6
CONTINUOUS
 62
    7
 10
735.76298150517027
 20
601.01335688516076
 40
0.6264484374502004
 50
91.752809538705691
 51
137.13510002220477
  0
ARC
  8
_0-1_レイヤ___3
  6
CONTINUOUS
 62
    7
 10
735.63838693333742
 20
600.7440441478717
 40
0.901653574157075
 50
36.432359436055798
 51
83.284869459781476
  0
ARC
  8
_0-1_レイヤ___3
  6
CONTINUOUS
 62
    7
 10
733.53023202129657
 20
599.15418929901477
 40
3.5420641244507882
 50
15.478975167851303
 51
36.871604795670258
  0
ARC
  8
_0-1_レイヤ___3
  6
CONTINUOUS
 62
    7
 10
728.03020309690874
 20
597.39488046815416
 40
9.3149127245096626
 50
359.04428962764371
 51
16.879212154368499
  0
ARC
  8
_0-1_レイヤ___3
  6
CONTINUOUS
 62
    7
 10
762.36036937012591
 20
549.59141161122034
 40
11.554577656539042
 50
57.528331264975293
 51
72.972935753585716
  0
ARC
  8
_0-1_レイヤ___3
  6
CONTINUOUS
 62
    7
 10
767.2732143486121
 20
557.09451866676011
 40
2.5895287053484841
 50
28.736355541903492
 51
60.106193326871278
  0
ARC
  8
_0-1_レイヤ___3
  6
CONTINUOUS
 62
    7
 10
769.02885777841277
 20
558.08951220247411
 40
0.5724387188872517
 50
334.10470160075965
 51
25.895298399240346
  0
ARC
  8
_0-1_レイヤ___3
  6
CONTINUOUS
 62
    7
 10
768.83997391280218
 20
558.09352550803715
 40
0.7482794064159286
 50
287.40642090512529
 51
340.15582862461798
  0
ARC
  8
_0-1_レイヤ___3
  6
CONTINUOUS
 62
    7
 10
767.99497437706441
 20
560.73027716436309
 40
3.5171091523750513
 50
266.55810103555154
 51
287.69193166223954
  0
ARC
  8
_0-1_レイヤ___3
  6
CONTINUOUS
 62
    7
 10
768.20595791609639
 20
569.88587336766363
 40
12.673393609822984
 50
255.08412694513169
 51
268.09118247401074
  0
ARC
  8
_0-1_レイヤ___3
  6
CONTINUOUS
 62
    7
 10
768.1540264191151
 20
567.94772903617763
 40
10.796516084427687
 50
236.93668533857976
 51
252.70225772061895
  0
ARC
  8
_0-1_レイヤ___3
  6
CONTINUOUS
 62
    7
 10
763.84638996138278
 20
561.5220821665572
 40
3.063070503224969
 50
211.10856284869615
 51
238.89143715131564
  0
ARC
  8
_0-1_レイヤ___3
  6
CONTINUOUS
 62
    7
 10
761.8226669013452
 20
560.29172770712137
 40
0.6947469871819439
 50
167.71837687439049
 51
210.4621769672745
  0
ARC
  8
_0-1_レイヤ___3
  6
CONTINUOUS
 62
    7
 10
761.85401410622285
 20
560.00397320558386
 40
0.8331085704521878
 50
101.78782420439391
 51
148.48056190942239
  0
ARC
  8
_0-1_レイヤ___3
  6
CONTINUOUS
 62
    7
 10
763.04607902337239
 20
555.86326730984297
 40
5.1400499112214622
 50
87.795251029290057
 51
105.3686382810529
  0
ARC
  8
_0-1_レイヤ___3
  6
CONTINUOUS
 62
    7
 10
763.04581016454472
 20
550.76388836388639
 40
10.237538925881083
 50
74.719731407256916
 51
88.891741923498003
  0
ARC
  8
_0-1_レイヤ___3
  6
CONTINUOUS
 62
    7
 10
734.35921354299921
 20
482.33592293985083
 40
5.7855339050488732
 50
323.06708658992403
 51
1.0259286036634454
  0
ARC
  8
_0-1_レイヤ___3
  6
CONTINUOUS
 62
    7
 10
737.21967553882394
 20
480.33780311942627
 40
2.3016393706128628
 50
273.09188616621446
 51
320.03821618794944
  0
ARC
  8
_0-1_レイヤ___3
  6
CONTINUOUS
 62
    7
 10
737.40019440468927
 20
480.23667683594556
 40
2.197885736732311
 50
235.7691258281865
 51
268.53023756736889
  0
ARC
  8
_0-1_レイヤ___3
  6
CONTINUOUS
 62
    7
 10
738.44946406504903
 20
481.68810973375344
 40
3.9884690736590569
 50
191.69687050880151
 51
235.03590428687522
  0
ARC
  8
_0-1_レイヤ___3
  6
CONTINUOUS
 62
    7
 10
740.40081639361858
 20
482.42322968918086
 40
6.0570182817333054
 50
179.84597695239003
 51
194.76554211421924
  0
ARC
  8
_0-1_レイヤ___3
  6
CONTINUOUS
 62
    7
 10
739.88487800899293
 20
482.48100108865992
 40
5.5412133343357182
 50
141.90809749549109
 51
180.42899634840052
  0
ARC
  8
_0-1_レイヤ___3
  6
CONTINUOUS
 62
    7
 10
737.52916681080046
 20
484.24873432952671
 40
2.5973993586333348
 50
94.092025133638472
 51
140.53919081325327
  0
ARC
  8
_0-1_レイヤ___3
  6
CONTINUOUS
 62
    7
 10
737.23265675587697
 20
484.48003029259218
 40
2.3620990981125161
 50
26.649669902043968
 51
87.302594986360432
  0
ARC
  8
_0-1_レイヤ___3
  6
CONTINUOUS
 62
    7
 10
734.44695113247485
 20
482.62257830187417
 40
5.6998094757425797
 50
358.15946145624093
 51
30.781126743885761
  0
ARC
  8
_0-1_レイヤ___3
  6
CONTINUOUS
 62
    7
 10
746.36186015497685
 20
498.41432627921682
 40
26.182928214488616
 50
342.72596831443605
 51
0.492777659059411
  0
ARC
  8
_0-1_レイヤ___3
  6
CONTINUOUS
 62
    7
 10
761.50093201500204
 20
493.91561703619408
 40
10.392758162917275
 50
327.68232224685869
 51
341.62532586925067
  0
ARC
  8
_0-1_レイヤ___3
  6
CONTINUOUS
 62
    7
 10
766.75388980933519
 20
490.54741322515338
 40
4.1529890460903935
 50
305.81033211762656
 51
328.20877550841408
  0
ARC
  8
_0-1_レイヤ___3
  6
CONTINUOUS
 62
    7
 10
768.10634376457051
 20
488.71473362023517
 40
1.8755958609597165
 50
271.14490168925687
 51
305.06262437976511
  0
ARC
  8
_0-1_レイヤ___3
  6
CONTINUOUS
 62
    7
 10
768.19212700890603
 20
488.74786306150338
 40
1.9089621705335258
 50
235.24252014539832
 51
268.54995378557976
  0
ARC
  8
_0-1_レイヤ___3
  6
CONTINUOUS
 62
    7
 10
769.41194712887204
 20
490.39963444437029
 40
3.9618982960510065
 50
213.38568470582985
 51
234.3677098660165
  0
ARC
  8
_0-1_レイヤ___3
  6
CONTINUOUS
 62
    7
 10
773.77611703523235
 20
493.3456846489193
 40
9.2272306673754851
 50
200.33255817751649
 51
213.74848964153969
  0
ARC
  8
_0-1_レイヤ___3
  6
CONTINUOUS
 62
    7
 10
782.04789616142625
 20
496.58890397571452
 40
18.111295046293094
 50
191.237270429565
 51
200.86073915549207
  0
ARC
  8
_0-1_レイヤ___3
  6
CONTINUOUS
 62
    7
 10
791.5047577040724
 20
498.50992552893626
 40
27.761240157191086
 50
179.73254809956282
 51
191.32253220375009
  0
ARC
  8
_0-1_レイヤ___3
  6
CONTINUOUS
 62
    7
 10
790.07636847446065
 20
498.92008061793859
 40
26.334043136931374
 50
162.77211330111922
 51
180.61045279405374
  0
ARC
  8
_0-1_レイヤ___3
  6
CONTINUOUS
 62
    7
 10
774.50281733404813
 20
503.48778870237356
 40
10.109462238839729
 50
147.63487973693006
 51
161.3568412894345
  0
ARC
  8
_0-1_レイヤ___3
  6
CONTINUOUS
 62
    7
 10
769.50369716000466
 20
506.7023385762252
 40
4.1663295922094941
 50
125.84665341182985
 51
148.17245421423146
  0
ARC
  8
_0-1_レイヤ___3
  6
CONTINUOUS
 62
    7
 10
768.18078605135327
 20
508.52861404031324
 40
1.9112556802536669
 50
91.108240502848872
 51
125.76165714296802
  0
ARC
  8
_0-1_レイヤ___3
  6
CONTINUOUS
 62
    7
 10
768.0964476157402
 20
508.49739505779291
 40
1.9426948155073758
 50
54.527391609438602
 51
88.602710744744513
  0
ARC
  8
_0-1_レイヤ___3
  6
CONTINUOUS
 62
    7
 10
766.8618539815742
 20
506.80762180273894
 40
4.0353624678985955
 50
33.578778170798351
 51
54.174616401024501
  0
ARC
  8
_0-1_レイヤ___3
  6
CONTINUOUS
 62
    7
 10
762.59421318095315
 20
503.93512955662891
 40
9.1796308404668583
 50
20.297613806260795
 51
33.783434012807412
  0
ARC
  8
_0-1_レイヤ___3
  6
CONTINUOUS
 62
    7
 10
754.38430333866813
 20
500.84400075346855
 40
17.952108081687928
 50
10.707809432113466
 51
20.460992901692702
  0
ARC
  8
_0-1_レイヤ___3
  6
CONTINUOUS
 62
    7
 10
744.24164693187493
 20
498.77739487503402
 40
28.302508932189667
 50
359.72086833450135
 51
11.003596732033728
  0
ARC
  8
_0-1_レイヤ___3
  6
CONTINUOUS
 62
    7
 10
698.72169782415335
 20
524.11685149452649
 40
2.4233585942318756
 50
298.11858862324289
 51
358.17114661185008
  0
ARC
  8
_0-1_レイヤ___3
  6
CONTINUOUS
 62
    7
 10
697.84484085814086
 20
525.47440111917308
 40
4.0361532899961254
 50
268.56582284685283
 51
300.01482731678504
  0
ARC
  8
_0-1_レイヤ___3
  6
CONTINUOUS
 62
    7
 10
697.66706971979238
 20
525.30754604232197
 40
3.8687952515364725
 50
224.84067918842763
 51
271.13675441571968
  0
ARC
  8
_0-1_レイヤ___3
  6
CONTINUOUS
 62
    7
 10
696.61527379396034
 20
524.09666428607932
 40
2.2721706857565427
 50
181.44131714715724
 51
221.89060029944883
  0
ARC
  8
_0-1_レイヤ___3
  6
CONTINUOUS
 62
    7
 10
697.18394009516464
 20
523.93800659781925
 40
2.8419314202834878
 50
96.873548441196021
 51
177.95312442450944
  0
ARC
  8
_0-1_レイヤ___3
  6
CONTINUOUS
 62
    7
 10
697.71025205807632
 20
522.11467401874017
 40
4.7249574393099429
 50
89.592920773799719
 51
100.56629494622344
  0
ARC
  8
_0-1_レイヤ___3
  6
CONTINUOUS
 62
    7
 10
697.83029137514404
 20
523.08892104554525
 40
3.7515877944862575
 50
43.672230426482336
 51
91.320712573988061
  0
ARC
  8
_0-1_レイヤ___3
  6
CONTINUOUS
 62
    7
 10
698.586723076721
 20
524.03374430470137
 40
2.5571054257250174
 50
0.1292385037957909
 51
40.061223880006899
  0
ARC
  8
_0-1_レイヤ___3
  6
CONTINUOUS
 62
    7
 10
753.13022470236319
 20
688.84462994889896
 40
7.6163578845440769
 50
273.11289561014632
 51
358.45675359583817
  0
ARC
  8
_0-1_レイヤ___3
  6
CONTINUOUS
 62
    7
 10
753.76493380720126
 20
688.86062401237518
 40
7.6243207579689534
 50
181.66187455467445
 51
268.33812544532555
  0
ARC
  8
_0-1_レイヤ___3
  6
CONTINUOUS
 62
    7
 10
753.45613115415154
 20
688.52685706904356
 40
7.3131788698956388
 50
89.312977145724076
 51
179.11737364829361
  0
ARC
  8
_0-1_レイヤ___3
  6
CONTINUOUS
 62
    7
 10
753.45758777776325
 20
688.55327798293752
 40
7.2867424788241788
 50
0.6780612298832285
 51
89.321938770114528
  0
ARC
  8
_0-1_レイヤ___3
  6
CONTINUOUS
 62
    7
 10
1039.6955588330829
 20
580.51777436772807
 40
5.6735905012336971
 50
322.95180547718815
 51
38.369076180129511
  0
ARC
  8
_0-1_レイヤ___3
  6
CONTINUOUS
 62
    7
 10
1034.1649121892224
 20
583.89964581095751
 40
12.141802292632875
 50
301.25033931402982
 51
325.94007658590476
  0
ARC
  8
_0-1_レイヤ___3
  6
CONTINUOUS
 62
    7
 10
1028.7338520434173
 20
591.96855612021557
 40
21.862279749334132
 50
276.32879798019013
 51
302.44833744916104
  0
ARC
  8
_0-1_レイヤ___3
  6
CONTINUOUS
 62
    7
 10
1021.2005014500733
 20
591.64972477173887
 40
23.606497123592654
 50
267.871690597319
 51
294.91106202925141
  0
ARC
  8
_0-1_レイヤ___3
  6
CONTINUOUS
 62
    7
 10
1021.0888887252764
 20
579.90156159439289
 40
11.866737971309998
 50
242.25137909648564
 51
266.30346069584448
  0
ARC
  8
_0-1_レイヤ___3
  6
CONTINUOUS
 62
    7
 10
1018.3791597456172
 20
574.3098558367119
 40
5.6601797698915419
 50
174.63064076115575
 51
240.17221224384173
  0
ARC
  8
_0-1_レイヤ___3
  6
CONTINUOUS
 62
    7
 10
1016.691348742516
 20
578.2037241202197
 40
5.1866112831068909
 50
160.44770513088824
 51
220.43868299610472
  0
ARC
  8
_0-1_レイヤ___3
  6
CONTINUOUS
 62
    7
 10
1020.0884737227782
 20
576.87564890580825
 40
8.8330522430798446
 50
130.2279991059593
 51
159.70440851828101
  0
ARC
  8
_0-1_レイヤ___3
  6
CONTINUOUS
 62
    7
 10
1026.2644565275327
 20
570.60274345371874
 40
17.623447110800658
 50
111.85554179328112
 51
132.38726931217744
  0
ARC
  8
_0-1_レイヤ___3
  6
CONTINUOUS
 62
    7
 10
1029.4334704393364
 20
563.67670694658523
 40
25.234008721269028
 50
98.407790044739968
 51
112.67956840866715
  0
ARC
  8
_0-1_レイヤ___3
  6
CONTINUOUS
 62
    7
 10
1035.4940904086116
 20
566.63903713855916
 40
24.064263008324605
 50
87.452198511147628
 51
113.9021894440349
  0
ARC
  8
_0-1_レイヤ___3
  6
CONTINUOUS
 62
    7
 10
1035.7064740997455
 20
578.55685354189814
 40
12.152937428051926
 50
61.722606888483732
 51
85.954648098073804
  0
ARC
  8
_0-1_レイヤ___3
  6
CONTINUOUS
 62
    7
 10
1038.6846200628477
 20
584.53467597559074
 40
5.4816062803660879
 50
354.8173001046855
 51
59.535531624667875
  0
ARC
  8
_0-1_レイヤ___3
  6
CONTINUOUS
 62
    7
 10
1091.3142166121561
 20
637.48682819037208
 40
26.346553591094537
 50
283.22980168876438
 51
300.89887793384077
  0
ARC
  8
_0-1_レイヤ___3
  6
CONTINUOUS
 62
    7
 10
1101.8929076608947
 20
619.56607502070347
 40
5.5382081764167825
 50
302.19668177244307
 51
321.77774321917354
  0
ARC
  8
_0-1_レイヤ___3
  6
CONTINUOUS
 62
    7
 10
1105.1702581388874
 20
617.02320780022296
 40
1.3904847786390255
 50
320.5405455548875
 51
8.9492170389937833
  0
ARC
  8
_0-1_レイヤ___3
  6
CONTINUOUS
 62
    7
 10
1105.4351565666034
 20
616.90086943889526
 40
1.1592253016691516
 50
16.985326682341476
 51
59.482323672518291
  0
ARC
  8
_0-1_レイヤ___3
  6
CONTINUOUS
 62
    7
 10
1104.2547479953514
 20
614.85763365143998
 40
3.5188939380508204
 50
59.818947472104824
 51
81.682000782529812
  0
ARC
  8
_0-1_レイヤ___3
  6
CONTINUOUS
 62
    7
 10
1103.0294856730625
 20
607.2957906005397
 40
11.179071711001994
 50
81.075036704774462
 51
93.003091026903064
  0
ARC
  8
_0-1_レイヤ___3
  6
CONTINUOUS
 62
    7
 10
1103.8437114986373
 20
588.31782318414787
 40
30.174177763866396
 50
92.659124820711796
 51
105.17747652094549
  0
ARC
  8
_0-1_レイヤ___3
  6
CONTINUOUS
 62
    7
 10
1101.9734153824443
 20
591.79219421457628
 40
26.346553591094583
 50
103.22980168876458
 51
120.89887793384098
  0
ARC
  8
_0-1_レイヤ___3
  6
CONTINUOUS
 62
    7
 10
1091.3947243337054
 20
609.71294738424569
 40
5.538208176416159
 50
122.19668177244885
 51
141.77774321917934
  0
ARC
  8
_0-1_レイヤ___3
  6
CONTINUOUS
 62
    7
 10
1088.1173738557136
 20
612.25581460472517
 40
1.3904847786395271
 50
140.54054555489316
 51
188.94921703899945
  0
ARC
  8
_0-1_レイヤ___3
  6
CONTINUOUS
 62
    7
 10
1087.8519110711829
 20
612.39522635383264
 40
1.1637900370082623
 50
197.79736300215302
 51
240.7814507228598
  0
ARC
  8
_0-1_レイヤ___3
  6
CONTINUOUS
 62
    7
 10
1089.0929280138223
 20
614.56056534144648
 40
3.6595061635814781
 50
240.37246926112658
 51
261.68671512189326
  0
ARC
  8
_0-1_レイヤ___3
  6
CONTINUOUS
 62
    7
 10
1090.3299205730045
 20
622.40623552466741
 40
11.601933852597918
 50
261.24410837891713
 51
272.93421596875208
  0
ARC
  8
_0-1_レイヤ___3
  6
CONTINUOUS
 62
    7
 10
1089.6312599126927
 20
639.66912991147274
 40
28.878558537212765
 50
272.56532047782201
 51
285.48990542360832
  0
ARC
  8
_0-1_レイヤ___3
  6
CONTINUOUS
 62
    7
 10
970.22122329144372
 20
666.73494265345028
 40
7.6301291120121428
 50
154.33588923376513
 51
186.73946635018473
  0
ARC
  8
_0-1_レイヤ___3
  6
CONTINUOUS
 62
    7
 10
963.16173466496764
 20
665.9154477032248
 40
0.5234540845844076
 50
188.34133460120395
 51
245.39846069047272
  0
ARC
  8
_0-1_レイヤ___3
  6
CONTINUOUS
 62
    7
 10
963.23062456895002
 20
666.20676686656009
 40
0.8191097595107322
 50
249.50386171648728
 51
300.29432319108378
  0
ARC
  8
_0-1_レイヤ___3
  6
CONTINUOUS
 62
    7
 10
962.03008098647899
 20
668.36071450782538
 40
3.2849105341019791
 50
299.4232684414502
 51
321.58242832922241
  0
ARC
  8
_0-1_レイヤ___3
  6
CONTINUOUS
 62
    7
 10
956.45215610927858
 20
673.03163691182078
 40
10.55946194173467
 50
320.53175634213085
 51
336.60911242819304
  0
ARC
  8
_0-1_レイヤ___3
  6
CONTINUOUS
 62
    7
 10
954.89475045722656
 20
672.98276406349657
 40
11.987830207256671
 50
339.78025075131939
 51
355.39116395651052
  0
ARC
  8
_0-1_レイヤ___3
  6
CONTINUOUS
 62
    7
 10
965.04881543957345
 20
672.35265756120054
 40
1.8256564147920307
 50
349.48570345482364
 51
44.819140025591345
  0
ARC
  8
_0-1_レイヤ___3
  6
CONTINUOUS
 62
    7
 10
966.26155655269599
 20
672.83352068074646
 40
0.8101765575496326
 50
84.172418610637436
 51
131.5849745810084
  0
ARC
  8
_0-1_レイヤ___3
  6
CONTINUOUS
 62
    7
 10
968.96600267514714
 20
669.26347300796442
 40
5.286875082238522
 50
127.82498902236097
 51
145.21655029993508
  0
ARC
  8
_0-1_レイヤ___3
  6
CONTINUOUS
 62
    7
 10
975.18734445185146
 20
664.75749508558749
 40
12.967991462623637
 50
144.54631117370693
 51
155.96392623240862
  0
ARC
  8
_0-1_レイヤ___3
  6
CONTINUOUS
 62
    7
 10
1169.5762629319972
 20
599.46676490137872
 40
8.1760522842510639
 50
2.6130278512088099
 51
91.629164942114912
  0
ARC
  8
_0-1_レイヤ___3
  6
CONTINUOUS
 62
    7
 10
1169.6028298514962
 20
599.15695707370435
 40
8.4865087477328629
 50
91.748990159804933
 51
175.38681747186757
  0
ARC
  8
_0-1_レイヤ___3
  6
CONTINUOUS
 62
    7
 10
1169.4979400077973
 20
600.19999136323361
 40
8.3618997018982828
 50
182.47077075590823
 51
268.94386798118001
  0
ARC
  8
_0-1_レイヤ___3
  6
CONTINUOUS
 62
    7
 10
1169.0803535436285
 20
600.52614567882938
 40
8.6906278578239533
 50
271.73721455047689
 51
355.46842339492798
  0
ARC
  8
_0-1_レイヤ___3
  6
CONTINUOUS
 62
    7
 10
1038.3300744560702
 20
679.67671810047159
 40
30.435818658232471
 50
147.21016877053461
 51
156.85560021722463
  0
ARC
  8
_0-1_レイヤ___3
  6
CONTINUOUS
 62
    7
 10
1017.5588710241002
 20
693.32277401032354
 40
5.5885442769087001
 50
128.44898494862403
 51
149.49600693288181
  0
ARC
  8
_0-1_レイヤ___3
  6
CONTINUOUS
 62
    7
 10
1014.4583582239775
 20
697.29458574339196
 40
0.5515847143708276
 50
81.087184264497225
 51
132.76784186385396
  0
ARC
  8
_0-1_レイヤ___3
  6
CONTINUOUS
 62
    7
 10
1014.0878579392285
 20
697.23608362071343
 40
0.7563209571975173
 50
1.7749858323931136
 51
52.924765727675613
  0
ARC
  8
_0-1_レイヤ___3
  6
CONTINUOUS
 62
    7
 10
1009.7382249134927
 20
696.94729121009232
 40
5.1151286410271162
 50
346.11172731604501
 51
3.4994148684987136
  0
ARC
  8
_0-1_レイヤ___3
  6
CONTINUOUS
 62
    7
 10
988.19870176607105
 20
701.62121494621692
 40
27.15421144671329
 50
335.68296684378578
 51
347.44713551037108
  0
ARC
  8
_0-1_レイヤ___3
  6
CONTINUOUS
 62
    7
 10
985.79732420851883
 20
701.39275492055617
 40
29.272949736789084
 50
328.22833578406858
 51
338.02658623262022
  0
ARC
  8
_0-1_レイヤ___3
  6
CONTINUOUS
 62
    7
 10
1005.7088818551676
 20
688.78489254651072
 40
5.7114043644963841
 50
309.52645172314266
 51
330.58120037697751
  0
ARC
  8
_0-1_レイヤ___3
  6
CONTINUOUS
 62
    7
 10
1008.9305629709361
 20
684.79488031546236
 40
0.5859269532654413
 50
251.41443186504563
 51
314.8536127478028
  0
ARC
  8
_0-1_レイヤ___3
  6
CONTINUOUS
 62
    7
 10
1009.1997740553717
 20
684.84293678423512
 40
0.7563209571977053
 50
181.77498583241388
 51
232.92476572769635
  0
ARC
  8
_0-1_レイヤ___3
  6
CONTINUOUS
 62
    7
 10
1013.5493400664097
 20
685.13173528710035
 40
5.1150621231542894
 50
166.11161338280496
 51
183.49952880171779
  0
ARC
  8
_0-1_レイヤ___3
  6
CONTINUOUS
 62
    7
 10
1035.0889302285291
 20
680.45780545873129
 40
27.154211446713127
 50
155.68296684378569
 51
167.447135510371
  0
ARC
  8
_0-1_レイヤ___3
  6
CONTINUOUS
 62
    7
 10
1132.0646876733633
 20
602.91863852641109
 40
7.6841975900997799
 50
272.0817111025878
 51
357.9182888974122
  0
ARC
  8
_0-1_レイヤ___3
  6
CONTINUOUS
 62
    7
 10
1132.6629343750783
 20
602.95863258025236
 40
7.7257140266867026
 50
182.36734807815304
 51
267.63265192184474
  0
ARC
  8
_0-1_レイヤ___3
  6
CONTINUOUS
 62
    7
 10
1132.6629343750781
 20
602.32039182469589
 40
7.7257140266864619
 50
92.367348078153469
 51
177.63265192184514
  0
ARC
  8
_0-1_レイヤ___3
  6
CONTINUOUS
 62
    7
 10
1132.0817124747259
 20
602.37741067989964
 40
7.6665831339894339
 50
1.9591828151346038
 51
88.04081718486897
  0
ARC
  8
_0-1_レイヤ___3
  6
CONTINUOUS
 62
    7
 10
1042.5559647475097
 20
628.46015530313241
 40
8.718794545442309
 50
315.96288467159019
 51
15.836878658385322
  0
ARC
  8
_0-1_レイヤ___3
  6
CONTINUOUS
 62
    7
 10
1040.4706010120499
 20
629.95131055944216
 40
11.260812103099514
 50
287.96486888962465
 51
317.88455394399341
  0
ARC
  8
_0-1_レイヤ___3
  6
CONTINUOUS
 62
    7
 10
1040.4394236593962
 20
629.83772108291907
 40
11.162564200234065
 50
236.77915346180311
 51
288.29692596654002
  0
ARC
  8
_0-1_レイヤ___3
  6
CONTINUOUS
 62
    7
 10
1039.1897524908018
 20
627.27679211887892
 40
8.3431941205522477
 50
199.881225745563
 51
234.32250044872103
  0
ARC
  8
_0-1_レイヤ___3
  6
CONTINUOUS
 62
    7
 10
1038.8191637918026
 20
626.96062125688866
 40
7.889031981014142
 50
150.04717864842968
 51
198.63702274675603
  0
ARC
  8
_0-1_レイヤ___3
  6
CONTINUOUS
 62
    7
 10
1041.5830859023818
 20
625.5266003588323
 40
11.000642840239315
 50
107.1252717899996
 51
150.76335847813135
  0
ARC
  8
_0-1_レイヤ___3
  6
CONTINUOUS
 62
    7
 10
1041.9268208116828
 20
625.35585995616941
 40
11.268465116654333
 50
57.122689311157856
 51
108.54004769145301
  0
ARC
  8
_0-1_レイヤ___3
  6
CONTINUOUS
 62
    7
 10
1043.1662355105741
 20
628.21896160661879
 40
8.2071939888577283
 50
18.620534931139009
 51
53.536861759975721
  0
ARC
  8
_0-1_レイヤ___3
  6
CONTINUOUS
 62
    7
 10
1065.0592282156276
 20
543.05671603537576
 40
3.7741236367345845
 50
347.49480677866745
 51
35.70821628536239
  0
ARC
  8
_0-1_レイヤ___3
  6
CONTINUOUS
 62
    7
 10
1061.1985592652754
 20
540.75104398025326
 40
8.2635020732874391
 50
33.064860059250179
 51
47.664213086946482
  0
ARC
  8
_0-1_レイヤ___3
  6
CONTINUOUS
 62
    7
 10
1055.991385397457
 20
535.18357264094175
 40
15.886246431205651
 50
47.304814290600142
 51
68.848062964963574
  0
ARC
  8
_0-1_レイヤ___3
  6
CONTINUOUS
 62
    7
 10
1051.8726148466069
 20
526.56145505914094
 40
25.424175242582933
 50
67.202598663643045
 51
74.320112302540579
  0
ARC
  8
_0-1_レイヤ___3
  6
CONTINUOUS
 62
    7
 10
1053.4618850106667
 20
531.02980242866147
 40
20.695102806697179
 50
75.213015211991589
 51
95.206723343276067
  0
ARC
  8
_0-1_レイヤ___3
  6
CONTINUOUS
 62
    7
 10
1052.49072128017
 20
542.00695775846907
 40
9.6751528312901378
 50
95.378544495901409
 51
122.13875619978383
  0
ARC
  8
_0-1_レイヤ___3
  6
CONTINUOUS
 62
    7
 10
1049.454689948245
 20
547.21174509465664
 40
3.6582155660014628
 50
125.24141664603405
 51
163.68322777002388
  0
ARC
  8
_0-1_レイヤ___3
  6
CONTINUOUS
 62
    7
 10
1049.6401260462824
 20
547.42471492776212
 40
3.7850498777540738
 50
167.56879331357956
 51
215.63422975045029
  0
ARC
  8
_0-1_レイヤ___3
  6
CONTINUOUS
 62
    7
 10
1053.3551444054669
 20
549.62101857395703
 40
8.0929228271233438
 50
212.94754831570438
 51
227.65509064969299
  0
ARC
  8
_0-1_レイヤ___3
  6
CONTINUOUS
 62
    7
 10
1058.1330282295494
 20
554.72823207987972
 40
15.086301449061896
 50
227.30883097313077
 51
249.47616453437229
  0
ARC
  8
_0-1_レイヤ___3
  6
CONTINUOUS
 62
    7
 10
1061.4800542016169
 20
561.82794011134877
 40
22.917913556953241
 50
247.86231856323519
 51
255.50503305653939
  0
ARC
  8
_0-1_レイヤ___3
  6
CONTINUOUS
 62
    7
 10
1061.3121427416459
 20
558.9627796459248
 40
20.109573029353701
 50
253.9247677804932
 51
274.65404594450376
  0
ARC
  8
_0-1_レイヤ___3
  6
CONTINUOUS
 62
    7
 10
1062.095519699451
 20
548.95375089034599
 40
10.070032405813338
 50
274.83230487670278
 51
301.41141561910354
  0
ARC
  8
_0-1_レイヤ___3
  6
CONTINUOUS
 62
    7
 10
1065.3007980946345
 20
543.3421851087146
 40
3.6152814297413509
 50
304.40966542880005
 51
342.24163523205061
  0
ARC
  8
_0-1_レイヤ___3
  6
CONTINUOUS
 62
    7
 10
1105.3015182546019
 20
511.27509943627382
 40
10.843542250105223
 50
345.16911754916708
 51
0.8687676371729736
  0
ARC
  8
_0-1_レイヤ___3
  6
CONTINUOUS
 62
    7
 10
1113.0499647416891
 20
509.06643683027971
 40
2.7920127660913305
 50
318.58540418929613
 51
348.2844934565428
  0
ARC
  8
_0-1_レイヤ___3
  6
CONTINUOUS
 62
    7
 10
1114.7305968421642
 20
507.60332810277538
 40
0.5639707994414218
 50
271.34290028227593
 51
317.11259035371023
  0
ARC
  8
_0-1_レイヤ___3
  6
CONTINUOUS
 62
    7
 10
1114.8521434301267
 20
507.83748870520924
 40
0.8052960728415714
 50
211.2675147712242
 51
262.26906309282117
  0
ARC
  8
_0-1_レイヤ___3
  6
CONTINUOUS
 62
    7
 10
1117.3424374410542
 20
509.42202165560013
 40
3.7568192805940153
 50
191.7105011885827
 51
212.2106268515891
  0
ARC
  8
_0-1_レイヤ___3
  6
CONTINUOUS
 62
    7
 10
1124.678938187003
 20
511.33585743294418
 40
11.335598118636614
 50
179.47606967650793
 51
193.65652756499045
  0
ARC
  8
_0-1_レイヤ___3
  6
CONTINUOUS
 62
    7
 10
1124.1861097399985
 20
511.60392496867325
 40
10.843542250105605
 50
165.16911754916183
 51
180.86876763716771
  0
ARC
  8
_0-1_レイヤ___3
  6
CONTINUOUS
 62
    7
 10
1116.4376632529118
 20
513.81258757466912
 40
2.7920127660918261
 50
138.58540418931392
 51
168.28449345656065
  0
ARC
  8
_0-1_レイヤ___3
  6
CONTINUOUS
 62
    7
 10
1114.7570311524355
 20
515.27569630217261
 40
0.5639707994415301
 50
91.342900282209939
 51
137.11259035364426
  0
ARC
  8
_0-1_レイヤ___3
  6
CONTINUOUS
 62
    7
 10
1114.6354845644737
 20
515.04153569973914
 40
0.8052960728412952
 50
31.267514771211317
 51
82.269063092808281
  0
ARC
  8
_0-1_レイヤ___3
  6
CONTINUOUS
 62
    7
 10
1112.1451905535471
 20
513.45700274934745
 40
3.7568192805932026
 50
11.710501188600821
 51
32.210626851607223
  0
ARC
  8
_0-1_レイヤ___3
  6
CONTINUOUS
 62
    7
 10
1104.8086898075951
 20
511.54316697200528
 40
11.335598118638483
 50
359.47606967650097
 51
13.656527564983483
  0
ARC
  8
_0-1_レイヤ___3
  6
CONTINUOUS
 62
    7
 10
1136.2014112960744
 20
472.97660629737709
 40
9.5426100578867867
 50
344.20731390938943
 51
0.3777146446790855
  0
ARC
  8
_0-1_レイヤ___3
  6
CONTINUOUS
 62
    7
 10
1141.6822773318136
 20
471.24690651673143
 40
3.8018078742584294
 50
322.63288690481488
 51
346.81166862409151
  0
ARC
  8
_0-1_レイヤ___3
  6
CONTINUOUS
 62
    7
 10
1144.0999062321205
 20
469.39414203080929
 40
0.7559041282735523
 50
273.32998112183998
 51
323.02719909809286
  0
ARC
  8
_0-1_レイヤ___3
  6
CONTINUOUS
 62
    7
 10
1144.2521434301266
 20
469.43749070520909
 40
0.8052960728412952
 50
211.26751477121132
 51
262.26906309280827
  0
ARC
  8
_0-1_レイヤ___3
  6
CONTINUOUS
 62
    7
 10
1146.742437441053
 20
471.02202365560083
 40
3.7568192805930178
 50
191.71050118860197
 51
212.21062685160837
  0
ARC
  8
_0-1_レイヤ___3
  6
CONTINUOUS
 62
    7
 10
1154.0789381870054
 20
472.93585943294289
 40
11.335598118638483
 50
179.476069676501
 51
193.65652756498349
  0
ARC
  8
_0-1_レイヤ___3
  6
CONTINUOUS
 62
    7
 10
1153.5641308427396
 20
473.31437738118274
 40
10.823807389394345
 50
165.52694359748693
 51
181.4551435215111
  0
ARC
  8
_0-1_レイヤ___3
  6
CONTINUOUS
 62
    7
 10
1145.6989055360937
 20
475.45807424013617
 40
2.6746810253895492
 50
138.23797085436814
 51
167.88297301801595
  0
ARC
  8
_0-1_レイヤ___3
  6
CONTINUOUS
 62
    7
 10
1144.1629755051704
 20
476.81335888516082
 40
0.6264484374501813
 50
91.752809538701854
 51
137.1351000222009
  0
ARC
  8
_0-1_レイヤ___3
  6
CONTINUOUS
 62
    7
 10
1144.0383809333375
 20
476.54404614787177
 40
0.901653574157075
 50
36.432359436055798
 51
83.284869459781476
  0
ARC
  8
_0-1_レイヤ___3
  6
CONTINUOUS
 62
    7
 10
1141.9302260212967
 20
474.95419129901478
 40
3.5420641244507882
 50
15.478975167851303
 51
36.871604795670258
  0
ARC
  8
_0-1_レイヤ___3
  6
CONTINUOUS
 62
    7
 10
1136.4301970969088
 20
473.19488246815411
 40
9.3149127245096626
 50
359.04428962764371
 51
16.879212154368499
  0
ARC
  8
_0-1_レイヤ___3
  6
CONTINUOUS
 62
    7
 10
1162.7080781422469
 20
573.13470800667028
 40
3.6372460910938047
 50
1.6511583710291973
 51
50.455832249957453
  0
ARC
  8
_0-1_レイヤ___3
  6
CONTINUOUS
 62
    7
 10
1160.5318984790028
 20
570.86541536386892
 40
6.7767074417493802
 50
48.482688496540618
 51
91.59042294644955
  0
ARC
  8
_0-1_レイヤ___3
  6
CONTINUOUS
 62
    7
 10
1160.2866519058603
 20
570.98663641857661
 40
6.6531213502138318
 50
89.507721757804504
 51
139.8161500740315
  0
ARC
  8
_0-1_レイヤ___3
  6
CONTINUOUS
 62
    7
 10
1158.1699460681316
 20
573.19311653249929
 40
3.6264288705700274
 50
144.87720907431435
 51
179.26695140166882
  0
ARC
  8
_0-1_レイヤ___3
  6
CONTINUOUS
 62
    7
 10
1158.2980242801832
 20
573.3187055742028
 40
3.7550454642028774
 50
181.20844938855879
 51
229.59016975299326
  0
ARC
  8
_0-1_レイヤ___3
  6
CONTINUOUS
 62
    7
 10
1160.1329370376643
 20
575.26091419064221
 40
6.4248636239032244
 50
228.35839461662997
 51
271.88090065408721
  0
ARC
  8
_0-1_レイヤ___3
  6
CONTINUOUS
 62
    7
 10
1160.3584863660826
 20
575.86486054878708
 40
7.0253636678430347
 50
269.8803385194625
 51
319.04002404504513
  0
ARC
  8
_0-1_レイヤ___3
  6
CONTINUOUS
 62
    7
 10
1162.8699836394871
 20
573.32577717384447
 40
3.4749012935834402
 50
323.51405948215563
 51
358.57747711881586
  0
ARC
  8
_0-1_レイヤ___3
  6
CONTINUOUS
 62
    7
 10
1003.1023358176179
 20
481.87123907877037
 40
1.2418855145397099
 50
262.66650354277124
 51
358.53608574723535
  0
ARC
  8
_0-1_レイヤ___3
  6
CONTINUOUS
 62
    7
 10
1002.955869944411
 20
481.85156614958493
 40
1.2121138842317443
 50
180.56979108054361
 51
269.43020891946662
  0
ARC
  8
_0-1_レイヤ___3
  6
CONTINUOUS
 62
    7
 10
1003.0570689140814
 20
481.72625928569295
 40
1.3181272497726488
 50
94.928905385745907
 51
175.07109461424389
  0
ARC
  8
_0-1_レイヤ___3
  6
CONTINUOUS
 62
    7
 10
1002.9395491604134
 20
481.61786755943928
 40
1.4216510461313083
 50
8.9693742260710358
 51
89.828036483922418
  0
ARC
  8
_0-1_レイヤ___3
  6
CONTINUOUS
 62
    7
 10
1113.0515939557674
 20
536.48901755149734
 40
1.4930410014243449
 50
320.50922555769523
 51
358.09987297418877
  0
ARC
  8
_0-1_レイヤ___3
  6
CONTINUOUS
 62
    7
 10
1111.6345787769455
 20
537.69099991559926
 40
3.35109966984577
 50
297.53604334129523
 51
320.05706085530005
  0
ARC
  8
_0-1_レイヤ___3
  6
CONTINUOUS
 62
    7
 10
1109.9657437413512
 20
540.82920540633597
 40
6.9053839297709461
 50
282.18974044138469
 51
297.77647260240371
  0
ARC
  8
_0-1_レイヤ___3
  6
CONTINUOUS
 62
    7
 10
1109.2133602719525
 20
544.12882259326148
 40
10.289545422528848
 50
269.61273912554987
 51
282.40527278945478
  0
ARC
  8
_0-1_レイヤ___3
  6
CONTINUOUS
 62
    7
 10
1108.9795452258845
 20
542.41603685462758
 40
8.5780976526417447
 50
240.10267571775705
 51
271.09726923510414
  0
ARC
  8
_0-1_レイヤ___3
  6
CONTINUOUS
 62
    7
 10
1105.7784221485776
 20
536.73171898687565
 40
2.0554821808195061
 50
188.17283963634173
 51
238.47973973789038
  0
ARC
  8
_0-1_レイヤ___3
  6
CONTINUOUS
 62
    7
 10
1105.0399473012012
 20
536.33691476895933
 40
1.3001855984112214
 50
134.79851274311991
 51
175.47409411340826
  0
ARC
  8
_0-1_レイヤ___3
  6
CONTINUOUS
 62
    7
 10
1106.7263534961037
 20
534.75490803749312
 40
3.6119583962056323
 50
114.58165823952476
 51
136.09855560356621
  0
ARC
  8
_0-1_レイヤ___3
  6
CONTINUOUS
 62
    7
 10
1108.9025080247595
 20
530.01792066465737
 40
8.8248912646255651
 50
88.433120947274503
 51
114.63613181459768
  0
ARC
  8
_0-1_レイヤ___3
  6
CONTINUOUS
 62
    7
 10
1109.2953638508266
 20
529.90969232347231
 40
8.9311057786547305
 50
60.716744015068606
 51
90.97228539958175
  0
ARC
  8
_0-1_レイヤ___3
  6
CONTINUOUS
 62
    7
 10
1112.7495156421282
 20
536.12365303378294
 40
1.8218873735275167
 50
9.9837699707747536
 51
59.878104631431491
  0
ARC
  8
_0-1_レイヤ___3
  6
CONTINUOUS
 62
    7
 10
1144.1534850680816
 20
559.77366570277593
 40
2.991053805340778
 50
308.70477424179205
 51
1.2614388020116185
  0
ARC
  8
_0-1_レイヤ___3
  6
CONTINUOUS
 62
    7
 10
1145.3281756378128
 20
558.54868262473144
 40
1.3092638209316427
 50
270.68437948839494
 51
302.0947011796539
  0
ARC
  8
_0-1_レイヤ___3
  6
CONTINUOUS
 62
    7
 10
1145.3930138198414
 20
558.66751175882644
 40
1.4288468621515038
 50
228.37045024313016
 51
268.02673078415069
  0
ARC
  8
_0-1_レイヤ___3
  6
CONTINUOUS
 62
    7
 10
1146.3718476999384
 20
559.67497217228447
 40
2.8328162744506753
 50
176.67018354288766
 51
227.1089299969276
  0
ARC
  8
_0-1_レイヤ___3
  6
CONTINUOUS
 62
    7
 10
1146.147019533928
 20
559.93215810774905
 40
2.6048536100315109
 50
125.24533522098116
 51
182.03824856642973
  0
ARC
  8
_0-1_レイヤ___3
  6
CONTINUOUS
 62
    7
 10
1145.3505586495714
 20
560.76217188808425
 40
1.477355710333901
 50
90.261576443047076
 51
118.5799698119347
  0
ARC
  8
_0-1_レイヤ___3
  6
CONTINUOUS
 62
    7
 10
1145.2646445058217
 20
560.48509995540553
 40
1.7561976372395454
 50
17.032404089240956
 51
87.416227298837953
  0
ARC
  8
_0-1_レイヤ___3
  6
CONTINUOUS
 62
    7
 10
1143.9392254993736
 20
559.88423832352157
 40
3.2049006017263793
 50
359.20038045570823
 51
20.364433607891264
  0
ARC
  8
_0-1_レイヤ___3
  6
CONTINUOUS
 62
    7
 10
1180.553485068082
 20
537.97366570277632
 40
2.9910538053404769
 50
308.70477424178256
 51
1.261438802002145
  0
ARC
  8
_0-1_レイヤ___3
  6
CONTINUOUS
 62
    7
 10
1181.728175637812
 20
536.74868262473149
 40
1.3092638209318654
 50
270.68437948842796
 51
302.09470117968692
  0
ARC
  8
_0-1_レイヤ___3
  6
CONTINUOUS
 62
    7
 10
1181.7930138198408
 20
536.86751175882625
 40
1.4288468621514652
 50
228.37045024313403
 51
268.02673078415455
  0
ARC
  8
_0-1_レイヤ___3
  6
CONTINUOUS
 62
    7
 10
1182.7718476999385
 20
537.87497217228395
 40
2.8328162744506278
 50
176.67018354288078
 51
227.10892999692072
  0
ARC
  8
_0-1_レイヤ___3
  6
CONTINUOUS
 62
    7
 10
1182.5470195339281
 20
538.13215810774875
 40
2.6048536100314439
 50
125.24533522098045
 51
182.03824856642899
  0
ARC
  8
_0-1_レイヤ___3
  6
CONTINUOUS
 62
    7
 10
1181.7505586495715
 20
538.96217188808464
 40
1.4773557103333743
 50
90.261576443058146
 51
118.57996981194577
  0
ARC
  8
_0-1_レイヤ___3
  6
CONTINUOUS
 62
    7
 10
1181.664644505822
 20
538.68509995540558
 40
1.7561976372393189
 50
17.032404089250484
 51
87.416227298847488
  0
ARC
  8
_0-1_レイヤ___3
  6
CONTINUOUS
 62
    7
 10
1180.3392254993723
 20
538.08423832352094
 40
3.2049006017276547
 50
359.20038045571835
 51
20.364433607901372
  0
ARC
  8
_0-1_レイヤ___3
  6
CONTINUOUS
 62
    7
 10
1148.6133314376866
 20
494.5352206305954
 40
2.1326312480197878
 50
293.5028662133592
 51
357.42781064383985
  0
ARC
  8
_0-1_レイヤ___3
  6
CONTINUOUS
 62
    7
 10
1147.2619159496323
 20
496.78581492578536
 40
4.7477718576673409
 50
268.57460685358888
 51
297.63097302895056
  0
ARC
  8
_0-1_レイヤ___3
  6
CONTINUOUS
 62
    7
 10
1147.0232222410871
 20
496.51022968064387
 40
4.4723435848870903
 50
228.91019488244453
 51
271.54510405239904
  0
ARC
  8
_0-1_レイヤ___3
  6
CONTINUOUS
 62
    7
 10
1145.4702146488082
 20
494.47755555002396
 40
1.9267762626792471
 50
181.1313534149663
 51
223.98313985445466
  0
ARC
  8
_0-1_レイヤ___3
  6
CONTINUOUS
 62
    7
 10
1145.8978144132686
 20
494.3214715295249
 40
2.3569581156333212
 50
117.10819654692023
 51
177.12932412253602
  0
ARC
  8
_0-1_レイヤ___3
  6
CONTINUOUS
 62
    7
 10
1147.0684591545162
 20
492.67084000127761
 40
4.3693220473932808
 50
89.011808131730191
 51
120.91250237691864
  0
ARC
  8
_0-1_レイヤ___3
  6
CONTINUOUS
 62
    7
 10
1147.1999718742613
 20
492.77602123121892
 40
4.263860805551424
 50
46.707235056421105
 51
90.754645265126939
  0
ARC
  8
_0-1_レイヤ___3
  6
CONTINUOUS
 62
    7
 10
1148.5581385434148
 20
494.35192971538447
 40
2.1874295146955651
 50
2.2946790177019243
 51
44.294447490093269
  0
ARC
  8
_0-1_レイヤ___3
  6
CONTINUOUS
 62
    7
 10
1183.352291423319
 20
503.6232623799965
 40
7.3915404360933712
 50
311.64235955981167
 51
0.125961158413644
  0
ARC
  8
_0-1_レイヤ___3
  6
CONTINUOUS
 62
    7
 10
1185.247893183416
 20
501.8556336897766
 40
4.8170766013209922
 50
271.14098685161798
 51
308.76219453792118
  0
ARC
  8
_0-1_レイヤ___3
  6
CONTINUOUS
 62
    7
 10
1185.4727012169744
 20
502.1163465171353
 40
5.0784701017056877
 50
207.39648595432033
 51
268.54572606504485
  0
ARC
  8
_0-1_レイヤ___3
  6
CONTINUOUS
 62
    7
 10
1187.4581793340008
 20
503.56040666968522
 40
7.5147817066580114
 50
179.39685581663502
 51
210.20714035023295
  0
ARC
  8
_0-1_レイヤ___3
  6
CONTINUOUS
 62
    7
 10
1187.6878058278617
 20
503.69942513979282
 40
7.7442235912880664
 50
132.82265611600286
 51
180.44327138162859
  0
ARC
  8
_0-1_レイヤ___3
  6
CONTINUOUS
 62
    7
 10
1185.4203128374147
 20
505.67689275612042
 40
4.7632337821405546
 50
90.920225485621529
 51
128.9829559038993
  0
ARC
  8
_0-1_レイヤ___3
  6
CONTINUOUS
 62
    7
 10
1185.2338208423428
 20
505.43846274553579
 40
5.0022589062222824
 50
28.163981790605916
 51
88.740038923664073
  0
ARC
  8
_0-1_レイヤ___3
  6
CONTINUOUS
 62
    7
 10
1182.875079090973
 20
503.78426979935864
 40
7.8700663140729352
 50
358.94607405284125
 51
30.676598705012438
  0
ARC
  8
_0-1_レイヤ___3
  6
CONTINUOUS
 62
    7
 10
1101.9430195106024
 20
518.13483415973474
 40
0.8064498054084605
 50
303.13330836025909
 51
353.21179848638633
  0
ARC
  8
_0-1_レイヤ___3
  6
CONTINUOUS
 62
    7
 10
1100.4285718512708
 20
520.29756622615594
 40
3.4463793047079232
 50
282.99961589153776
 51
304.56444495490643
  0
ARC
  8
_0-1_レイヤ___3
  6
CONTINUOUS
 62
    7
 10
1098.7145216628819
 20
527.06858863432637
 40
10.430473414264263
 50
269.06225245350709
 51
283.80722584855374
  0
ARC
  8
_0-1_レイヤ___3
  6
CONTINUOUS
 62
    7
 10
1098.3794032310989
 20
527.48180794517134
 40
10.84354225010429
 50
255.16911754917339
 51
270.8687676371793
  0
ARC
  8
_0-1_レイヤ___3
  6
CONTINUOUS
 62
    7
 10
1096.1707406251066
 20
519.73336145808594
 40
2.7920127660924465
 50
228.58540418928845
 51
258.28449345653519
  0
ARC
  8
_0-1_レイヤ___3
  6
CONTINUOUS
 62
    7
 10
1094.707631897601
 20
518.05272935760979
 40
0.5639707994409385
 50
181.34290028225732
 51
227.11259035369164
  0
ARC
  8
_0-1_レイヤ___3
  6
CONTINUOUS
 62
    7
 10
1095.0925854960828
 20
517.97251658547168
 40
0.9511319438006177
 50
128.24458983196033
 51
175.96086810616092
  0
ARC
  8
_0-1_レイヤ___3
  6
CONTINUOUS
 62
    7
 10
1096.3613633148257
 20
516.32598988899599
 40
3.0297575978887203
 50
104.47961996591222
 51
127.8140625052397
  0
ARC
  8
_0-1_レイヤ___3
  6
CONTINUOUS
 62
    7
 10
1098.3210949295867
 20
509.79951204215496
 40
9.8425204002373654
 50
88.703374140192324
 51
106.02611834977803
  0
ARC
  8
_0-1_レイヤ___3
  6
CONTINUOUS
 62
    7
 10
1098.7787004883839
 20
510.32181663062312
 40
9.3206556364800228
 50
74.408893738990827
 51
91.444030911081057
  0
ARC
  8
_0-1_レイヤ___3
  6
CONTINUOUS
 62
    7
 10
1100.6671105891658
 20
516.69818956222173
 40
2.6734257122860337
 50
47.192126027760537
 51
76.662900100545869
  0
ARC
  8
_0-1_レイヤ___3
  6
CONTINUOUS
 62
    7
 10
1101.8462566821827
 20
518.02763248968301
 40
0.8976379290838232
 50
0.7582982556252421
 51
44.74365442994462
  0
ARC
  8
_0-1_レイヤ___3
  6
CONTINUOUS
 62
    7
 10
954.3163649173988
 20
519.86696528237565
 40
4.4275381925315935
 50
270.35526643109853
 51
359.64473356889869
  0
ARC
  8
_0-1_レイヤ___3
  6
CONTINUOUS
 62
    7
 10
954.52698404977639
 20
520.02267825495005
 40
4.58682470423153
 50
182.28860565917853
 51
267.71139434081687
  0
ARC
  8
_0-1_レイヤ___3
  6
CONTINUOUS
 62
    7
 10
954.52698404977639
 20
519.65634614999817
 40
4.5868247042315655
 50
92.288605659183631
 51
177.71139434082193
  0
ARC
  8
_0-1_レイヤ___3
  6
CONTINUOUS
 62
    7
 10
954.16065194482394
 20
519.65634614999783
 40
4.5868247042318631
 50
2.2886056591817798
 51
87.711394340820092
  0
ARC
  8
_0-1_レイヤ___3
  6
CONTINUOUS
 62
    7
 10
975.80141329607443
 20
560.97660429737687
 40
9.5426100578867867
 50
344.20731390938943
 51
0.3777146446790855
  0
ARC
  8
_0-1_レイヤ___3
  6
CONTINUOUS
 62
    7
 10
981.2822793318137
 20
559.24690451673121
 40
3.8018078742584294
 50
322.63288690481488
 51
346.81166862409151
  0
ARC
  8
_0-1_レイヤ___3
  6
CONTINUOUS
 62
    7
 10
983.69990823212106
 20
557.39414003080935
 40
0.7559041282733127
 50
273.3299811218061
 51
323.02719909805899
  0
ARC
  8
_0-1_レイヤ___3
  6
CONTINUOUS
 62
    7
 10
983.85214543012603
 20
557.43748870520926
 40
0.8052960728412549
 50
211.26751477125859
 51
262.26906309285556
  0
ARC
  8
_0-1_レイヤ___3
  6
CONTINUOUS
 62
    7
 10
986.34243944105401
 20
559.02202165559993
 40
3.7568192805940153
 50
191.7105011885827
 51
212.2106268515891
  0
ARC
  8
_0-1_レイヤ___3
  6
CONTINUOUS
 62
    7
 10
993.67894018700326
 20
560.93585743294409
 40
11.335598118636899
 50
179.47606967650776
 51
193.65652756499028
  0
ARC
  8
_0-1_レイヤ___3
  6
CONTINUOUS
 62
    7
 10
993.18611173999807
 20
561.20392496867316
 40
10.843542250105347
 50
165.16911754916165
 51
180.86876763716754
  0
ARC
  8
_0-1_レイヤ___3
  6
CONTINUOUS
 62
    7
 10
985.43766525291198
 20
563.41258757466858
 40
2.7920127660921983
 50
138.58540418930502
 51
168.28449345655176
  0
ARC
  8
_0-1_レイヤ___3
  6
CONTINUOUS
 62
    7
 10
983.7570331524355
 20
564.87569630217286
 40
0.5639707994411967
 50
91.342900282225159
 51
137.11259035365947
  0
ARC
  8
_0-1_レイヤ___3
  6
CONTINUOUS
 62
    7
 10
983.61139404153562
 20
564.56674069337157
 40
0.8827602627382373
 50
33.93255925296932
 51
81.37255374819182
  0
ARC
  8
_0-1_レイヤ___3
  6
CONTINUOUS
 62
    7
 10
981.23527817151739
 20
562.79021970612791
 40
3.8487265229289469
 50
15.511819766124397
 51
36.130164182247292
  0
ARC
  8
_0-1_レイヤ___3
  6
CONTINUOUS
 62
    7
 10
975.971083656377
 20
561.10969459946386
 40
9.3729950978027095
 50
359.57098102819418
 51
16.804622995610444
  0
ARC
  8
_0-1_レイヤ___3
  6
CONTINUOUS
 62
    7
 10
1011.6503533680557
 20
515.19631712419391
 40
9.2823468478546047
 50
60.054943106210281
 51
76.965859296589741
  0
ARC
  8
_0-1_レイヤ___3
  6
CONTINUOUS
 62
    7
 10
1014.7423077912445
 20
520.33239284757076
 40
3.2905304273006579
 50
35.420873522766691
 51
62.065103068608913
  0
ARC
  8
_0-1_レイヤ___3
  6
CONTINUOUS
 62
    7
 10
1016.792935083437
 20
521.80133601970158
 40
0.7681204948612343
 50
347.83808566805766
 51
34.781779279988008
  0
ARC
  8
_0-1_レイヤ___3
  6
CONTINUOUS
 62
    7
 10
1016.8399699128022
 20
521.89352550803733
 40
0.7482794064159286
 50
287.40642090512529
 51
340.15582862461798
  0
ARC
  8
_0-1_レイヤ___3
  6
CONTINUOUS
 62
    7
 10
1015.9949703770633
 20
524.53027716436304
 40
3.5171091523751952
 50
266.5581010355703
 51
287.69193166225836
  0
ARC
  8
_0-1_レイヤ___3
  6
CONTINUOUS
 62
    7
 10
1016.2059539160962
 20
533.68587336766336
 40
12.673393609822941
 50
255.08412694513311
 51
268.09118247401216
  0
ARC
  8
_0-1_レイヤ___3
  6
CONTINUOUS
 62
    7
 10
1016.3612250310953
 20
532.32755966544028
 40
11.411759814334935
 50
237.34583232027779
 51
252.57459904036301
  0
ARC
  8
_0-1_レイヤ___3
  6
CONTINUOUS
 62
    7
 10
1011.007679218846
 20
524.45064478947347
 40
1.9086686754711155
 50
192.43916006922748
 51
245.09187973971513
  0
ARC
  8
_0-1_レイヤ___3
  6
CONTINUOUS
 62
    7
 10
1009.9269442435345
 20
523.76810908608877
 40
0.8288241681045294
 50
111.45269206608607
 51
160.88558658973153
  0
ARC
  8
_0-1_レイヤ___3
  6
CONTINUOUS
 62
    7
 10
1010.7457673749269
 20
521.52741366119199
 40
3.2142670262676596
 50
87.895255988048376
 51
110.42943810341777
  0
ARC
  8
_0-1_レイヤ___3
  6
CONTINUOUS
 62
    7
 10
1010.8338356825402
 20
516.02242558945613
 40
8.7171381678927542
 50
70.499025201011875
 51
89.802945776755863
  0
ARC
  8
_0-1_レイヤ___3
  6
CONTINUOUS
 62
    7
 10
946.73467634542226
 20
487.96163306754403
 40
2.4122348568284044
 50
297.37409736399923
 51
357.0981256548348
  0
ARC
  8
_0-1_レイヤ___3
  6
CONTINUOUS
 62
    7
 10
945.76157270283852
 20
489.26695206173144
 40
4.027478994296855
 50
269.74741693495105
 51
301.13187413568664
  0
ARC
  8
_0-1_レイヤ___3
  6
CONTINUOUS
 62
    7
 10
945.66706571979148
 20
489.10754604232227
 40
3.8687952515365702
 50
224.84067918843832
 51
271.13675441573037
  0
ARC
  8
_0-1_レイヤ___3
  6
CONTINUOUS
 62
    7
 10
944.61526979396103
 20
487.89666428607893
 40
2.2721706857570592
 50
181.44131714714092
 51
221.89060029943249
  0
ARC
  8
_0-1_レイヤ___3
  6
CONTINUOUS
 62
    7
 10
945.18393609516465
 20
487.73800659781944
 40
2.8419314202834483
 50
96.873548441195283
 51
177.9531244245087
  0
ARC
  8
_0-1_レイヤ___3
  6
CONTINUOUS
 62
    7
 10
945.71024805807633
 20
485.91467401874036
 40
4.7249574393099429
 50
89.592920773799719
 51
100.56629494622344
  0
ARC
  8
_0-1_レイヤ___3
  6
CONTINUOUS
 62
    7
 10
945.73937566186623
 20
487.16983222373347
 40
3.4696828225674259
 50
11.128437769708098
 51
89.926642533597018
  0
ARC
  8
_0-1_レイヤ___3
  6
CONTINUOUS
 62
    7
 10
1001.2743030582027
 20
652.51373183432429
 40
7.4745448724801893
 50
270.53285591477584
 51
357.8974948792382
  0
ARC
  8
_0-1_レイヤ___3
  6
CONTINUOUS
 62
    7
 10
1001.6014431940355
 20
652.49713739920958
 40
7.4620757955133588
 50
181.9785225272754
 51
268.02147747272596
  0
ARC
  8
_0-1_レイヤ___3
  6
CONTINUOUS
 62
    7
 10
1001.4468690756473
 20
652.33653963975769
 40
7.303697623591666
 50
90.808453839748552
 51
180.76119536623605
  0
ARC
  8
_0-1_レイヤ___3
  6
CONTINUOUS
 62
    7
 10
1001.4398341442095
 20
652.33552834938337
 40
7.3046129531148285
 50
359.2468330557648
 51
90.75316694423519
  0
ARC
  8
_0-1_レイヤ___3
  6
CONTINUOUS
 62
    7
 10
1320.7669046162221
 20
514.86706691611187
 40
3.8665069726183559
 50
347.64127977917121
 51
35.266503053014539
  0
ARC
  8
_0-1_レイヤ___3
  6
CONTINUOUS
 62
    7
 10
1316.8463672361634
 20
512.6143141078727
 40
8.3789752532609736
 50
32.363713655273678
 51
46.971968581409811
  0
ARC
  8
_0-1_レイヤ___3
  6
CONTINUOUS
 62
    7
 10
1312.2633394077134
 20
507.75512092300397
 40
15.058439074131506
 50
46.840377150791511
 51
69.06515187596122
  0
ARC
  8
_0-1_レイヤ___3
  6
CONTINUOUS
 62
    7
 10
1309.195838991549
 20
501.36508443989874
 40
22.130338067917364
 50
67.558670385799999
 51
76.015583073740331
  0
ARC
  8
_0-1_レイヤ___3
  6
CONTINUOUS
 62
    7
 10
1309.2618810106683
 20
502.82980242866142
 40
20.695102806697054
 50
75.21301521199554
 51
95.206723343280018
  0
ARC
  8
_0-1_レイヤ___3
  6
CONTINUOUS
 62
    7
 10
1308.2907172801697
 20
513.8069577584688
 40
9.6751528312901378
 50
95.378544495901409
 51
122.13875619978383
  0
ARC
  8
_0-1_レイヤ___3
  6
CONTINUOUS
 62
    7
 10
1305.2546859482454
 20
519.01174509465636
 40
3.6582155660014628
 50
125.24141664603405
 51
163.68322777002388
  0
ARC
  8
_0-1_レイヤ___3
  6
CONTINUOUS
 62
    7
 10
1305.4213486283697
 20
519.22086078236225
 40
3.7675543553490276
 50
167.45009591473689
 51
215.75292714928261
  0
ARC
  8
_0-1_レイヤ___3
  6
CONTINUOUS
 62
    7
 10
1309.1050281908119
 20
521.44676158423226
 40
8.0650190859008699
 50
213.29464420773087
 51
228.14642873179341
  0
ARC
  8
_0-1_レイヤ___3
  6
CONTINUOUS
 62
    7
 10
1313.9302297701302
 20
526.643637349914
 40
15.155968595673068
 50
227.66798927609256
 51
249.58600044368728
  0
ARC
  8
_0-1_レイヤ___3
  6
CONTINUOUS
 62
    7
 10
1317.3826870854271
 20
534.22502497566859
 40
23.472888714363922
 50
248.14267968304785
 51
256.09992712527082
  0
ARC
  8
_0-1_レイヤ___3
  6
CONTINUOUS
 62
    7
 10
1317.1579863642551
 20
529.86129917377139
 40
19.200924959273504
 50
253.62190574871062
 51
274.49801974669197
  0
ARC
  8
_0-1_レイヤ___3
  6
CONTINUOUS
 62
    7
 10
1317.9021150560202
 20
520.77812490867711
 40
10.087411551222674
 50
274.33050628421398
 51
301.30727154483225
  0
ARC
  8
_0-1_レイヤ___3
  6
CONTINUOUS
 62
    7
 10
1321.0914352949239
 20
515.14915442764857
 40
3.6263219331715173
 50
304.46943316761696
 51
342.18186749321916
  0
ARC
  8
_0-1_レイヤ___3
  6
CONTINUOUS
 62
    7
 10
1361.1015235078657
 20
483.07510043627462
 40
10.843534982513566
 50
345.16911284700393
 51
0.8687629350098268
  0
ARC
  8
_0-1_レイヤ___3
  6
CONTINUOUS
 62
    7
 10
1368.8499627416882
 20
480.86643883027989
 40
2.7920127660921983
 50
318.585404189305
 51
348.28449345655173
  0
ARC
  8
_0-1_レイヤ___3
  6
CONTINUOUS
 62
    7
 10
1370.5305948421646
 20
479.40333010277573
 40
0.5639707994413635
 50
271.34290028221756
 51
317.11259035365185
  0
ARC
  8
_0-1_レイヤ___3
  6
CONTINUOUS
 62
    7
 10
1370.652141430126
 20
479.63749070520913
 40
0.8052960728410236
 50
211.26751477124077
 51
262.26906309283777
  0
ARC
  8
_0-1_レイヤ___3
  6
CONTINUOUS
 62
    7
 10
1373.1424354410544
 20
481.22202365560048
 40
3.756819280594164
 50
191.71050118858835
 51
212.21062685159475
  0
ARC
  8
_0-1_レイヤ___3
  6
CONTINUOUS
 62
    7
 10
1380.4789281473468
 20
483.13585843294481
 40
11.335590070172026
 50
179.47607435921503
 51
193.65653224769756
  0
ARC
  8
_0-1_レイヤ___3
  6
CONTINUOUS
 62
    7
 10
1379.9861077399983
 20
483.40392496867395
 40
10.843542250105283
 50
165.16911754916438
 51
180.86876763717024
  0
ARC
  8
_0-1_レイヤ___3
  6
CONTINUOUS
 62
    7
 10
1372.2376612529113
 20
485.61258757466862
 40
2.792012766091454
 50
138.58540418929738
 51
168.28449345654411
  0
ARC
  8
_0-1_レイヤ___3
  6
CONTINUOUS
 62
    7
 10
1370.5570291524361
 20
487.07569630217279
 40
0.5639707994415883
 50
91.342900282268332
 51
137.11259035370264
  0
ARC
  8
_0-1_レイヤ___3
  6
CONTINUOUS
 62
    7
 10
1370.4354825644737
 20
486.84153569973938
 40
0.8052960728412952
 50
31.267514771211317
 51
82.269063092808281
  0
ARC
  8
_0-1_レイヤ___3
  6
CONTINUOUS
 62
    7
 10
1367.9451885535459
 20
485.25700274934775
 40
3.756819280594164
 50
11.71050118858834
 51
32.210626851594746
  0
ARC
  8
_0-1_レイヤ___3
  6
CONTINUOUS
 62
    7
 10
1360.6086878075967
 20
483.34316697200359
 40
11.335598118636966
 50
359.47606967651063
 51
13.656527564993153
  0
ARC
  8
_0-1_レイヤ___3
  6
CONTINUOUS
 62
    7
 10
1405.0039460544435
 20
466.28005441760024
 40
1.7403361884119317
 50
322.45472609382784
 51
358.66520424980303
  0
ARC
  8
_0-1_レイヤ___3
  6
CONTINUOUS
 62
    7
 10
1404.1262675247401
 20
466.94969250344292
 40
2.8442951619964205
 50
298.0508150551243
 51
322.53348045612233
  0
ARC
  8
_0-1_レイヤ___3
  6
CONTINUOUS
 62
    7
 10
1403.0406888471064
 20
469.02462303328878
 40
5.186013796638953
 50
268.92960714547542
 51
297.85538836202369
  0
ARC
  8
_0-1_レイヤ___3
  6
CONTINUOUS
 62
    7
 10
1402.8232182410866
 20
468.31023168064428
 40
4.4723435848870761
 50
228.91019488245246
 51
271.54510405240694
  0
ARC
  8
_0-1_レイヤ___3
  6
CONTINUOUS
 62
    7
 10
1401.2702106488084
 20
466.27755755002391
 40
1.9267762626792471
 50
181.1313534149663
 51
223.98313985445466
  0
ARC
  8
_0-1_レイヤ___3
  6
CONTINUOUS
 62
    7
 10
1401.6978104132686
 20
466.12147352952468
 40
2.3569581156333981
 50
117.10819654691733
 51
177.12932412253312
  0
ARC
  8
_0-1_レイヤ___3
  6
CONTINUOUS
 62
    7
 10
1402.8684551545171
 20
464.47084200127779
 40
4.3693220473934815
 50
89.011808131740011
 51
120.91250237692846
  0
ARC
  8
_0-1_レイヤ___3
  6
CONTINUOUS
 62
    7
 10
1402.9866649112989
 20
464.13309176877681
 40
4.7066175400243706
 50
48.52525453597228
 51
90.521699418252695
  0
ARC
  8
_0-1_レイヤ___3
  6
CONTINUOUS
 62
    7
 10
1404.6385182676215
 20
466.14487567642163
 40
2.1074177843195532
 50
2.5738666274764808
 51
45.948715077482987
  0
ARC
  8
_0-1_レイヤ___3
  6
CONTINUOUS
 62
    7
 10
1357.5736546626783
 20
490.09587883170838
 40
0.9717934198232729
 50
308.89295229984054
 51
356.67482458551029
  0
ARC
  8
_0-1_レイヤ___3
  6
CONTINUOUS
 62
    7
 10
1356.3153712129501
 20
491.64930660030387
 40
2.9708956772103305
 50
284.99034469319844
 51
308.97011674325131
  0
ARC
  8
_0-1_レイヤ___3
  6
CONTINUOUS
 62
    7
 10
1354.5786964883837
 20
497.75720777432525
 40
9.3206556364800228
 50
268.55596908891891
 51
285.59110626100914
  0
ARC
  8
_0-1_レイヤ___3
  6
CONTINUOUS
 62
    7
 10
1354.1089275062166
 20
497.75720777432525
 40
9.3206556364800228
 50
254.4088937389908
 51
271.44403091108109
  0
ARC
  8
_0-1_レイヤ___3
  6
CONTINUOUS
 62
    7
 10
1352.2205174054347
 20
491.38083484272664
 40
2.6734257122860337
 50
227.19212602776054
 51
256.66290010054587
  0
ARC
  8
_0-1_レイヤ___3
  6
CONTINUOUS
 62
    7
 10
1351.0413713124169
 20
490.0513919152649
 40
0.8976379290832247
 50
180.75829825562815
 51
224.74365442994753
  0
ARC
  8
_0-1_レイヤ___3
  6
CONTINUOUS
 62
    7
 10
1350.9446084839983
 20
489.94419024521335
 40
0.8064498054090483
 50
123.13330836027097
 51
173.21179848639821
  0
ARC
  8
_0-1_レイヤ___3
  6
CONTINUOUS
 62
    7
 10
1352.4590561433295
 20
487.78145817879278
 40
3.4463793047074986
 50
102.9996158915374
 51
124.56444495490612
  0
ARC
  8
_0-1_レイヤ___3
  6
CONTINUOUS
 62
    7
 10
1354.1731063317184
 20
481.01043577062251
 40
10.430473414263711
 50
89.062252453507455
 51
103.8072258485541
  0
ARC
  8
_0-1_レイヤ___3
  6
CONTINUOUS
 62
    7
 10
1354.5505539775693
 20
481.54140682349032
 40
9.9002642560626324
 50
74.454787101876605
 51
91.196564425173065
  0
ARC
  8
_0-1_レイヤ___3
  6
CONTINUOUS
 62
    7
 10
1356.6373972332067
 20
488.62460715997821
 40
2.5194016060676265
 50
46.744890546026689
 51
77.007638687364263
  0
ARC
  8
_0-1_レイヤ___3
  6
CONTINUOUS
 62
    7
 10
1357.9316538070834
 20
490.02573012095252
 40
0.6123133149135885
 50
1.2897348071296608
 51
45.10744622015968
  0
ARC
  8
_0-1_レイヤ___3
  6
CONTINUOUS
 62
    7
 10
1209.9606479448239
 20
491.82267825495046
 40
4.5868247042317138
 50
272.28860565918177
 51
357.71139434082011
  0
ARC
  8
_0-1_レイヤ___3
  6
CONTINUOUS
 62
    7
 10
1210.3269800497762
 20
491.82267825495046
 40
4.5868247042317138
 50
182.28860565917989
 51
267.71139434081823
  0
ARC
  8
_0-1_レイヤ___3
  6
CONTINUOUS
 62
    7
 10
1210.3269800497762
 20
491.45634614999801
 40
4.5868247042314545
 50
92.288605659178529
 51
177.71139434081684
  0
ARC
  8
_0-1_レイヤ___3
  6
CONTINUOUS
 62
    7
 10
1209.9606479448241
 20
491.45634614999801
 40
4.5868247042314545
 50
2.2886056591831667
 51
87.711394340821471
  0
ARC
  8
_0-1_レイヤ___3
  6
CONTINUOUS
 62
    7
 10
1231.6014112960743
 20
532.77660429737659
 40
9.5426100578869679
 50
344.20731390939267
 51
0.3777146446822937
  0
ARC
  8
_0-1_レイヤ___3
  6
CONTINUOUS
 62
    7
 10
1237.0822773318137
 20
531.04690451673196
 40
3.8018078742587198
 50
322.63288690480562
 51
346.8116686240823
  0
ARC
  8
_0-1_レイヤ___3
  6
CONTINUOUS
 62
    7
 10
1239.4999062321203
 20
529.19414003080908
 40
0.7559041282734034
 50
273.32998112184606
 51
323.02719909809895
  0
ARC
  8
_0-1_レイヤ___3
  6
CONTINUOUS
 62
    7
 10
1239.6521434301267
 20
529.23748870520899
 40
0.8052960728412952
 50
211.26751477121132
 51
262.26906309280827
  0
ARC
  8
_0-1_レイヤ___3
  6
CONTINUOUS
 62
    7
 10
1242.1424374410544
 20
530.82202165560057
 40
3.756819280594164
 50
191.71050118858835
 51
212.21062685159475
  0
ARC
  8
_0-1_レイヤ___3
  6
CONTINUOUS
 62
    7
 10
1249.4789381870035
 20
532.73585743294427
 40
11.335598118636899
 50
179.47606967650776
 51
193.65652756499028
  0
ARC
  8
_0-1_レイヤ___3
  6
CONTINUOUS
 62
    7
 10
1248.9641308427395
 20
533.11437538118219
 40
10.823807389394403
 50
165.52694359748423
 51
181.45514352150843
  0
ARC
  8
_0-1_レイヤ___3
  6
CONTINUOUS
 62
    7
 10
1241.0989055360933
 20
535.25807224013636
 40
2.6746810253893001
 50
138.23797085437212
 51
167.88297301801992
  0
ARC
  8
_0-1_レイヤ___3
  6
CONTINUOUS
 62
    7
 10
1239.5629755051702
 20
536.61335688516056
 40
0.6264484374503489
 50
91.752809538694876
 51
137.13510002219394
  0
ARC
  8
_0-1_レイヤ___3
  6
CONTINUOUS
 62
    7
 10
1239.4383809333374
 20
536.34404414787195
 40
0.9016535741568756
 50
36.432359436054995
 51
83.28486945978068
  0
ARC
  8
_0-1_レイヤ___3
  6
CONTINUOUS
 62
    7
 10
1237.3302260212963
 20
534.75418929901434
 40
3.5420641244511284
 50
15.478975167855488
 51
36.871604795674443
  0
ARC
  8
_0-1_レイヤ___3
  6
CONTINUOUS
 62
    7
 10
1231.8301970969092
 20
532.99488046815418
 40
9.3149127245094334
 50
359.04428962764388
 51
16.879212154368695
  0
ARC
  8
_0-1_レイヤ___3
  6
CONTINUOUS
 62
    7
 10
1266.1603613701259
 20
485.19141161122127
 40
11.554577656538083
 50
57.52833126497309
 51
72.972935753583513
  0
ARC
  8
_0-1_レイヤ___3
  6
CONTINUOUS
 62
    7
 10
1271.0732063486121
 20
492.69451866675945
 40
2.5895287053488514
 50
28.736355541911788
 51
60.10619332687957
  0
ARC
  8
_0-1_レイヤ___3
  6
CONTINUOUS
 62
    7
 10
1272.8288497784129
 20
493.68951220247402
 40
0.5724387188872517
 50
334.10470160075965
 51
25.895298399240346
  0
ARC
  8
_0-1_レイヤ___3
  6
CONTINUOUS
 62
    7
 10
1272.6153959017679
 20
493.85837393144243
 40
0.840258981638877
 50
282.95794107616842
 51
330.09976965780839
  0
ARC
  8
_0-1_レイヤ___3
  6
CONTINUOUS
 62
    7
 10
1271.5436243354243
 20
497.71129499029888
 40
4.8387629989245813
 50
266.92208264043722
 51
285.09592927454509
  0
ARC
  8
_0-1_レイヤ___3
  6
CONTINUOUS
 62
    7
 10
1271.6280680869631
 20
504.44898572397869
 40
11.574594153579017
 50
255.57050128745584
 51
268.29563525295043
  0
ARC
  8
_0-1_レイヤ___3
  6
CONTINUOUS
 62
    7
 10
1271.9540184191151
 20
503.54772903617805
 40
10.796516084428156
 50
236.93668533858096
 51
252.70225772062011
  0
ARC
  8
_0-1_レイヤ___3
  6
CONTINUOUS
 62
    7
 10
1267.646381961383
 20
497.12208216655648
 40
3.0630705032246555
 50
211.10856284868632
 51
238.89143715130581
  0
ARC
  8
_0-1_レイヤ___3
  6
CONTINUOUS
 62
    7
 10
1265.6226589013452
 20
495.89172770712111
 40
0.6947469871818168
 50
167.71837687437588
 51
210.46217696725989
  0
ARC
  8
_0-1_レイヤ___3
  6
CONTINUOUS
 62
    7
 10
1265.6722280928325
 20
495.62065047350575
 40
0.8402589816387341
 50
102.95794107617564
 51
150.09976965781561
  0
ARC
  8
_0-1_レイヤ___3
  6
CONTINUOUS
 62
    7
 10
1266.7439996591775
 20
491.76772941464935
 40
4.8387629989247225
 50
86.922082640453155
 51
105.09592927456099
  0
ARC
  8
_0-1_レイヤ___3
  6
CONTINUOUS
 62
    7
 10
1266.6595559076375
 20
485.03003868096914
 40
11.574594153579653
 50
75.57050128745631
 51
88.295635252950902
  0
ARC
  8
_0-1_レイヤ___3
  6
CONTINUOUS
 62
    7
 10
698.72169782415369
 20
1425.9168374945266
 40
2.4233585942315736
 50
298.11858862323845
 51
358.17114661184564
  0
ARC
  8
_0-1_レイヤ___3
  6
CONTINUOUS
 62
    7
 10
697.84484085814086
 20
1427.2743871191735
 40
4.0361532899960935
 50
268.56582284685101
 51
300.01482731678328
  0
ARC
  8
_0-1_レイヤ___3
  6
CONTINUOUS
 62
    7
 10
697.66706971979124
 20
1427.107532042322
 40
3.8687952515360324
 50
224.84067918844377
 51
271.13675441573582
  0
ARC
  8
_0-1_レイヤ___3
  6
CONTINUOUS
 62
    7
 10
696.61527379396091
 20
1425.8966502860792
 40
2.272170685757211
 50
181.44131714715053
 51
221.89060029944213
  0
ARC
  8
_0-1_レイヤ___3
  6
CONTINUOUS
 62
    7
 10
697.18394009516464
 20
1425.7379925978194
 40
2.8419314202834483
 50
96.873548441195283
 51
177.9531244245087
  0
ARC
  8
_0-1_レイヤ___3
  6
CONTINUOUS
 62
    7
 10
697.71025205807632
 20
1423.9146600187403
 40
4.7249574393099429
 50
89.592920773799719
 51
100.56629494622344
  0
ARC
  8
_0-1_レイヤ___3
  6
CONTINUOUS
 62
    7
 10
697.83029137514404
 20
1424.8889070455452
 40
3.7515877944862575
 50
43.672230426482336
 51
91.320712573988061
  0
ARC
  8
_0-1_レイヤ___3
  6
CONTINUOUS
 62
    7
 10
698.586723076721
 20
1425.8337303047015
 40
2.5571054257249197
 50
0.1292385037965924
 51
40.061223880007702
  0
LINE
  8
_0-1_レイヤ___3
  6
CONTINUOUS
 62
    7
 10
1365.1438119973
 20
978.43950620247426
 11
1364.9438119973001
 21
984.43950620247415
  0
LINE
  8
_0-1_レイヤ___3
  6
CONTINUOUS
 62
    7
 10
1364.9438119973001
 20
984.43950620247415
 11
1453.7438099973001
 21
1036.6395042024742
  0
LINE
  8
_0-1_レイヤ___3
  6
CONTINUOUS
 62
    7
 10
1459.9438099972999
 20
1043.0395042024738
 11
2271.1437979973007
 21
1511.2394982024744
  0
LINE
  8
_0-1_レイヤ___3
  6
CONTINUOUS
 62
    7
 10
1520.5438079973001
 20
998.03950620247383
 11
1520.5438079973001
 21
992.63950620247419
  0
LINE
  8
_0-1_レイヤ___3
  6
CONTINUOUS
 62
    7
 10
1520.5438079973001
 20
992.63950620247419
 11
1570.3438079973
 21
1021.4395042024745
  0
LINE
  8
_0-1_レイヤ___3
  6
CONTINUOUS
 62
    7
 10
1570.3438079973
 20
1021.4395042024745
 11
1570.3438079973
 21
1026.839504202474
  0
LINE
  8
_0-1_レイヤ___3
  6
CONTINUOUS
 62
    7
 10
1570.3438079973
 20
1026.839504202474
 11
1520.5438079973001
 21
998.03950620247383
  0
ARC
  8
_0-1_レイヤ___3
  6
CONTINUOUS
 62
    7
 10
-624756.53482706274
 20
1009.8598314081423
 40
626203.27951608028
 50
0.0030358435987345
 51
0.0458930861749618
  0
ARC
  8
_0-1_レイヤ___3
  6
CONTINUOUS
 62
    7
 10
1462.1292817529929
 20
1041.1041976016645
 40
15.506713152191832
 50
172.83053760526809
 51
193.06235715475822
  0
ARC
  8
_0-1_レイヤ___3
  6
CONTINUOUS
 62
    7
 10
1454.4993694244283
 20
1039.6163387426168
 40
7.7428425213766054
 50
195.09838397993656
 51
228.25255349627554
  0
LINE
  8
_0-1_レイヤ___3
  6
CONTINUOUS
 62
    7
 10
1449.3438099973002
 20
1033.8395042024742
 11
1520.5438079973001
 21
992.63950620247419
  0
LINE
  8
_0-1_レイヤ___3
  6
CONTINUOUS
 62
    7
 10
1520.5438079973001
 20
992.63950620247419
 11
1520.5438079973001
 21
997.83950620247401
  0
LINE
  8
_0-1_レイヤ___3
  6
CONTINUOUS
 62
    7
 10
1520.5438079973001
 20
997.83950620247401
 11
1453.5438099973001
 21
1036.4395042024744
  0
ARC
  8
_0-1_レイヤ___3
  6
CONTINUOUS
 62
    7
 10
1455.6623069539846
 20
1039.6479262410121
 40
3.8447368353187343
 50
186.69780566337491
 51
236.5635171609008
  0
ARC
  8
_0-1_レイヤ___3
  6
CONTINUOUS
 62
    7
 10
1468.8543465683579
 20
1041.0811352993956
 40
17.114289059735967
 50
178.80015311127548
 51
186.31214704587489
  0
LINE
  8
_0-1_レイヤ___3
  6
CONTINUOUS
 62
    7
 10
1451.7438099973003
 20
1041.4395042024744
 11
1451.3438099973
 21
1511.2394982024744
  0
LINE
  8
_0-1_レイヤ___3
  6
CONTINUOUS
 62
    7
 10
2272.9437979973
 20
1437.639498202474
 11
1565.9438079973002
 21
1029.4395042024744
  0
LINE
  8
_0-1_レイヤ___3
  6
CONTINUOUS
 62
    7
 10
1565.9438079973002
 20
1029.4395042024744
 11
1570.5438079973001
 21
1026.839504202474
  0
LINE
  8
_0-1_レイヤ___3
  6
CONTINUOUS
 62
    7
 10
1570.5438079973001
 20
1026.839504202474
 11
1570.5438079973001
 21
1020.6395042024744
  0
LINE
  8
_0-1_レイヤ___3
  6
CONTINUOUS
 62
    7
 10
1570.5438079973001
 20
1020.6395042024744
 11
1580.9438079973002
 21
1014.4395062024741
  0
LINE
  8
_0-1_レイヤ___3
  6
CONTINUOUS
 62
    7
 10
1580.9438079973002
 20
1014.4395062024741
 11
2270.9437979973
 21
1412.8395002024745
  0
LINE
  8
_0-1_レイヤ___3
  6
CONTINUOUS
 62
    7
 10
1565.7438079973003
 20
1029.4395042024744
 11
1570.3438079973
 21
1026.839504202474
  0
LINE
  8
_0-1_レイヤ___3
  6
CONTINUOUS
 62
    7
 10
1570.3438079973
 20
1026.839504202474
 11
1570.3438079973
 21
1020.6395042024744
  0
LINE
  8
_0-1_レイヤ___3
  6
CONTINUOUS
 62
    7
 10
1570.3438079973
 20
1020.6395042024744
 11
1580.7438079973003
 21
1014.4395062024741
  0
ARC
  8
_0-1_レイヤ___3
  6
CONTINUOUS
 62
    7
 10
1596.5846574137067
 20
1033.4158737229036
 40
24.719122850612262
 50
207.92506290925647
 51
230.14597803917351
  0
ARC
  8
_0-1_レイヤ___3
  6
CONTINUOUS
 62
    7
 10
1556.96376057007
 20
1016.4594481997503
 40
18.576196841845753
 50
16.835264945094277
 51
40.240018084366092
  0
ARC
  8
_0-1_レイヤ___3
  6
CONTINUOUS
 62
    7
 10
1566.8593278119736
 20
1024.8157583548127
 40
5.6243803446073866
 50
40.379576740432015
 51
89.139364729985701
  0
LINE
  8
_0-1_レイヤ___3
  6
CONTINUOUS
 62
    7
 10
1566.9438079972999
 20
1030.4395042024746
 11
1565.7438079973003
 21
1029.4395042024744
  0
LINE
  8
_0-1_レイヤ___3
  6
CONTINUOUS
 62
    7
 10
1570.3438079973
 20
1026.839504202474
 11
1570.3438079973
 21
1020.6395042024744
  0
LINE
  8
_0-1_レイヤ___3
  6
CONTINUOUS
 62
    7
 10
1565.7438079973003
 20
1029.4395042024744
 11
1570.3438079973
 21
1026.839504202474
  0
LINE
  8
_0-1_レイヤ___3
  6
CONTINUOUS
 62
    7
 10
2263.5437979972999
 20
465.43951420247424
 11
1469.5438099973001
 21
923.8395062024739
  0
LINE
  8
_0-1_レイヤ___3
  6
CONTINUOUS
 62
    7
 10
1469.5438099973001
 20
923.8395062024739
 11
1364.7438119973003
 21
984.43950620247415
  0
LINE
  8
_0-1_レイヤ___3
  6
CONTINUOUS
 62
    7
 10
1364.7438119973003
 20
984.43950620247415
 11
1364.7438119973003
 21
979.23950620247433
  0
LINE
  8
_0-1_レイヤ___3
  6
CONTINUOUS
 62
    7
 10
1364.7438119973003
 20
979.23950620247433
 11
1469.1438099973002
 21
919.03950620247372
  0
LINE
  8
_0-1_レイヤ___3
  6
CONTINUOUS
 62
    7
 10
1469.1438099973002
 20
919.03950620247372
 11
1469.5438099973001
 21
918.8395062024739
  0
LINE
  8
_0-1_レイヤ___3
  6
CONTINUOUS
 62
    7
 10
1469.5438099973001
 20
918.8395062024739
 11
2254.7437979973001
 21
465.43951420247424
  0
LINE
  8
_0-1_レイヤ___3
  6
CONTINUOUS
 62
    7
 10
1058.7438159973001
 20
801.83950820247424
 11
1364.9438119973001
 21
978.63950620247408
  0
ARC
  8
_0-1_レイヤ___3
  6
CONTINUOUS
 62
    7
 10
1308.8620530801609
 20
1521.3043064771623
 40
365.05382608358116
 50
226.01515318505878
 51
234.088225502466
  0
ARC
  8
_0-1_レイヤ___3
  6
CONTINUOUS
 62
    7
 10
1306.9558719090473
 20
1531.4064368881943
 40
323.69535043454755
 50
215.71686345840277
 51
233.9674581054976
  0
ARC
  8
_0-1_レイヤ___3
  6
CONTINUOUS
 62
    7
 10
1325.1466108806801
 20
1562.5339568000554
 40
313.67975172604213
 50
213.94426867768018
 51
233.35923447231602
  0
ARC
  8
_0-1_レイヤ___3
  6
CONTINUOUS
 62
    7
 10
1370.9710510612911
 20
1598.0454724350298
 40
371.54415881157576
 50
212.42240501504068
 51
214.54137174348864
  0
ARC
  8
_0-1_レイヤ___3
  6
CONTINUOUS
 62
    7
 10
1342.0779369276122
 20
1590.3560673937614
 40
302.73578952909014
 50
215.37850818330153
 51
232.9186306786512
  0
ARC
  8
_0-1_レイヤ___3
  6
CONTINUOUS
 62
    7
 10
1394.4021324355319
 20
1630.6034165795688
 40
368.70890526901832
 50
204.53464187706334
 51
215.7702724065403
  0
ARC
  8
_0-1_レイヤ___3
  6
CONTINUOUS
 62
    7
 10
1454.4572860981002
 20
1660.8177494068232
 40
435.8954539544884
 50
201.44661280601426
 51
204.8696664784764
  0
ARC
  8
_0-1_レイヤ___3
  6
CONTINUOUS
 62
    7
 10
1353.4317223050073
 20
1613.2273258529233
 40
286.44314005024131
 50
215.62034606945002
 51
233.07456916278139
  0
ARC
  8
_0-1_レイヤ___3
  6
CONTINUOUS
 62
    7
 10
1404.5071610431921
 20
1652.8218586485555
 40
351.03085033921718
 50
203.64409167879163
 51
216.01848343801686
  0
ARC
  8
_0-1_レイヤ___3
  6
CONTINUOUS
 62
    7
 10
1365.524490214051
 20
1636.0005875362251
 40
272.72043202788137
 50
215.06544606195229
 51
233.40576463764131
  0
ARC
  8
_0-1_レイヤ___3
  6
CONTINUOUS
 62
    7
 10
1406.3557503397196
 20
1667.8966177214547
 40
324.47612407118186
 50
208.6267604894949
 51
215.53316504715119
  0
ARC
  8
_0-1_レイヤ___3
  6
CONTINUOUS
 62
    7
 10
1377.7521231187025
 20
1660.1447035407737
 40
255.49014117257886
 50
215.26381387749404
 51
234.15646985892838
  0
ARC
  8
_0-1_レイヤ___3
  6
CONTINUOUS
 62
    7
 10
1378.6653751581043
 20
1671.1929111688912
 40
210.42863822679487
 50
228.97547957664196
 51
236.04880325692017
  0
ARC
  8
_0-1_レイヤ___3
  6
CONTINUOUS
 62
    7
 10
2330.7386789506008
 20
653.6285945421447
 40
1361.8792616917917
 50
140.89422071563015
 51
157.49807478495572
  0
ARC
  8
_0-1_レイヤ___3
  6
CONTINUOUS
 62
    7
 10
2184.8867808724726
 20
717.09582310650205
 40
1180.0316530230002
 50
155.24829245896487
 51
165.63600278066133
  0
ARC
  8
_0-1_レイヤ___3
  6
CONTINUOUS
 62
    7
 10
2288.4730547047334
 20
674.9876563390967
 40
1291.741850270666
 50
139.57388730948756
 51
155.47585806717174
  0
ARC
  8
_0-1_レイヤ___3
  6
CONTINUOUS
 62
    7
 10
2038.5218160343741
 20
767.04042376418079
 40
999.14005003754551
 50
161.66879210620655
 51
170.27355204612442
  0
ARC
  8
_0-1_レイヤ___3
  6
CONTINUOUS
 62
    7
 10
2228.4863515085999
 20
707.85923635919653
 40
1198.0830644386479
 50
137.79979343938209
 51
161.83940821755272
  0
LINE
  8
_0-1_レイヤ___3
  6
CONTINUOUS
 62
    7
 10
1079.7438159973001
 20
814.03950820247383
 11
1079.7438159973001
 21
820.23950820247421
  0
ARC
  8
_0-1_レイヤ___3
  6
CONTINUOUS
 62
    7
 10
1806.6291369063129
 20
819.52409734175546
 40
726.88567296769463
 50
170.8942063516217
 51
179.94360869792996
  0
ARC
  8
_0-1_レイヤ___3
  6
CONTINUOUS
 62
    7
 10
1983.6721508907176
 20
795.07101094557856
 40
905.57573589235039
 50
162.01528693850736
 51
171.13928559368736
  0
ARC
  8
_0-1_レイヤ___3
  6
CONTINUOUS
 62
    7
 10
2172.3948110062097
 20
738.01728378843131
 40
1102.7005699524775
 50
137.81433921239741
 51
162.2233643353371
  0
ARC
  8
_0-1_レイヤ___3
  6
CONTINUOUS
 62
    7
 10
2030.4614825235515
 20
858.18546547851156
 40
916.85614265226366
 50
134.45487006755505
 51
137.4223964090535
  0
LINE
  8
_0-1_レイヤ___3
  6
CONTINUOUS
 62
    7
 10
1117.9438139973001
 20
836.03950820247394
 11
1117.9438139973001
 21
842.23950820247421
  0
ARC
  8
_0-1_レイヤ___3
  6
CONTINUOUS
 62
    7
 10
1777.9349234251599
 20
841.86192087071208
 40
659.99121743854334
 50
171.61192831146016
 51
179.96722053094629
  0
ARC
  8
_0-1_レイヤ___3
  6
CONTINUOUS
 62
    7
 10
1938.7603243846711
 20
821.07997060537355
 40
822.13295340354762
 50
161.89690566072684
 51
171.81411098129115
  0
ARC
  8
_0-1_レイヤ___3
  6
CONTINUOUS
 62
    7
 10
2119.3201640817742
 20
766.8615890533232
 40
1010.6123830168395
 50
138.59184059669568
 51
162.15602363213193
  0
ARC
  8
_0-1_レイヤ___3
  6
CONTINUOUS
 62
    7
 10
1977.0188947303782
 20
886.81569104426001
 40
824.55460353644935
 50
130.62528277055469
 51
138.30325204795864
  0
ARC
  8
_0-1_レイヤ___3
  6
CONTINUOUS
 62
    7
 10
1221.1384001720805
 20
864.18772065972598
 40
63.603283309721157
 50
179.05247448005818
 51
184.64274605193276
  0
ARC
  8
_0-1_レイヤ___3
  6
CONTINUOUS
 62
    7
 10
1762.7228758083638
 20
864.59397906638014
 40
605.17940609573327
 50
170.26165274837444
 51
179.9388840702573
  0
ARC
  8
_0-1_レイヤ___3
  6
CONTINUOUS
 62
    7
 10
1919.5967891363171
 20
841.47744590761272
 40
763.7121963721977
 50
160.88715698078286
 51
170.54311216837829
  0
ARC
  8
_0-1_レイヤ___3
  6
CONTINUOUS
 62
    7
 10
2066.4329086592566
 20
794.58150707995924
 40
917.81691097635985
 50
137.79313373720294
 51
161.12235950782127
  0
ARC
  8
_0-1_レイヤ___3
  6
CONTINUOUS
 62
    7
 10
1926.685392426459
 20
913.39428845355098
 40
734.50652575617141
 50
130.82060065203791
 51
137.33475108304029
  0
ARC
  8
_0-1_レイヤ___3
  6
CONTINUOUS
 62
    7
 10
1258.938379689949
 20
885.98771965972583
 40
63.603262813853753
 50
179.05247507564877
 51
184.64274664752335
  0
ARC
  8
_0-1_レイヤ___3
  6
CONTINUOUS
 62
    7
 10
1738.5415794114531
 20
886.4268717929873
 40
543.19811088759207
 50
170.42950650287631
 51
179.93538016280618
  0
ARC
  8
_0-1_レイヤ___3
  6
CONTINUOUS
 62
    7
 10
1884.694831858217
 20
865.15144434619265
 40
690.86242305155554
 50
159.69971217620358
 51
170.70486961452653
  0
ARC
  8
_0-1_レイヤ___3
  6
CONTINUOUS
 62
    7
 10
2016.7595286837034
 20
821.36658076424055
 40
829.9285592629999
 50
138.59343606605015
 51
160.02786831855227
  0
ARC
  8
_0-1_レイヤ___3
  6
CONTINUOUS
 62
    7
 10
1898.9642821173202
 20
918.82297077876603
 40
677.13763512197841
 50
131.92341306276771
 51
138.18611593215627
  0
LINE
  8
_0-1_レイヤ___3
  6
CONTINUOUS
 62
    7
 10
1241.5438119973001
 20
907.43950620247438
 11
1241.5438119973001
 21
913.63950620247408
  0
ARC
  8
_0-1_レイヤ___3
  6
CONTINUOUS
 62
    7
 10
1719.0422137863995
 20
913.06089895859168
 40
477.49875235175955
 50
168.57582690984634
 51
179.93057204648215
  0
ARC
  8
_0-1_レイヤ___3
  6
CONTINUOUS
 62
    7
 10
1862.5100948959102
 20
888.55965541686919
 40
622.99273261218445
 50
157.2219009299404
 51
168.9805836749828
  0
ARC
  8
_0-1_レイヤ___3
  6
CONTINUOUS
 62
    7
 10
1951.6470922082297
 20
855.93743221656109
 40
717.82185242561297
 50
138.16460370419824
 51
157.57570127361657
  0
ARC
  8
_0-1_レイヤ___3
  6
CONTINUOUS
 62
    7
 10
1850.4843597668032
 20
939.51028496317599
 40
586.72974718898411
 50
133.48148445277442
 51
137.65605156584664
  0
ARC
  8
_0-1_レイヤ___3
  6
CONTINUOUS
 62
    7
 10
1360.6482539610613
 20
941.565455943242
 40
69.109969345808025
 50
179.27534729704533
 51
184.41987323494587
  0
ARC
  8
_0-1_レイヤ___3
  6
CONTINUOUS
 62
    7
 10
1687.8358046959988
 20
941.77624112496892
 40
396.29254774430029
 50
168.71603098317874
 51
179.90410542010508
  0
ARC
  8
_0-1_レイヤ___3
  6
CONTINUOUS
 62
    7
 10
1805.7829624789665
 20
921.66868311961002
 40
515.90514492577427
 50
157.2301705396261
 51
169.08919779367488
  0
ARC
  8
_0-1_レイヤ___3
  6
CONTINUOUS
 62
    7
 10
1879.4139174962211
 20
894.7019183540948
 40
594.24587514482346
 50
139.13053673303011
 51
157.58038373418793
  0
ARC
  8
_0-1_レイヤ___3
  6
CONTINUOUS
 62
    7
 10
1805.7462889374892
 20
953.65098870643601
 40
499.9787835682921
 50
135.89251887948635
 51
138.7149954591471
  0
LINE
  8
_0-1_レイヤ___3
  6
CONTINUOUS
 62
    7
 10
1326.3438119973
 20
956.43950620247426
 11
1326.3438119973
 21
962.63950620247419
  0
ARC
  8
_0-1_レイヤ___3
  6
CONTINUOUS
 62
    7
 10
1666.9805331651896
 20
962.09110927231097
 40
340.6371626044396
 50
167.73058496965263
 51
179.90775861644414
  0
ARC
  8
_0-1_レイヤ___3
  6
CONTINUOUS
 62
    7
 10
1778.5701975468921
 20
941.43694578665293
 40
454.08094796485159
 50
154.62915000510776
 51
168.17617789783878
  0
ARC
  8
_0-1_レイヤ___3
  6
CONTINUOUS
 62
    7
 10
1830.8718974441333
 20
920.98234167581211
 40
510.1177481507417
 50
138.85252818580474
 51
155.07036139530283
  0
LINE
  8
_0-1_レイヤ___3
  6
CONTINUOUS
 62
    7
 10
1362.7438119973001
 20
977.43950620247438
 11
1362.7438119973001
 21
983.63950620247408
  0
ARC
  8
_0-1_レイヤ___3
  6
CONTINUOUS
 62
    7
 10
1646.5283933609139
 20
983.03133440564829
 40
283.78523304191845
 50
166.67438705230612
 51
179.87721100398187
  0
ARC
  8
_0-1_レイヤ___3
  6
CONTINUOUS
 62
    7
 10
1741.9700336149767
 20
964.1207861462841
 40
381.03276277866235
 50
153.61038319828381
 51
167.21519119871556
  0
ARC
  8
_0-1_レイヤ___3
  6
CONTINUOUS
 62
    7
 10
1782.4588540769314
 20
947.54077372420454
 40
424.68334012226296
 50
142.2328926735197
 51
154.03454810920076
  0
ARC
  8
_0-1_レイヤ___3
  6
CONTINUOUS
 62
    7
 10
1616.2104440304779
 20
1008.6888459353868
 40
209.26692782711507
 50
168.12267961194482
 51
179.90399169635717
  0
ARC
  8
_0-1_レイヤ___3
  6
CONTINUOUS
 62
    7
 10
1682.9591943294363
 20
996.37051279613286
 40
277.12705626375185
 50
152.82445425075755
 51
168.47072590315537
  0
ARC
  8
_0-1_レイヤ___3
  6
CONTINUOUS
 62
    7
 10
1715.813016937607
 20
982.65165152395309
 40
312.63238885931855
 50
149.39041413114478
 51
153.3377029827891
  0
ARC
  8
_0-1_レイヤ___3
  6
CONTINUOUS
 62
    7
 10
1587.173781012516
 20
1027.9974650261995
 40
146.83063640454063
 50
168.63188917293999
 51
179.82750863131727
  0
ARC
  8
_0-1_レイヤ___3
  6
CONTINUOUS
 62
    7
 10
1636.718873502818
 20
1019.7936483389361
 40
197.02830814083296
 50
164.62298793926064
 51
169.13295864578424
  0
ARC
  8
_0-1_レイヤ___3
  6
CONTINUOUS
 62
    7
 10
1646.6157143776729
 20
773.30947460854941
 40
330.57797630209024
 50
174.56519825818714
 51
204.72524443816687
  0
ARC
  8
_0-1_レイヤ___3
  6
CONTINUOUS
 62
    7
 10
1714.8718648343277
 20
769.68957595543657
 40
398.88040220116079
 50
162.1073360958398
 51
174.97617725253835
  0
ARC
  8
_0-1_レイヤ___3
  6
CONTINUOUS
 62
    7
 10
1815.3829986798087
 20
740.61115673840709
 40
503.47431455279172
 50
152.12089614402365
 51
162.47246961393174
  0
ARC
  8
_0-1_レイヤ___3
  6
CONTINUOUS
 62
    7
 10
1776.6761573194547
 20
850.54178618482581
 40
424.63458349697959
 50
217.60911799535307
 51
230.42449851254216
  0
ARC
  8
_0-1_レイヤ___3
  6
CONTINUOUS
 62
    7
 10
1706.9071311564724
 20
793.16713012676678
 40
334.36232896184714
 50
197.41071095646763
 51
217.11667186119521
  0
ARC
  8
_0-1_レイヤ___3
  6
CONTINUOUS
 62
    7
 10
1690.057078316655
 20
784.48200972724806
 40
315.70219786524751
 50
173.79600851871166
 51
196.82171285750132
  0
ARC
  8
_0-1_レイヤ___3
  6
CONTINUOUS
 62
    7
 10
1759.8524511852775
 20
779.96295832777514
 40
385.58924112532162
 50
160.83947197705763
 51
174.24923666720571
  0
ARC
  8
_0-1_レイヤ___3
  6
CONTINUOUS
 62
    7
 10
1846.2555424027598
 20
753.83042082177826
 40
475.79713644066771
 50
155.48686787745328
 51
161.28190275836499
  0
ARC
  8
_0-1_レイヤ___3
  6
CONTINUOUS
 62
    7
 10
1946.9618936370464
 20
1053.7290727399647
 40
641.82353305882771
 50
240.00965619981457
 51
246.43266439556939
  0
ARC
  8
_0-1_レイヤ___3
  6
CONTINUOUS
 62
    7
 10
1890.8479090707999
 20
957.32012925772483
 40
530.27417302241258
 50
230.07183585773447
 51
240.05400658584117
  0
ARC
  8
_0-1_レイヤ___3
  6
CONTINUOUS
 62
    7
 10
1809.8411912652678
 20
856.26743774965223
 40
400.79902519904437
 50
217.86432219862439
 51
229.68037787158454
  0
ARC
  8
_0-1_レイヤ___3
  6
CONTINUOUS
 62
    7
 10
1746.5487651904846
 20
803.96678263806734
 40
318.73931285795243
 50
198.45637129029072
 51
217.42550858171182
  0
ARC
  8
_0-1_レイヤ___3
  6
CONTINUOUS
 62
    7
 10
1727.4874850333199
 20
794.54465327866842
 40
297.68972428618525
 50
175.24155962987987
 51
197.89762070003286
  0
ARC
  8
_0-1_レイヤ___3
  6
CONTINUOUS
 62
    7
 10
1785.2052443673531
 20
792.09888723685879
 40
355.41920929034683
 50
163.07312933238387
 51
175.62050033476154
  0
ARC
  8
_0-1_レイヤ___3
  6
CONTINUOUS
 62
    7
 10
1852.374632622505
 20
774.46500243807179
 40
424.82124364524066
 50
159.00979650904213
 51
163.43545987707475
  0
ARC
  8
_0-1_レイヤ___3
  6
CONTINUOUS
 62
    7
 10
2027.4694489090425
 20
1168.0700206718943
 40
738.71383299510694
 50
243.60974246005827
 51
251.62032479026706
  0
ARC
  8
_0-1_レイヤ___3
  6
CONTINUOUS
 62
    7
 10
1966.4119400924803
 20
1037.322155576247
 40
594.46237407617491
 50
239.97362595900211
 51
243.28005056929555
  0
ARC
  8
_0-1_レイヤ___3
  6
CONTINUOUS
 62
    7
 10
1919.5451384038038
 20
958.74447836598574
 40
502.97969075937095
 50
230.22384469897557
 51
240.11680195817371
  0
ARC
  8
_0-1_レイヤ___3
  6
CONTINUOUS
 62
    7
 10
1844.7058586056942
 20
864.43886967822323
 40
382.63009091397987
 50
218.68900760344877
 51
229.80185913834092
  0
ARC
  8
_0-1_レイヤ___3
  6
CONTINUOUS
 62
    7
 10
1784.7642180026244
 20
813.98773536698684
 40
304.31197335441334
 50
197.98627213514587
 51
218.32928634617252
  0
ARC
  8
_0-1_レイヤ___3
  6
CONTINUOUS
 62
    7
 10
1766.748453738443
 20
804.66645241411334
 40
284.31750219743236
 50
173.38490414024179
 51
197.32069875970106
  0
ARC
  8
_0-1_レイヤ___3
  6
CONTINUOUS
 62
    7
 10
1826.5677856266329
 20
800.67595304294196
 40
344.21073152987708
 50
162.80389110691794
 51
173.87215650698479
  0
ARC
  8
_0-1_レイヤ___3
  6
CONTINUOUS
 62
    7
 10
2107.502780773304
 20
1340.6020808043754
 40
891.70426174004672
 50
250.49713859886816
 51
258.94672739984964
  0
ARC
  8
_0-1_レイヤ___3
  6
CONTINUOUS
 62
    7
 10
2033.2493975866564
 20
1118.1771165421862
 40
657.26501967559807
 50
240.51474110587429
 51
250.12539816298937
  0
ARC
  8
_0-1_レイヤ___3
  6
CONTINUOUS
 62
    7
 10
1946.579765342251
 20
957.54747968249262
 40
474.7947756013952
 50
229.09865256956587
 51
240.07820050299279
  0
ARC
  8
_0-1_レイヤ___3
  6
CONTINUOUS
 62
    7
 10
1868.2205097884878
 20
862.1879049757888
 40
351.42664906609957
 50
215.92043611307503
 51
228.57519787289459
  0
ARC
  8
_0-1_レイヤ___3
  6
CONTINUOUS
 62
    7
 10
1811.7274923739747
 20
816.67296667101277
 40
278.99968441111577
 50
169.11903635873378
 51
215.15704192145486
  0
ARC
  8
_0-1_レイヤ___3
  6
CONTINUOUS
 62
    7
 10
1866.7214856999362
 20
808.99502250305363
 40
334.46639499499332
 50
168.0166349356227
 51
169.60576520787436
  0
ARC
  8
_0-1_レイヤ___3
  6
CONTINUOUS
 62
    7
 10
2191.3162711511809
 20
1851.2687336125032
 40
1379.965588510064
 50
265.20166968022227
 51
272.11082193757431
  0
ARC
  8
_0-1_レイヤ___3
  6
CONTINUOUS
 62
    7
 10
2171.2110175587059
 20
1562.650899554196
 40
1090.6852290679089
 50
258.53218691901975
 51
264.98588142233245
  0
ARC
  8
_0-1_レイヤ___3
  6
CONTINUOUS
 62
    7
 10
2124.9936994383147
 20
1319.2926138584619
 40
843.00206734892004
 50
250.80038630638887
 51
258.3222245174149
  0
ARC
  8
_0-1_レイヤ___3
  6
CONTINUOUS
 62
    7
 10
2057.2518780609439
 20
1115.1747774607916
 40
627.9678712029463
 50
240.53334143841164
 51
250.51276718170419
  0
ARC
  8
_0-1_レイヤ___3
  6
CONTINUOUS
 62
    7
 10
1969.8660188031147
 20
954.04182447854259
 40
444.7035349522593
 50
228.32899702636982
 51
240.12333802008803
  0
ARC
  8
_0-1_レイヤ___3
  6
CONTINUOUS
 62
    7
 10
1891.1013557849715
 20
860.57357877657819
 40
322.53519751973931
 50
211.9825011630497
 51
227.74145862296302
  0
ARC
  8
_0-1_レイヤ___3
  6
CONTINUOUS
 62
    7
 10
1839.6116940138756
 20
823.79959627432027
 40
259.41306018183087
 50
173.35025681852758
 51
211.11666308809032
  0
ARC
  8
_0-1_レイヤ___3
  6
CONTINUOUS
 62
    7
 10
2201.9094082573251
 20
1706.1536178869972
 40
1208.7164205853412
 50
262.60916542975065
 51
269.88786487211462
  0
ARC
  8
_0-1_レイヤ___3
  6
CONTINUOUS
 62
    7
 10
2169.4237288165191
 20
1423.8772709760315
 40
924.61550618769763
 50
254.79256736218315
 51
262.3553849367662
  0
ARC
  8
_0-1_レイヤ___3
  6
CONTINUOUS
 62
    7
 10
2112.799432513521
 20
1200.1896617780676
 40
693.91924902526807
 50
246.6713196552962
 51
254.45940055290401
  0
ARC
  8
_0-1_レイヤ___3
  6
CONTINUOUS
 62
    7
 10
2055.2318291211068
 20
1059.7941070990319
 40
542.21110687408861
 50
240.12407920941905
 51
246.38220183581029
  0
ARC
  8
_0-1_レイヤ___3
  6
CONTINUOUS
 62
    7
 10
2001.9742210975583
 20
967.29848485375123
 40
435.47873588028358
 50
231.47670732697304
 51
240.13799521169091
  0
ARC
  8
_0-1_レイヤ___3
  6
CONTINUOUS
 62
    7
 10
1938.0016034491127
 20
884.3710196899292
 40
330.75964945563965
 50
217.22925992748429
 51
231.19943532585526
  0
ARC
  8
_0-1_レイヤ___3
  6
CONTINUOUS
 62
    7
 10
1876.8690500168755
 20
833.91117182412222
 40
251.5763684150341
 50
181.15513475564822
 51
216.50235301392658
  0
ARC
  8
_0-1_レイヤ___3
  6
CONTINUOUS
 62
    7
 10
2207.0531820690385
 20
1552.6066148594937
 40
1030.1473883509041
 50
259.07206321389936
 51
267.03365988536359
  0
ARC
  8
_0-1_レイヤ___3
  6
CONTINUOUS
 62
    7
 10
2161.5802292646213
 20
1294.0568758119573
 40
767.67800431157252
 50
251.09273026677718
 51
258.74620437548765
  0
ARC
  8
_0-1_レイヤ___3
  6
CONTINUOUS
 62
    7
 10
2099.6694088360109
 20
1104.2230945937258
 40
568.0330452890837
 50
240.49852232151531
 51
250.79588954852682
  0
ARC
  8
_0-1_レイヤ___3
  6
CONTINUOUS
 62
    7
 10
2019.9827713708
 20
957.73689880987308
 40
401.30808623315113
 50
228.07844354281792
 51
240.10134940615887
  0
ARC
  8
_0-1_レイヤ___3
  6
CONTINUOUS
 62
    7
 10
1949.4745341600421
 20
874.45032033046459
 40
292.24774565936474
 50
213.63846417206167
 51
227.45450876202736
  0
ARC
  8
_0-1_レイヤ___3
  6
CONTINUOUS
 62
    7
 10
1903.7693360825292
 20
841.31510812565989
 40
235.85154126446025
 50
189.48740585833332
 51
213.08741778878613
  0
ARC
  8
_0-1_レイヤ___3
  6
CONTINUOUS
 62
    7
 10
2203.9511203765865
 20
1407.2020903496291
 40
860.09059159430865
 50
255.8521667188937
 51
263.26915051926079
  0
ARC
  8
_0-1_レイヤ___3
  6
CONTINUOUS
 62
    7
 10
2154.4171966369736
 20
1198.0902558250241
 40
645.22151897310835
 50
247.32516778328167
 51
255.57860736133529
  0
ARC
  8
_0-1_レイヤ___3
  6
CONTINUOUS
 62
    7
 10
2099.6672903553381
 20
1059.165720398016
 40
495.93797647223914
 50
240.19264723603817
 51
246.97425835143505
  0
ARC
  8
_0-1_レイヤ___3
  6
CONTINUOUS
 62
    7
 10
2045.8836761767816
 20
963.55055118859525
 40
386.23844874089832
 50
229.2932693951029
 51
240.06495866220371
  0
ARC
  8
_0-1_レイヤ___3
  6
CONTINUOUS
 62
    7
 10
1980.5280133163551
 20
884.09190539624308
 40
283.38922504142931
 50
214.02028092281509
 51
228.83258259600109
  0
ARC
  8
_0-1_レイヤ___3
  6
CONTINUOUS
 62
    7
 10
1935.6292812726608
 20
850.56892348842678
 40
227.43534246513704
 50
199.8772487938912
 51
213.34890873868881
  0
ARC
  8
_0-1_レイヤ___3
  6
CONTINUOUS
 62
    7
 10
2181.7837323519261
 20
1224.5152195202509
 40
651.19988420982907
 50
249.08566613644297
 51
257.54555414852507
  0
ARC
  8
_0-1_レイヤ___3
  6
CONTINUOUS
 62
    7
 10
2124.3346365678017
 20
1066.006129844955
 40
482.63526127550341
 50
240.23642789387679
 51
248.73911448320803
  0
ARC
  8
_0-1_レイヤ___3
  6
CONTINUOUS
 62
    7
 10
2067.5416190235346
 20
964.52445123920154
 40
366.34918993149091
 50
228.85662454111605
 51
240.0680198749352
  0
ARC
  8
_0-1_レイヤ___3
  6
CONTINUOUS
 62
    7
 10
2005.4300275146531
 20
889.74866544755412
 40
269.18299683592852
 50
214.40764751191296
 51
228.3406043277962
  0
ARC
  8
_0-1_レイヤ___3
  6
CONTINUOUS
 62
    7
 10
1463.0524983289615
 20
1968.4730420547639
 40
1302.4693905727404
 50
259.34997541638973
 51
264.21388590084592
  0
ARC
  8
_0-1_レイヤ___3
  6
CONTINUOUS
 62
    7
 10
1486.0093386068957
 20
1931.596459828628
 40
1232.3005758381937
 50
256.08886979397056
 51
262.35844301847158
  0
ARC
  8
_0-1_レイヤ___3
  6
CONTINUOUS
 62
    7
 10
1489.1024735150634
 20
1813.9442539156903
 40
1081.2659983191925
 50
254.19827704569417
 51
260.84913695628643
  0
ARC
  8
_0-1_レイヤ___3
  6
CONTINUOUS
 62
    7
 10
1424.6081828264341
 20
1575.2382676198927
 40
834.02356897611514
 50
245.71117832908109
 51
253.99597513712695
  0
ARC
  8
_0-1_レイヤ___3
  6
CONTINUOUS
 62
    7
 10
1494.03342717849
 20
1722.7852165359018
 40
958.20302445275559
 50
251.0196525261068
 51
259.30101607590296
  0
ARC
  8
_0-1_レイヤ___3
  6
CONTINUOUS
 62
    7
 10
1430.2232300541139
 20
1522.399669868232
 40
747.97414576502933
 50
246.58138061875161
 51
250.6494120419888
  0
ARC
  8
_0-1_レイヤ___3
  6
CONTINUOUS
 62
    7
 10
1179.6780991019555
 20
950.53108580223306
 40
123.66250339340895
 50
243.52259797533313
 51
247.79522215127994
  0
ARC
  8
_0-1_レイヤ___3
  6
CONTINUOUS
 62
    7
 10
1505.4699329924654
 20
1670.1801677540316
 40
876.11402647364014
 50
250.2699727338491
 51
257.68077506327762
  0
ARC
  8
_0-1_レイヤ___3
  6
CONTINUOUS
 62
    7
 10
1449.3392687439637
 20
1502.5293996696496
 40
699.36644861832519
 50
246.77453224162787
 51
249.96180555072252
  0
LINE
  8
_0-1_レイヤ___3
  6
CONTINUOUS
 62
    7
 10
1173.5438139973003
 20
859.83950820247412
 11
1165.3438139973002
 21
863.43950820247403
  0
ARC
  8
_0-1_レイヤ___3
  6
CONTINUOUS
 62
    7
 10
1509.401217221523
 20
1596.7316225678837
 40
773.59958987510231
 50
247.41871511358124
 51
256.08343583555194
  0
ARC
  8
_0-1_レイヤ___3
  6
CONTINUOUS
 62
    7
 10
1261.6490608012318
 20
1012.9404723184127
 40
139.50451246316786
 50
245.65621929933832
 51
249.30267334387656
  0
ARC
  8
_0-1_レイヤ___3
  6
CONTINUOUS
 62
    7
 10
1508.7386944213276
 20
1532.7446759582649
 40
680.45212431094239
 50
247.5549349470821
 51
254.81852352388557
  0
ARC
  8
_0-1_レイヤ___3
  6
CONTINUOUS
 62
    7
 10
1299.7035253001554
 20
1030.9352846268221
 40
136.85717148866931
 50
244.66631949615061
 51
248.22914239530866
  0
ARC
  8
_0-1_レイヤ___3
  6
CONTINUOUS
 62
    7
 10
1554.145618382222
 20
1598.8791237068631
 40
726.9017804255725
 50
249.3454680050047
 51
252.81228576324639
  0
ARC
  8
_0-1_レイヤ___3
  6
CONTINUOUS
 62
    7
 10
1461.1892555143347
 20
1345.7957012449085
 40
457.30249597635583
 50
247.19543352486454
 51
249.05865122438217
  0
ARC
  8
_0-1_レイヤ___3
  6
CONTINUOUS
 62
    7
 10
1318.8208358792103
 20
1020.3585019146379
 40
102.25100552842621
 50
245.33102271314308
 51
250.05656717704474
  0
ARC
  8
_0-1_レイヤ___3
  6
CONTINUOUS
 62
    7
 10
1605.0483263242302
 20
1676.0417701239653
 40
787.03067752971481
 50
248.52685055502437
 51
251.05601277085034
  0
LINE
  8
_0-1_レイヤ___3
  6
CONTINUOUS
 62
    7
 10
1316.9438119973004
 20
943.63950620247408
 11
1309.5438119973003
 21
946.63950620247408
  0
LINE
  8
_0-1_レイヤ___3
  6
CONTINUOUS
 62
    7
 10
1360.9438119973004
 20
957.23950620247456
 11
1348.5438119973003
 21
962.03950620247372
  0
LINE
  8
_0-1_レイヤ___3
  6
CONTINUOUS
 62
    7
 10
1348.5438119973003
 20
962.03950620247372
 11
1341.3438119973
 21
965.0395062024736
  0
LINE
  8
_0-1_レイヤ___3
  6
CONTINUOUS
 62
    7
 10
1613.1438079973
 20
465.43951420247424
 11
1611.5438079973001
 21
469.4395142024743
  0
ARC
  8
_0-1_レイヤ___3
  6
CONTINUOUS
 62
    7
 10
1568.7298369037812
 20
461.08696049091338
 40
43.62111042031345
 50
11.039145818579232
 51
48.902557141004721
  0
ARC
  8
_0-1_レイヤ___3
  6
CONTINUOUS
 62
    7
 10
1551.3468163772529
 20
443.60561449296364
 40
68.240468137527586
 50
47.551908489309611
 51
62.946776883557213
  0
ARC
  8
_0-1_レイヤ___3
  6
CONTINUOUS
 62
    7
 10
1527.638016524932
 20
400.93095286865673
 40
117.04147176184307
 50
62.111854682305292
 51
73.89568112357405
  0
ARC
  8
_0-1_レイヤ___3
  6
CONTINUOUS
 62
    7
 10
1502.3062666071874
 20
322.87238521039598
 40
199.08169485293621
 50
73.122841846037147
 51
79.248822323497635
  0
ARC
  8
_0-1_レイヤ___3
  6
CONTINUOUS
 62
    7
 10
1475.8779655500807
 20
189.73915923456005
 40
334.80992634833063
 50
79.055589885786105
 51
83.750665868835583
  0
ARC
  8
_0-1_レイヤ___3
  6
CONTINUOUS
 62
    7
 10
1652.7894785423234
 20
1606.1325930764704
 40
1092.639568291587
 50
262.03284922534402
 51
262.61382718511049
  0
ARC
  8
_0-1_レイヤ___3
  6
CONTINUOUS
 62
    7
 10
1521.441676425547
 20
610.65548237444307
 40
88.917099164329002
 50
234.13233970539193
 51
256.93659007328125
  0
ARC
  8
_0-1_レイヤ___3
  6
CONTINUOUS
 62
    7
 10
1510.332992625888
 20
593.30016665146809
 40
68.354039307914746
 50
206.08976582391497
 51
233.15444979196963
  0
ARC
  8
_0-1_レイヤ___3
  6
CONTINUOUS
 62
    7
 10
1402.0075882978879
 20
553.2384046188107
 40
47.98990581691509
 50
12.028618306507857
 51
37.059912909809199
  0
ARC
  8
_0-1_レイヤ___3
  6
CONTINUOUS
 62
    7
 10
1379.6246746763302
 20
538.15565256956916
 40
74.955300852528225
 50
35.949220487358396
 51
50.100911490877351
  0
ARC
  8
_0-1_レイヤ___3
  6
CONTINUOUS
 62
    7
 10
1344.692203606455
 20
498.73105734609214
 40
127.61681768651954
 50
49.422541945123641
 51
61.029899392788458
  0
ARC
  8
_0-1_レイヤ___3
  6
CONTINUOUS
 62
    7
 10
1296.6980214729892
 20
418.03331860442768
 40
221.48221008718255
 50
60.278999494559777
 51
68.752161994963188
  0
ARC
  8
_0-1_レイヤ___3
  6
CONTINUOUS
 62
    7
 10
1244.8238540748059
 20
292.67347801429662
 40
357.13154314114172
 50
68.284160818474305
 51
78.185582048826987
  0
ARC
  8
_0-1_レイヤ___3
  6
CONTINUOUS
 62
    7
 10
1362.3800456429683
 20
839.32427555465904
 40
202.0321350541499
 50
248.21588297080791
 51
257.29411724763315
  0
ARC
  8
_0-1_レイヤ___3
  6
CONTINUOUS
 62
    7
 10
1387.1425906790937
 20
907.20770720390874
 40
274.26637194519446
 50
234.68160335462204
 51
248.67506853374749
  0
ARC
  8
_0-1_レイヤ___3
  6
CONTINUOUS
 62
    7
 10
1328.6304344917603
 20
822.87093853314605
 40
171.62758267780558
 50
224.9869713933181
 51
234.34321297035115
  0
ARC
  8
_0-1_レイヤ___3
  6
CONTINUOUS
 62
    7
 10
1266.1549868633197
 20
759.13963071287685
 40
82.391141339727369
 50
211.15065067390688
 51
224.35530201168882
  0
ARC
  8
_0-1_レイヤ___3
  6
CONTINUOUS
 62
    7
 10
1228.1939932568198
 20
735.26437094049982
 40
37.561735501902078
 50
192.64849256727297
 51
209.93659918694487
  0
ARC
  8
_0-1_レイヤ___3
  6
CONTINUOUS
 62
    7
 10
1164.3437065814401
 20
725.25914887622298
 40
27.258311207525768
 50
3.7449075811589667
 51
30.85614680272996
  0
ARC
  8
_0-1_レイヤ___3
  6
CONTINUOUS
 62
    7
 10
1149.9641602384663
 20
717.66506178222301
 40
43.505850902786271
 50
29.728958608083893
 51
42.218976113805148
  0
ARC
  8
_0-1_レイヤ___3
  6
CONTINUOUS
 62
    7
 10
1130.3350449137652
 20
700.62745881129808
 40
69.493867322414573
 50
41.747081748560468
 51
51.533893949236834
  0
ARC
  8
_0-1_レイヤ___3
  6
CONTINUOUS
 62
    7
 10
1101.1798524225451
 20
665.38250672907702
 40
115.22940512931706
 50
51.084567215751335
 51
59.083246555869025
  0
ARC
  8
_0-1_レイヤ___3
  6
CONTINUOUS
 62
    7
 10
1058.9014073446208
 20
597.36120321480655
 40
195.31269169098252
 50
58.695285896844574
 51
64.740879810210075
  0
ARC
  8
_0-1_レイヤ___3
  6
CONTINUOUS
 62
    7
 10
1009.1416978768046
 20
496.02090691054354
 40
308.20168087142542
 50
64.413900832141621
 51
68.941740872866163
  0
ARC
  8
_0-1_レイヤ___3
  6
CONTINUOUS
 62
    7
 10
948.82052539146434
 20
341.62740614453725
 40
473.95922511785722
 50
68.843043340965025
 51
76.166617101338915
  0
LINE
  8
_0-1_レイヤ___3
  6
CONTINUOUS
 62
    7
 10
1062.1438159973002
 20
801.83950820247424
 11
954.74381799730031
 21
738.63951020247418
  0
LINE
  8
_0-1_レイヤ___3
  6
CONTINUOUS
 62
    7
 10
954.74381799730031
 20
738.63951020247418
 11
1429.3438099973002
 21
464.63951420247412
  0
LINE
  8
_0-1_レイヤ___3
  6
CONTINUOUS
 62
    7
 10
1613.1438079973
 20
465.43951420247424
 11
1611.5438079973001
 21
469.4395142024743
  0
ARC
  8
_0-1_レイヤ___3
  6
CONTINUOUS
 62
    7
 10
1568.7298369037812
 20
461.08696049091338
 40
43.62111042031345
 50
11.039145818579232
 51
48.902557141004721
  0
ARC
  8
_0-1_レイヤ___3
  6
CONTINUOUS
 62
    7
 10
1551.3468163772529
 20
443.60561449296364
 40
68.240468137527586
 50
47.551908489309611
 51
62.946776883557213
  0
ARC
  8
_0-1_レイヤ___3
  6
CONTINUOUS
 62
    7
 10
1527.638016524932
 20
400.93095286865673
 40
117.04147176184307
 50
62.111854682305292
 51
73.89568112357405
  0
ARC
  8
_0-1_レイヤ___3
  6
CONTINUOUS
 62
    7
 10
1502.3062666071874
 20
322.87238521039598
 40
199.08169485293621
 50
73.122841846037147
 51
79.248822323497635
  0
ARC
  8
_0-1_レイヤ___3
  6
CONTINUOUS
 62
    7
 10
1475.8779655500807
 20
189.73915923456005
 40
334.80992634833063
 50
79.055589885786105
 51
83.750665868835583
  0
ARC
  8
_0-1_レイヤ___3
  6
CONTINUOUS
 62
    7
 10
1652.7894785423234
 20
1606.1325930764704
 40
1092.639568291587
 50
262.03284922534402
 51
262.61382718511049
  0
ARC
  8
_0-1_レイヤ___3
  6
CONTINUOUS
 62
    7
 10
1521.441676425547
 20
610.65548237444307
 40
88.917099164329002
 50
234.13233970539193
 51
256.93659007328125
  0
ARC
  8
_0-1_レイヤ___3
  6
CONTINUOUS
 62
    7
 10
1510.332992625888
 20
593.30016665146809
 40
68.354039307914746
 50
206.08976582391497
 51
233.15444979196963
  0
ARC
  8
_0-1_レイヤ___3
  6
CONTINUOUS
 62
    7
 10
1402.0075882978879
 20
553.2384046188107
 40
47.98990581691509
 50
12.028618306507857
 51
37.059912909809199
  0
ARC
  8
_0-1_レイヤ___3
  6
CONTINUOUS
 62
    7
 10
1379.6246746763302
 20
538.15565256956916
 40
74.955300852528225
 50
35.949220487358396
 51
50.100911490877351
  0
ARC
  8
_0-1_レイヤ___3
  6
CONTINUOUS
 62
    7
 10
1344.692203606455
 20
498.73105734609214
 40
127.61681768651954
 50
49.422541945123641
 51
61.029899392788458
  0
ARC
  8
_0-1_レイヤ___3
  6
CONTINUOUS
 62
    7
 10
1296.6980214729892
 20
418.03331860442768
 40
221.48221008718255
 50
60.278999494559777
 51
68.752161994963188
  0
ARC
  8
_0-1_レイヤ___3
  6
CONTINUOUS
 62
    7
 10
1244.8238540748059
 20
292.67347801429662
 40
357.13154314114172
 50
68.284160818474305
 51
78.185582048826987
  0
ARC
  8
_0-1_レイヤ___3
  6
CONTINUOUS
 62
    7
 10
1362.3800456429683
 20
839.32427555465904
 40
202.0321350541499
 50
248.21588297080791
 51
257.29411724763315
  0
ARC
  8
_0-1_レイヤ___3
  6
CONTINUOUS
 62
    7
 10
1387.1425906790937
 20
907.20770720390874
 40
274.26637194519446
 50
234.68160335462204
 51
248.67506853374749
  0
ARC
  8
_0-1_レイヤ___3
  6
CONTINUOUS
 62
    7
 10
1328.6304344917603
 20
822.87093853314605
 40
171.62758267780558
 50
224.9869713933181
 51
234.34321297035115
  0
ARC
  8
_0-1_レイヤ___3
  6
CONTINUOUS
 62
    7
 10
1266.1549868633197
 20
759.13963071287685
 40
82.391141339727369
 50
211.15065067390688
 51
224.35530201168882
  0
ARC
  8
_0-1_レイヤ___3
  6
CONTINUOUS
 62
    7
 10
1228.1939932568198
 20
735.26437094049982
 40
37.561735501902078
 50
192.64849256727297
 51
209.93659918694487
  0
ARC
  8
_0-1_レイヤ___3
  6
CONTINUOUS
 62
    7
 10
1164.3437065814401
 20
725.25914887622298
 40
27.258311207525768
 50
3.7449075811589667
 51
30.85614680272996
  0
ARC
  8
_0-1_レイヤ___3
  6
CONTINUOUS
 62
    7
 10
1149.9641602384663
 20
717.66506178222301
 40
43.505850902786271
 50
29.728958608083893
 51
42.218976113805148
  0
ARC
  8
_0-1_レイヤ___3
  6
CONTINUOUS
 62
    7
 10
1130.3350449137652
 20
700.62745881129808
 40
69.493867322414573
 50
41.747081748560468
 51
51.533893949236834
  0
ARC
  8
_0-1_レイヤ___3
  6
CONTINUOUS
 62
    7
 10
1101.1798524225451
 20
665.38250672907702
 40
115.22940512931706
 50
51.084567215751335
 51
59.083246555869025
  0
ARC
  8
_0-1_レイヤ___3
  6
CONTINUOUS
 62
    7
 10
1058.9014073446208
 20
597.36120321480655
 40
195.31269169098252
 50
58.695285896844574
 51
64.740879810210075
  0
ARC
  8
_0-1_レイヤ___3
  6
CONTINUOUS
 62
    7
 10
1009.1416978768046
 20
496.02090691054354
 40
308.20168087142542
 50
64.413900832141621
 51
68.941740872866163
  0
ARC
  8
_0-1_レイヤ___3
  6
CONTINUOUS
 62
    7
 10
948.82052539146434
 20
341.62740614453725
 40
473.95922511785722
 50
68.843043340965025
 51
76.166617101338915
  0
LINE
  8
_0-1_レイヤ___3
  6
CONTINUOUS
 62
    7
 10
1429.3438099973002
 20
464.63951420247412
 11
954.74381799730031
 21
738.63951020247418
  0
LINE
  8
_0-1_レイヤ___3
  6
CONTINUOUS
 62
    7
 10
954.74381799730031
 20
738.63951020247418
 11
954.74381799730031
 21
1465.839498202474
  0
LINE
  8
_0-1_レイヤ___3
  6
CONTINUOUS
 62
    7
 10
954.74381799730031
 20
1511.4394982024742
 11
954.74381799730031
 21
738.63951020247418
  0
LINE
  8
_0-1_レイヤ___3
  6
CONTINUOUS
 62
    7
 10
954.74381799730031
 20
738.63951020247418
 11
1058.7438159973001
 21
801.83950820247424
  0
ARC
  8
_0-1_レイヤ___3
  6
CONTINUOUS
 62
    7
 10
1270.2606804930872
 20
881.04084895902929
 40
225.85888590835901
 50
191.86067267717189
 51
200.52813966614426
  0
ARC
  8
_0-1_レイヤ___3
  6
CONTINUOUS
 62
    7
 10
1167.2131870444127
 20
857.92756036455876
 40
120.26951806540019
 50
180.08958711882599
 51
191.17454383696787
  0
ARC
  8
_0-1_レイヤ___3
  6
CONTINUOUS
 62
    7
 10
1125.6293695494392
 20
856.79794765307179
 40
78.691186762398786
 50
155.60489239640802
 51
179.31442471269708
  0
ARC
  8
_0-1_レイヤ___3
  6
CONTINUOUS
 62
    7
 10
989.98259152605578
 20
922.70728532347232
 40
72.17809079379424
 50
332.42869960224175
 51
344.76424334872701
  0
ARC
  8
_0-1_レイヤ___3
  6
CONTINUOUS
 62
    7
 10
1032.8908412831192
 20
910.93641744525314
 40
27.684787673115213
 50
344.93236736885314
 51
20.959544515068909
  0
ARC
  8
_0-1_レイヤ___3
  6
CONTINUOUS
 62
    7
 10
1327.5874665048707
 20
1018.4457653335453
 40
286.01379379288437
 50
181.85659039198424
 51
199.95391268527086
  0
ARC
  8
_0-1_レイヤ___3
  6
CONTINUOUS
 62
    7
 10
1274.0070796828763
 20
1014.0288425604219
 40
232.33387753733948
 50
165.08213524164438
 51
181.19598005984867
  0
ARC
  8
_0-1_レイヤ___3
  6
CONTINUOUS
 62
    7
 10
1214.2124888976712
 20
1028.2705229032235
 40
170.89610582237643
 50
158.06862415516878
 51
164.53514271849969
  0
ARC
  8
_0-1_レイヤ___3
  6
CONTINUOUS
 62
    7
 10
1136.9188756354461
 20
1059.2829340996966
 40
87.613139355484947
 50
153.16059552371328
 51
158.00274337314076
  0
ARC
  8
_0-1_レイヤ___3
  6
CONTINUOUS
 62
    7
 10
901.32343664915288
 20
1165.6590423799901
 40
171.01469678472409
 50
337.00044669179465
 51
357.41281058744033
  0
ARC
  8
_0-1_レイヤ___3
  6
CONTINUOUS
 62
    7
 10
841.18113206158739
 20
1170.9679163963979
 40
231.34982138431332
 50
356.77169291992789
 51
19.880204537770567
  0
ARC
  8
_0-1_レイヤ___3
  6
CONTINUOUS
 62
    7
 10
1251.2063020752805
 20
1327.1065418749979
 40
207.46795121883548
 50
166.579361148179
 51
201.92501298287854
  0
ARC
  8
_0-1_レイヤ___3
  6
CONTINUOUS
 62
    7
 10
1203.8232775427691
 20
1336.4217193647355
 40
159.22858827607786
 50
155.66330457472466
 51
165.88244810412809
  0
ARC
  8
_0-1_レイヤ___3
  6
CONTINUOUS
 62
    7
 10
956.83137496599045
 20
1436.435727656874
 40
107.56042999195827
 50
341.35006827204222
 51
2.0372927775682386
  0
ARC
  8
_0-1_レイヤ___3
  6
CONTINUOUS
 62
    7
 10
980.79638968552615
 20
1436.0696478496784
 40
83.632444614800221
 50
2.8716280629200899
 51
16.884044516790407
  0
ARC
  8
_0-1_レイヤ___3
  6
CONTINUOUS
 62
    7
 10
1016.813321768889
 20
1446.7895295902294
 40
46.055050215653132
 50
17.136353234890446
 51
24.433368793049091
  0
ARC
  8
_0-1_レイヤ___3
  6
CONTINUOUS
 62
    7
 10
1289.5140216770264
 20
1551.0200266731003
 40
245.98904499997215
 50
194.37247707708372
 51
200.2598127700214
  0
ARC
  8
_0-1_レイヤ___3
  6
CONTINUOUS
 62
    7
 10
1189.7149664560027
 20
1524.8672911389422
 40
142.82280197178002
 50
185.47534924801386
 51
194.1471644879789
  0
LINE
  8
_0-0_文字
  6
CONTINUOUS
 62
    7
 10
1827.9438039973004
 20
776.63950820247419
 11
1928.7438019973004
 21
951.43950620247449
  0
LINE
  8
_0-0_文字
  6
CONTINUOUS
 62
    7
 10
1928.7438019973004
 20
951.43950620247449
 11
1947.5438019973001
 21
951.43950620247449
  0
LINE
  8
_0-0_文字
  6
CONTINUOUS
 62
    7
 10
1399.5438099973003
 20
1181.2395022024739
 11
1484.9438099973004
 21
1330.6395002024738
  0
LINE
  8
_0-0_文字
  6
CONTINUOUS
 62
    7
 10
1484.9438099973004
 20
1330.6395002024738
 11
1503.7438099973001
 21
1330.6395002024738
  0
TEXT
  8
_0-0_文字
 62
    7
 10
1503.7438099973001
 20
1307.639500202474
 40
46.000000000000014
 41
0.9999999999999996
 50
0
  1
AYボンド580NF
  0
TEXT
  8
_0-0_文字
 62
    7
 10
1947.5438019973001
 20
928.4395062024746
 40
46
 41
0.9999999999999997
 50
0
  1
リベットルーフ
  0
ENDSEC
  0
EOF
