  0
SECTION
  2
HEADER
  9
$ACADVER
  1
AC1009
  9
$INSBASE
 10
0
 20
0
 30
0
  9
$EXTMIN
 10
0
 20
0
  9
$EXTMAX
 10
2970
 20
2100
  9
$LIMMIN
 10
0
 20
0
  9
$LIMMAX
 10
2970
 20
2100
  9
$LTSCALE
 40
10
  0
ENDSEC
  0
SECTION
  2
TABLES
  0
TABLE
  2
LTYPE
 70
     9
  0
LTYPE
  2
CONTINUOUS
 70
    64
  3
実線
 72
    65
 73
     0
 40
0.0
  0
LTYPE
  2
DASHED1
 70
    64
  3
--  --  --  --  --  --  --  --  
 72
    65
 73
     2
 40
2.5
 49
1.25
 49
-1.25
  0
LTYPE
  2
DASHED2
 70
    64
  3
----    ----    ----    ----    
 72
    65
 73
     2
 40
5.0
 49
2.5
 49
-2.5
  0
LTYPE
  2
DASHED3
 70
    64
  3
------  ------  ------  ------  
 72
    65
 73
     2
 40
5.0
 49
3.75
 49
-1.25
  0
LTYPE
  2
CENTER1
 70
    64
  3
----- - ----- - ----- - ----- - 
 72
    65
 73
     4
 40
10.0
 49
6.25
 49
-1.25
 49
1.25
 49
-1.25
  0
LTYPE
  2
CENTER2
 70
    64
  3
----------  --  ----------  --  
 72
    65
 73
     4
 40
20.0
 49
12.5
 49
-2.5
 49
2.5
 49
-2.5
  0
LTYPE
  2
PHANTOM1
 70
    64
  3
--- - - --- - - --- - - --- - - 
 72
    65
 73
     6
 40
10.0
 49
3.25
 49
-1.25
 49
1.25
 49
-1.25
 49
1.25
 49
-1.25
  0
LTYPE
  2
PHANTOM2
 70
    64
  3
--------  -  -  --------  -  -  
 72
    65
 73
     6
 40
20.0
 49
10.0
 49
-2.5
 49
1.25
 49
-2.5
 49
1.25
 49
-2.5
  0
LTYPE
  2
DOT
 70
    64
  3
-   -   -   -   -   -   -   -   
 72
    65
 73
     2
 40
2.5
 49
0.625
 49
-1.875
  0
LTYPE
  2
DUMMY
 70
    64
  3
ダミー
 72
    65
 73
     0
 40
0.0
  0
LTYPE
  2
RAND1
 70
    64
  3
ランダム線1
 72
    65
 73
     4
 40
10.0
 49
1.0
 49
-2.0
 49
3.0
 49
-4.0
  0
LTYPE
  2
RAND2
 70
    64
  3
ランダム線2
 72
    65
 73
     4
 40
14.0
 49
2.0
 49
-3.0
 49
4.0
 49
-5.0
  0
LTYPE
  2
RAND3
 70
    64
  3
ランダム線3
 72
    65
 73
     4
 40
18.0
 49
3.0
 49
-4.0
 49
5.0
 49
-6.0
  0
LTYPE
  2
RAND4
 70
    64
  3
ランダム線4
 72
    65
 73
     4
 40
22.0
 49
4.0
 49
-5.0
 49
6.0
 49
-7.0
  0
LTYPE
  2
RAND5
 70
    64
  3
ランダム線5
 72
    65
 73
     4
 40
26.0
 49
5.0
 49
-6.0
 49
7.0
 49
-8.0
  0
LTYPE
  2
LONG1
 70
    64
  3
----------  --  ----------  --  
 72
    65
 73
     4
 40
40.0
 49
32.5
 49
-2.5
 49
2.5
 49
-2.5
  0
LTYPE
  2
LONG2
 70
    64
  3
--------  -  -  --------  -  -  
 72
    65
 73
     6
 40
40.0
 49
30.0
 49
-2.5
 49
1.25
 49
-2.5
 49
1.25
 49
-2.5
  0
LTYPE
  2
LONG3
 70
    64
  3
+++++++++++++++..+++++++++++++++
 72
    65
 73
     2
 40
40.0
 49
37.5
 49
-2.5
  0
LTYPE
  2
LONG4
 70
    64
  3
+++++++++++++++..+++++++++++++++
 72
    65
 73
     2
 40
80.0
 49
75.0
 49
-5.0
  0
LTYPE
  2
LONG5
 70
    64
  3
----------  --  ----------  --  
 72
    65
 73
     4
 40
60.0
 49
37.5
 49
-7.5
 49
7.5
 49
-7.5
  0
LTYPE
  2
dashed
 70
   64
  3
-------   -------------   ------
 72
   65
 73
    2
 40
7.5
 49
6
 49
-1.5
  0
LTYPE
  2
dashed_spaced
 70
   64
  3
----        --------        ----
 72
   65
 73
    2
 40
12
 49
6
 49
-6
  0
LTYPE
  2
long_dashed_dotted
 70
   64
  3
------------- --- --------------
 72
   65
 73
    4
 40
15.25
 49
12
 49
-1.5
 49
0.25
 49
-1.5
  0
LTYPE
  2
long_dashed_double-dotted
 70
   64
  3
----------- --- --- ------------
 72
   65
 73
    6
 40
17
 49
12
 49
-1.5
 49
0.25
 49
-1.5
 49
0.25
 49
-1.5
  0
LTYPE
  2
long_dashed_triplicate-dotted
 70
   64
  3
--------- --- --- --- ----------
 72
   65
 73
    8
 40
18.75
 49
12
 49
-1.5
 49
0.25
 49
-1.5
 49
0.25
 49
-1.5
 49
0.25
 49
-1.5
  0
LTYPE
  2
dotted
 70
   64
  3
   -       -       -       -    
 72
   65
 73
    2
 40
1.75
 49
0.25
 49
-1.5
  0
LTYPE
  2
chain
 70
   64
  3
-------------- -- --------------
 72
   65
 73
    4
 40
18.5
 49
12
 49
-1.5
 49
3.5
 49
-1.5
  0
LTYPE
  2
chain_double_dash
 70
   64
  3
------------ -- -- -------------
 72
   65
 73
    6
 40
23.5
 49
12
 49
-1.5
 49
3.5
 49
-1.5
 49
3.5
 49
-1.5
  0
LTYPE
  2
dashed_dotted
 70
   64
  3
-----------     -     ----------
 72
   65
 73
    4
 40
9.25
 49
6
 49
-1.5
 49
0.25
 49
-1.5
  0
LTYPE
  2
double-dashed_dotted
 70
   64
  3
------   -----------   -   -----
 72
   65
 73
    6
 40
16.75
 49
6
 49
-1.5
 49
6
 49
-1.5
 49
0.25
 49
-1.5
  0
LTYPE
  2
dashed_double-dotted
 70
   64
  3
---------    -    -    ---------
 72
   65
 73
    6
 40
11
 49
6
 49
-1.5
 49
0.25
 49
-1.5
 49
0.25
 49
-1.5
  0
LTYPE
  2
double-dashed_double-dotted
 70
   64
  3
-----   ---------   -   -   ----
 72
   65
 73
    8
 40
18.5
 49
6
 49
-1.5
 49
6
 49
-1.5
 49
0.25
 49
-1.5
 49
0.25
 49
-1.5
  0
LTYPE
  2
dashed_triplicate-dotted
 70
   64
  3
-------    -    -    -    ------
 72
   65
 73
    8
 40
12.75
 49
6
 49
-1.5
 49
0.25
 49
-1.5
 49
0.25
 49
-1.5
 49
0.25
 49
-1.5
  0
LTYPE
  2
double-dashed_triplicate-dotted
 70
   64
  3
-----  ---------  -  -  -  -----
 72
   65
 73
   10
 40
20.25
 49
6
 49
-1.5
 49
6
 49
-1.5
 49
0.25
 49
-1.5
 49
0.25
 49
-1.5
 49
0.25
 49
-1.5
  0
LTYPE
  2
undefined
 70
   64
  3
--------------------------------
 72
   65
 73
    0
 40
0
  0
LTYPE
  2
AIGENLINE001
 70
   64
  3
----        --------        ----
 72
   65
 73
    2
 40
4.5800000000000001
 49
2.29
 49
-2.29
  0
LTYPE
  2
AIGENLINE002
 70
   64
  3
------     -----------     -----
 72
   65
 73
    2
 40
6.8700000000000001
 49
4.5800000000000001
 49
-2.29
  0
ENDTAB
  0
TABLE
  2
STYLE
  5
3
100
AcDbSymbolTable
 70
     1
  0
STYLE
  5
10
100
AcDbSymbolTableRecord
100
AcDbTextStyleTableRecord
  2
STANDARD
 70
     0
 40
0.0
 41
1.0
 50
0.0
 71
     0
 42
0.2
  3
txt
  4
bigfont.shx
  0
STYLE
  5
26
100
AcDbSymbolTableRecord
100
AcDbTextStyleTableRecord
  2
TATEGAKI
 70
    68
 40
0.0
 41
1.0
 50
0.0
 71
     0
 42
1.0
  3
txt
  4
bigfont.shx
  0
ENDTAB
  0
TABLE
  2
LAYER
 70
    4
  0
LAYER
  2
_0-0_文字
 70
   64
 62
    7
  6
CONTINUOUS
  0
LAYER
  2
_0-1_レイヤ___3
 70
   64
 62
    7
  6
CONTINUOUS
  0
LAYER
  2
_0-2_決定
 70
   64
 62
    7
  6
CONTINUOUS
  0
LAYER
  2
ADD_LINE
 70
   64
 62
    7
  6
CONTINUOUS
  0
ENDTAB
  0
ENDSEC
  0
SECTION
  2
BLOCKS
  0
ENDSEC
  0
SECTION
  2
ENTITIES
  0
ARC
  8
_0-1_レイヤ___3
  6
CONTINUOUS
 62
    7
 10
-7457.1225270732621
 20
10245.265671888299
 40
100.75331131322194
 50
212.54457606520913
 51
215.40440375223901
  0
ARC
  8
_0-1_レイヤ___3
  6
CONTINUOUS
 62
    7
 10
-7368.9514147695209
 20
10307.718363524889
 40
208.80176608438552
 50
215.35576722286694
 51
221.36723647424384
  0
ARC
  8
_0-1_レイヤ___3
  6
CONTINUOUS
 62
    7
 10
-7295.4624294196119
 20
10370.285434729602
 40
305.30820552446175
 50
221.06477429997616
 51
231.22765018658944
  0
ARC
  8
_0-1_レイヤ___3
  6
CONTINUOUS
 62
    7
 10
-7258.362933726452
 20
10413.75814627555
 40
362.43800051855288
 50
230.95883511048854
 51
251.35346403312775
  0
ARC
  8
_0-1_レイヤ___3
  6
CONTINUOUS
 62
    7
 10
-7236.372632740311
 20
10469.15351598549
 40
421.96811857702386
 50
250.92920805381576
 51
264.01576111916944
  0
ARC
  8
_0-1_レイヤ___3
  6
CONTINUOUS
 62
    7
 10
-7225.624236278828
 20
10543.900922169672
 40
497.43720610569824
 50
263.68207230856342
 51
270.12317171358148
  0
ARC
  8
_0-1_レイヤ___3
  6
CONTINUOUS
 62
    7
 10
-6992.0793464044109
 20
10245.524901377814
 40
100.97057184263099
 50
324.50269853745323
 51
327.35954730735853
  0
ARC
  8
_0-1_レイヤ___3
  6
CONTINUOUS
 62
    7
 10
-7080.3419905560786
 20
10307.947173220191
 40
209.07582118488784
 50
318.61534655888227
 51
324.62063211809948
  0
ARC
  8
_0-1_レイヤ___3
  6
CONTINUOUS
 62
    7
 10
-7153.8774882642865
 20
10370.555279866292
 40
305.64394410371006
 50
308.76992808749981
 51
318.92296844706647
  0
ARC
  8
_0-1_レイヤ___3
  6
CONTINUOUS
 62
    7
 10
-7190.9073149430596
 20
10414.013847156648
 40
362.71881065871321
 50
288.65165821912348
 51
309.03173518611686
  0
ARC
  8
_0-1_レイヤ___3
  6
CONTINUOUS
 62
    7
 10
-7212.7783179116759
 20
10469.116770693032
 40
421.93378546990601
 50
275.98762352174964
 51
289.07257752973072
  0
ARC
  8
_0-1_レイヤ___3
  6
CONTINUOUS
 62
    7
 10
-7223.4878580387031
 20
10543.581941679005
 40
497.11822129585721
 50
269.87702048518202
 51
276.31995190691799
  0
ARC
  8
_0-1_レイヤ___3
  6
CONTINUOUS
 62
    7
 10
-5185.0304285955899
 20
10245.524901377814
 40
100.97057184263099
 50
212.64045269264147
 51
215.49730146254677
  0
ARC
  8
_0-1_レイヤ___3
  6
CONTINUOUS
 62
    7
 10
-5096.767783943922
 20
10307.947182752343
 40
209.07582711155425
 50
215.37936993240487
 51
221.38465549162211
  0
ARC
  8
_0-1_レイヤ___3
  6
CONTINUOUS
 62
    7
 10
-5023.232286235715
 20
10370.555274237853
 40
305.6439400285019
 50
221.07703081915608
 51
231.23007117872271
  0
ARC
  8
_0-1_レイヤ___3
  6
CONTINUOUS
 62
    7
 10
-4986.2024600569393
 20
10414.01384715665
 40
362.71881065871611
 50
230.96826481388334
 51
251.34834178087678
  0
ARC
  8
_0-1_レイヤ___3
  6
CONTINUOUS
 62
    7
 10
-4964.331457088324
 20
10469.116770693026
 40
421.93378546990107
 50
250.92742247026916
 51
264.01237647825019
  0
ARC
  8
_0-1_レイヤ___3
  6
CONTINUOUS
 62
    7
 10
-4953.6219169612968
 20
10543.581941679005
 40
497.11822129585721
 50
263.68004809308201
 51
270.12297951481798
  0
ARC
  8
_0-1_レイヤ___3
  6
CONTINUOUS
 62
    7
 10
-4719.9458454184714
 20
10245.502223718258
 40
100.93010227782503
 50
324.50212566871829
 51
327.36012017609352
  0
ARC
  8
_0-1_レイヤ___3
  6
CONTINUOUS
 62
    7
 10
-4808.1795151263923
 20
10307.897670728831
 40
208.99619450303933
 50
318.61419937969004
 51
324.6217751962829
  0
ARC
  8
_0-1_レイヤ___3
  6
CONTINUOUS
 62
    7
 10
-4881.720450069015
 20
10370.546924357084
 40
305.59543296261558
 50
308.76110452106741
 51
318.91711841601511
  0
ARC
  8
_0-1_レイヤ___3
  6
CONTINUOUS
 62
    7
 10
-4918.8186128357247
 20
10414.07234736759
 40
362.76505117262622
 50
288.64440299195792
 51
309.02607158712721
  0
ARC
  8
_0-1_レイヤ___3
  6
CONTINUOUS
 62
    7
 10
-4940.7607794280339
 20
10469.392114969156
 40
422.20788163462777
 50
275.98405340598731
 51
289.06580929539717
  0
ARC
  8
_0-1_レイヤ___3
  6
CONTINUOUS
 62
    7
 10
-4951.4884073483645
 20
10543.953934779165
 40
497.49021243480115
 50
269.87717178965931
 51
276.31758418819595
  0
ARC
  8
_0-1_レイヤ___3
  6
CONTINUOUS
 62
    7
 10
-5820.122552073216
 20
10136.864055111702
 40
100.75331131325974
 50
144.59559624777546
 51
147.45542393480537
  0
ARC
  8
_0-1_レイヤ___3
  6
CONTINUOUS
 62
    7
 10
-5731.9514397695193
 20
10074.411363475112
 40
208.80176608438552
 50
138.63276352575616
 51
144.64423277713306
  0
ARC
  8
_0-1_レイヤ___3
  6
CONTINUOUS
 62
    7
 10
-5658.4624539196111
 20
10011.84428664744
 40
305.30820959523527
 50
128.77234907943739
 51
138.93522496605067
  0
ARC
  8
_0-1_レイヤ___3
  6
CONTINUOUS
 62
    7
 10
-5621.3629577264519
 20
9968.3715807244553
 40
362.43800051855004
 50
108.64653596687252
 51
129.04116488951172
  0
ARC
  8
_0-1_レイヤ___3
  6
CONTINUOUS
 62
    7
 10
-5599.37265674031
 20
9912.9762110145002
 40
421.96811857703369
 50
95.984238880830276
 51
109.07079194618395
  0
ARC
  8
_0-1_レイヤ___3
  6
CONTINUOUS
 62
    7
 10
-5588.6242602788279
 20
9838.228804830349
 40
497.437206105678
 50
89.876828286418629
 51
96.317927691436736
  0
ARC
  8
_0-1_レイヤ___3
  6
CONTINUOUS
 62
    7
 10
-5354.9872379267836
 20
10136.864055111679
 40
100.75331131327245
 50
32.544576065205391
 51
35.404403752235282
  0
ARC
  8
_0-1_レイヤ___3
  6
CONTINUOUS
 62
    7
 10
-5443.1583502304802
 20
10074.411363475123
 40
208.80176608437881
 50
35.3557672228646
 51
41.367236474241516
  0
ARC
  8
_0-1_レイヤ___3
  6
CONTINUOUS
 62
    7
 10
-5516.6473355803882
 20
10011.8442922704
 40
305.30820552446175
 50
41.064774299976172
 51
51.227650186589457
  0
ARC
  8
_0-1_レイヤ___3
  6
CONTINUOUS
 62
    7
 10
-5553.7468312735482
 20
9968.3715807244516
 40
362.43800051855288
 50
50.958835110488543
 51
71.35346403312775
  0
ARC
  8
_0-1_レイヤ___3
  6
CONTINUOUS
 62
    7
 10
-5575.737132259691
 20
9912.9762110145057
 40
421.96811857702875
 50
70.929208053815913
 51
84.015761119169582
  0
ARC
  8
_0-1_レイヤ___3
  6
CONTINUOUS
 62
    7
 10
-5586.4855287211731
 20
9838.2288048303399
 40
497.43720610568812
 50
83.682072308563349
 51
90.123171713581442
  0
ARC
  8
_0-1_レイヤ___3
  6
CONTINUOUS
 62
    7
 10
-2913.022595073262
 20
10245.265671888321
 40
100.75331131323469
 50
212.54457606521987
 51
215.40440375224975
  0
ARC
  8
_0-1_レイヤ___3
  6
CONTINUOUS
 62
    7
 10
-2824.851482769519
 20
10307.718363524882
 40
208.80176608438217
 50
215.35576722286575
 51
221.36723647424267
  0
ARC
  8
_0-1_レイヤ___3
  6
CONTINUOUS
 62
    7
 10
-2751.3624974196114
 20
10370.285434729598
 40
305.30820552445948
 50
221.06477429997577
 51
231.22765018658905
  0
ARC
  8
_0-1_レイヤ___3
  6
CONTINUOUS
 62
    7
 10
-2714.2630012264522
 20
10413.758149055178
 40
362.43800299241127
 50
230.95883532587561
 51
251.3534642485148
  0
ARC
  8
_0-1_レイヤ___3
  6
CONTINUOUS
 62
    7
 10
-2692.2727002403099
 20
10469.153511626333
 40
421.96811429374725
 50
250.92920792458665
 51
264.0157609899403
  0
ARC
  8
_0-1_レイヤ___3
  6
CONTINUOUS
 62
    7
 10
-2681.5243042788275
 20
10543.900922169658
 40
497.43720610568312
 50
263.68207230856331
 51
270.12317171358143
  0
ARC
  8
_0-1_レイヤ___3
  6
CONTINUOUS
 62
    7
 10
-2447.8872809267382
 20
10245.26567188831
 40
100.75331131322829
 50
324.59559624775562
 51
327.45542393478553
  0
ARC
  8
_0-1_レイヤ___3
  6
CONTINUOUS
 62
    7
 10
-2536.0583932304803
 20
10307.718363524889
 40
208.80176608438552
 50
318.63276352575616
 51
324.64423277713308
  0
ARC
  8
_0-1_レイヤ___3
  6
CONTINUOUS
 62
    7
 10
-2609.5473785803892
 20
10370.285434729598
 40
305.30820552445948
 50
308.77234981341098
 51
318.93522570002426
  0
ARC
  8
_0-1_レイヤ___3
  6
CONTINUOUS
 62
    7
 10
-2646.646874773548
 20
10413.758149055178
 40
362.43800299241127
 50
288.6465357514852
 51
309.04116467412439
  0
ARC
  8
_0-1_レイヤ___3
  6
CONTINUOUS
 62
    7
 10
-2668.6371757596903
 20
10469.153511626329
 40
421.96811429374492
 50
275.98423901005975
 51
289.07079207541341
  0
ARC
  8
_0-1_レイヤ___3
  6
CONTINUOUS
 62
    7
 10
-2679.3855722211724
 20
10543.900931055636
 40
497.43721499271589
 50
269.87682823102801
 51
276.31792763604608
  0
ARC
  8
_0-1_レイヤ___3
  6
CONTINUOUS
 62
    7
 10
-3548.0304525955444
 20
10136.604825622173
 40
100.97057184267514
 50
144.50269853746238
 51
147.35954730736768
  0
ARC
  8
_0-1_レイヤ___3
  6
CONTINUOUS
 62
    7
 10
-3459.7678084439217
 20
10074.182553779816
 40
209.07582118488446
 50
138.6153465588834
 51
144.62063211810062
  0
ARC
  8
_0-1_レイヤ___3
  6
CONTINUOUS
 62
    7
 10
-3386.2323107357138
 20
10011.574447133704
 40
305.6439441037146
 50
128.76992808749898
 51
138.92296844706561
  0
ARC
  8
_0-1_レイヤ___3
  6
CONTINUOUS
 62
    7
 10
-3349.2024840569402
 20
9968.1158798433553
 40
362.71881065871321
 50
108.65165821912348
 51
129.03173518611692
  0
ARC
  8
_0-1_レイヤ___3
  6
CONTINUOUS
 62
    7
 10
-3327.3314810883239
 20
9913.0129563069768
 40
421.93378546990107
 50
95.987623521749811
 51
109.07257752973085
  0
ARC
  8
_0-1_レイヤ___3
  6
CONTINUOUS
 62
    7
 10
-3316.6219409612968
 20
9838.547785320985
 40
497.11822129586727
 50
89.877020485181959
 51
96.319951906917922
  0
ARC
  8
_0-1_レイヤ___3
  6
CONTINUOUS
 62
    7
 10
-3082.9458704185172
 20
10136.627503281728
 40
100.93010227786918
 50
32.639879823897374
 51
35.497874331272577
  0
ARC
  8
_0-1_レイヤ___3
  6
CONTINUOUS
 62
    7
 10
-3171.1795401263917
 20
10074.232056271177
 40
208.99619450303595
 50
35.378224803715909
 51
41.385800620308785
  0
ARC
  8
_0-1_レイヤ___3
  6
CONTINUOUS
 62
    7
 10
-3244.7204745690146
 20
10011.582808269704
 40
305.59542888809187
 50
41.082880850402226
 51
51.23889474534996
  0
ARC
  8
_0-1_レイヤ___3
  6
CONTINUOUS
 62
    7
 10
-3281.8186368357237
 20
9968.0573796324115
 40
362.76505117262764
 50
50.973928412872894
 51
71.355597008042196
  0
ARC
  8
_0-1_レイヤ___3
  6
CONTINUOUS
 62
    7
 10
-3303.7608034280352
 20
9912.73761203084
 40
422.20788163463277
 50
70.934190704602969
 51
84.015946594012817
  0
ARC
  8
_0-1_レイヤ___3
  6
CONTINUOUS
 62
    7
 10
-3314.4884313483644
 20
9838.1757922208526
 40
497.49021243478586
 50
83.682415811803978
 51
90.1228282103406
  0
ARC
  8
_0-1_レイヤ___3
  6
CONTINUOUS
 62
    7
 10
-6834.9576104027974
 20
10144.758611797955
 40
85.687131946339932
 50
144.22233369227075
 51
147.28839169837414
  0
ARC
  8
_0-1_レイヤ___3
  6
CONTINUOUS
 62
    7
 10
-6772.3665018165402
 20
10100.105046321711
 40
162.57352260626021
 50
139.79746805851795
 51
144.35142471935831
  0
ARC
  8
_0-1_レイヤ___3
  6
CONTINUOUS
 62
    7
 10
-6716.1446876625705
 20
10053.353651080004
 40
235.69226502681684
 50
128.64561282955955
 51
139.93931535075046
  0
ARC
  8
_0-1_レイヤ___3
  6
CONTINUOUS
 62
    7
 10
-6684.3717736842755
 20
10016.65063554152
 40
284.20673230090733
 50
110.99190648966825
 51
129.02750531113131
  0
ARC
  8
_0-1_レイヤ___3
  6
CONTINUOUS
 62
    7
 10
-6666.7549979676569
 20
9975.7474653034878
 40
328.71106488204566
 50
95.239897903240603
 51
111.30471079897622
  0
ARC
  8
_0-1_レイヤ___3
  6
CONTINUOUS
 62
    7
 10
-6657.2413299848804
 20
9909.5217699453515
 40
395.54368721071808
 50
89.900565237320635
 51
95.736139417888069
  0
ARC
  8
_0-1_レイヤ___3
  6
CONTINUOUS
 62
    7
 10
-6478.1521475972031
 20
10144.758611797977
 40
85.68713194632798
 50
32.711608301614113
 51
35.777666307717489
  0
ARC
  8
_0-1_レイヤ___3
  6
CONTINUOUS
 62
    7
 10
-6540.7432561834594
 20
10100.105046321711
 40
162.57352260626021
 50
35.648575280641708
 51
40.202531941482064
  0
ARC
  8
_0-1_レイヤ___3
  6
CONTINUOUS
 62
    7
 10
-6596.9650698374298
 20
10053.353656136811
 40
235.69226138958246
 50
40.060683786625717
 51
51.354386307816618
  0
ARC
  8
_0-1_レイヤ___3
  6
CONTINUOUS
 62
    7
 10
-6628.7379833157238
 20
10016.650635541526
 40
284.20673230090097
 50
50.972494688867947
 51
69.008093510331008
  0
ARC
  8
_0-1_レイヤ___3
  6
CONTINUOUS
 62
    7
 10
-6646.3547595323425
 20
9975.7474617603402
 40
328.71106836472558
 50
68.695289344213663
 51
84.760102239949276
  0
ARC
  8
_0-1_レイヤ___3
  6
CONTINUOUS
 62
    7
 10
-6655.8684275151199
 20
9909.5217797552341
 40
395.54367739998446
 50
84.263860512151453
 51
90.099434692718887
  0
ARC
  8
_0-1_レイヤ___3
  6
CONTINUOUS
 62
    7
 10
-6333.9576174028389
 20
10237.371115202044
 40
85.687131946304817
 50
212.71160830164183
 51
215.77766630774522
  0
ARC
  8
_0-1_レイヤ___3
  6
CONTINUOUS
 62
    7
 10
-6271.3665088165408
 20
10282.024680678278
 40
162.57352260625143
 50
215.64857528063774
 51
220.20253194147807
  0
ARC
  8
_0-1_レイヤ___3
  6
CONTINUOUS
 62
    7
 10
-6215.1446951625703
 20
10328.77607086319
 40
235.69226138958246
 50
220.0606837866257
 51
231.35438630781661
  0
ARC
  8
_0-1_レイヤ___3
  6
CONTINUOUS
 62
    7
 10
-6183.3717816842764
 20
10365.479091458477
 40
284.20673230090415
 50
230.9724946888683
 51
249.00809351033138
  0
ARC
  8
_0-1_レイヤ___3
  6
CONTINUOUS
 62
    7
 10
-6165.7550054676576
 20
10406.382265239659
 40
328.71106836472171
 50
248.69528934421351
 51
264.76010223994911
  0
ARC
  8
_0-1_レイヤ___3
  6
CONTINUOUS
 62
    7
 10
-6156.2413374848802
 20
10472.607947244769
 40
395.54367739998446
 50
264.26386051215144
 51
270.09943469271889
  0
ARC
  8
_0-1_レイヤ___3
  6
CONTINUOUS
 62
    7
 10
-5977.1521550971602
 20
10237.371096519395
 40
85.687121429300191
 50
324.22234402269203
 51
327.28840202879542
  0
ARC
  8
_0-1_レイヤ___3
  6
CONTINUOUS
 62
    7
 10
-6039.743263183459
 20
10282.024680678278
 40
162.57352260625143
 50
319.79746805852193
 51
324.35142471936229
  0
ARC
  8
_0-1_レイヤ___3
  6
CONTINUOUS
 62
    7
 10
-6095.9650773374287
 20
10328.776075920003
 40
235.69226502682088
 50
308.64561282955856
 51
319.9393153507495
  0
ARC
  8
_0-1_レイヤ___3
  6
CONTINUOUS
 62
    7
 10
-6127.7379913157238
 20
10365.479091458477
 40
284.20673230090415
 50
290.99190648966862
 51
309.02750531113168
  0
ARC
  8
_0-1_レイヤ___3
  6
CONTINUOUS
 62
    7
 10
-6145.3547670323424
 20
10406.382261696517
 40
328.71106488204964
 50
275.23989790324043
 51
291.30471079897609
  0
ARC
  8
_0-1_レイヤ___3
  6
CONTINUOUS
 62
    7
 10
-6154.8684350151198
 20
10472.60795705465
 40
395.54368721071808
 50
269.90056523732062
 51
275.73613941788807
  0
ARC
  8
_0-1_レイヤ___3
  6
CONTINUOUS
 62
    7
 10
-4562.8576439027975
 20
10144.758630480626
 40
85.687121429323383
 50
144.22234402271977
 51
147.28840202882316
  0
ARC
  8
_0-1_レイヤ___3
  6
CONTINUOUS
 62
    7
 10
-4500.2665358165405
 20
10100.105046321711
 40
162.57352260626021
 50
139.79746805851795
 51
144.35142471935831
  0
ARC
  8
_0-1_レイヤ___3
  6
CONTINUOUS
 62
    7
 10
-4444.0447216625707
 20
10053.353651079999
 40
235.69226502682088
 50
128.64561282955856
 51
139.93931535074947
  0
ARC
  8
_0-1_レイヤ___3
  6
CONTINUOUS
 62
    7
 10
-4412.2718076842757
 20
10016.650635541522
 40
284.20673230090415
 50
110.99190648966862
 51
129.0275053111317
  0
ARC
  8
_0-1_レイヤ___3
  6
CONTINUOUS
 62
    7
 10
-4394.6550319676571
 20
9975.747465303486
 40
328.71106488204964
 50
95.239897903240447
 51
111.30471079897607
  0
ARC
  8
_0-1_レイヤ___3
  6
CONTINUOUS
 62
    7
 10
-4385.1413639848806
 20
9909.5217699453642
 40
395.54368721070705
 50
89.90056523732072
 51
95.73613941788814
  0
ARC
  8
_0-1_レイヤ___3
  6
CONTINUOUS
 62
    7
 10
-4206.1892611875182
 20
10144.733370282671
 40
85.731971558135825
 50
32.712410299046745
 51
35.776864310284864
  0
ARC
  8
_0-1_レイヤ___3
  6
CONTINUOUS
 62
    7
 10
-4268.8078522340775
 20
10100.054739876003
 40
162.65530541513274
 50
35.649720744070684
 51
40.201386478045109
  0
ARC
  8
_0-1_レイヤ___3
  6
CONTINUOUS
 62
    7
 10
-4325.0235368896301
 20
10053.33922448892
 40
235.74627358302268
 50
40.05422816298821
 51
51.343586766425858
  0
ARC
  8
_0-1_レイヤ___3
  6
CONTINUOUS
 62
    7
 10
-4357.5478157618109
 20
10015.621078401622
 40
285.52275923749096
 50
50.974792361685537
 51
70.765150450440316
  0
ARC
  8
_0-1_レイヤ___3
  6
CONTINUOUS
 62
    7
 10
-4375.8269770371544
 20
9970.1725065434257
 40
334.4639357459223
 50
70.373519651520297
 51
85.910519893971738
  0
ARC
  8
_0-1_レイヤ___3
  6
CONTINUOUS
 62
    7
 10
-4383.9992004674614
 20
9903.8985793447791
 40
401.16654099226736
 50
85.421325868018101
 51
90.065086140256781
  0
ARC
  8
_0-1_レイヤ___3
  6
CONTINUOUS
 62
    7
 10
-4061.8622254001116
 20
10237.436075383321
 40
85.802528749285102
 50
212.71367058105758
 51
215.7756040283295
  0
ARC
  8
_0-1_レイヤ___3
  6
CONTINUOUS
 62
    7
 10
-3999.1870760191214
 20
10282.286544738772
 40
162.87201205520844
 50
215.68663731110288
 51
220.23440846731762
  0
ARC
  8
_0-1_レイヤ___3
  6
CONTINUOUS
 62
    7
 10
-3942.9175568337532
 20
10329.089688295313
 40
236.06034213028335
 50
220.0850184249372
 51
231.36454602664637
  0
ARC
  8
_0-1_レイヤ___3
  6
CONTINUOUS
 62
    7
 10
-3910.3895361090076
 20
10366.825234270487
 40
285.8521394627619
 50
230.99411895665307
 51
250.76855345956992
  0
ARC
  8
_0-1_レイヤ___3
  6
CONTINUOUS
 62
    7
 10
-3892.1624755039556
 20
10412.175246068236
 40
334.68285969358692
 50
250.37954526170159
 51
265.90970154733179
  0
ARC
  8
_0-1_レイヤ___3
  6
CONTINUOUS
 62
    7
 10
-3884.0090733106636
 20
10478.2707129091
 40
401.2061044525978
 50
265.42155495706544
 51
270.06485705120957
  0
ARC
  8
_0-1_レイヤ___3
  6
CONTINUOUS
 62
    7
 10
-3705.1521885971601
 20
10237.371115202024
 40
85.687131946292851
 50
324.22233369226649
 51
327.28839169836988
  0
ARC
  8
_0-1_レイヤ___3
  6
CONTINUOUS
 62
    7
 10
-3767.7432971834596
 20
10282.024680678292
 40
162.57352260626021
 50
319.79746805851795
 51
324.35142471935831
  0
ARC
  8
_0-1_レイヤ___3
  6
CONTINUOUS
 62
    7
 10
-3823.9651113374293
 20
10328.776075920003
 40
235.69226502682088
 50
308.64561282955856
 51
319.9393153507495
  0
ARC
  8
_0-1_レイヤ___3
  6
CONTINUOUS
 62
    7
 10
-3855.7380253157235
 20
10365.479091458477
 40
284.20673230090415
 50
290.99190648966862
 51
309.02750531113168
  0
ARC
  8
_0-1_レイヤ___3
  6
CONTINUOUS
 62
    7
 10
-3873.354801032342
 20
10406.382261696512
 40
328.71106488204566
 50
275.2398979032406
 51
291.3047107989762
  0
ARC
  8
_0-1_レイヤ___3
  6
CONTINUOUS
 62
    7
 10
-3882.8684690151194
 20
10472.60795705465
 40
395.54368721071808
 50
269.90056523732062
 51
275.73613941788807
  0
ARC
  8
_0-1_レイヤ___3
  6
CONTINUOUS
 62
    7
 10
-2290.8576774027965
 20
10144.758611797966
 40
85.687131946333949
 50
144.22233369227664
 51
147.28839169838002
  0
ARC
  8
_0-1_レイヤ___3
  6
CONTINUOUS
 62
    7
 10
-2228.2665688165407
 20
10100.105046321725
 40
162.57352260625143
 50
139.79746805852193
 51
144.35142471936226
  0
ARC
  8
_0-1_レイヤ___3
  6
CONTINUOUS
 62
    7
 10
-2172.0447551625703
 20
10053.353656136807
 40
235.69226138958453
 50
128.64561369218288
 51
139.93931621337379
  0
ARC
  8
_0-1_レイヤ___3
  6
CONTINUOUS
 62
    7
 10
-2140.2718416842758
 20
10016.650635541526
 40
284.20673230090256
 50
110.99190648966881
 51
129.02750531113188
  0
ARC
  8
_0-1_レイヤ___3
  6
CONTINUOUS
 62
    7
 10
-2122.6550654676571
 20
9975.747461760342
 40
328.71106836472364
 50
95.239897760050809
 51
111.30471065578642
  0
ARC
  8
_0-1_レイヤ___3
  6
CONTINUOUS
 62
    7
 10
-2113.1413974848801
 20
9909.5217797552341
 40
395.54367739998446
 50
89.900565307281127
 51
95.736139487848547
  0
ARC
  8
_0-1_レイヤ___3
  6
CONTINUOUS
 62
    7
 10
-1934.0522155972035
 20
10144.758611797955
 40
85.687131946339932
 50
32.711608301625859
 51
35.777666307729241
  0
ARC
  8
_0-1_レイヤ___3
  6
CONTINUOUS
 62
    7
 10
-1996.6433241834598
 20
10100.105046321725
 40
162.57352260625143
 50
35.648575280637729
 51
40.202531941478085
  0
ARC
  8
_0-1_レイヤ___3
  6
CONTINUOUS
 62
    7
 10
-2052.8651378374298
 20
10053.353656136811
 40
235.69226138958246
 50
40.060683786625717
 51
51.354386307816618
  0
ARC
  8
_0-1_レイヤ___3
  6
CONTINUOUS
 62
    7
 10
-2084.6380513157237
 20
10016.650635541526
 40
284.20673230090256
 50
50.972494688868125
 51
69.008093510331193
  0
ARC
  8
_0-1_レイヤ___3
  6
CONTINUOUS
 62
    7
 10
-2102.2548275323425
 20
9975.747461760342
 40
328.71106836472364
 50
68.695289344213577
 51
84.760102239949205
  0
ARC
  8
_0-1_レイヤ___3
  6
CONTINUOUS
 62
    7
 10
-2111.7684955151199
 20
9909.5217797552286
 40
395.54367739998997
 50
84.263860512151496
 51
90.09943469271893
  0
ARC
  8
_0-1_レイヤ___3
  6
CONTINUOUS
 62
    7
 10
-1789.8576854028386
 20
10237.371115202044
 40
85.687131946304817
 50
212.71160830164183
 51
215.77766630774522
  0
ARC
  8
_0-1_レイヤ___3
  6
CONTINUOUS
 62
    7
 10
-1727.2665768165405
 20
10282.024680678269
 40
162.57352260624702
 50
215.64857528063575
 51
220.20253194147608
  0
ARC
  8
_0-1_レイヤ___3
  6
CONTINUOUS
 62
    7
 10
-1671.0447626625705
 20
10328.776075920005
 40
235.69226502682301
 50
220.06068464925102
 51
231.35438717044192
  0
ARC
  8
_0-1_レイヤ___3
  6
CONTINUOUS
 62
    7
 10
-1639.2718491842761
 20
10365.479088307937
 40
284.20672953857877
 50
230.9724943672266
 51
249.00809318868966
  0
ARC
  8
_0-1_レイヤ___3
  6
CONTINUOUS
 62
    7
 10
-1621.6550734676571
 20
10406.382265239659
 40
328.71106836472364
 50
248.69528934421356
 51
264.76010223994922
  0
ARC
  8
_0-1_レイヤ___3
  6
CONTINUOUS
 62
    7
 10
-1612.1414054848799
 20
10472.607947244769
 40
395.54367739998446
 50
264.26386051215144
 51
270.09943469271889
  0
ARC
  8
_0-1_レイヤ___3
  6
CONTINUOUS
 62
    7
 10
-1433.0522225971606
 20
10237.371115202033
 40
85.68713194629882
 50
324.22233369226063
 51
327.28839169836402
  0
ARC
  8
_0-1_レイヤ___3
  6
CONTINUOUS
 62
    7
 10
-1495.6433311834594
 20
10282.024680678278
 40
162.57352260625143
 50
319.79746805852193
 51
324.35142471936229
  0
ARC
  8
_0-1_レイヤ___3
  6
CONTINUOUS
 62
    7
 10
-1551.8651453374298
 20
10328.77607592001
 40
235.69226502682505
 50
308.64561282955759
 51
319.93931535074847
  0
ARC
  8
_0-1_レイヤ___3
  6
CONTINUOUS
 62
    7
 10
-1583.6380588157244
 20
10365.479088307933
 40
284.20672953857724
 50
290.99190681131051
 51
309.02750563277357
  0
ARC
  8
_0-1_レイヤ___3
  6
CONTINUOUS
 62
    7
 10
-1601.2548345323426
 20
10406.382265239659
 40
328.71106836472171
 50
275.23989776005089
 51
291.30471065578649
  0
ARC
  8
_0-1_レイヤ___3
  6
CONTINUOUS
 62
    7
 10
-1610.7685030151197
 20
10472.60795705465
 40
395.54368721071808
 50
269.90056523732062
 51
275.73613941788807
  0
ARC
  8
_0-1_レイヤ___3
  6
CONTINUOUS
 62
    7
 10
-640.93049659558972
 20
10245.524901377827
 40
100.9705718426374
 50
212.64045269264682
 51
215.49730146255212
  0
ARC
  8
_0-1_レイヤ___3
  6
CONTINUOUS
 62
    7
 10
-552.66785194392128
 20
10307.947182752345
 40
209.0758271115559
 50
215.37936993240547
 51
221.38465549162268
  0
ARC
  8
_0-1_レイヤ___3
  6
CONTINUOUS
 62
    7
 10
-479.13235423571393
 20
10370.555274237853
 40
305.6439400285019
 50
221.07703081915608
 51
231.23007117872271
  0
ARC
  8
_0-1_レイヤ___3
  6
CONTINUOUS
 62
    7
 10
-442.10252755693944
 20
10414.013849938307
 40
362.7188131343749
 50
230.96826502924114
 51
251.34834199623455
  0
ARC
  8
_0-1_レイヤ___3
  6
CONTINUOUS
 62
    7
 10
-420.23152458832328
 20
10469.11676633332
 40
421.93378118613771
 50
250.92742234098728
 51
264.01237634896836
  0
ARC
  8
_0-1_レイヤ___3
  6
CONTINUOUS
 62
    7
 10
-409.52198446129643
 20
10543.581950562448
 40
497.11823018035136
 50
263.68004814851218
 51
270.12297957024816
  0
ARC
  8
_0-1_レイヤ___3
  6
CONTINUOUS
 62
    7
 10
-175.84591341847215
 20
10245.502223718271
 40
100.93010227783145
 50
324.50212566871295
 51
327.36012017608812
  0
ARC
  8
_0-1_レイヤ___3
  6
CONTINUOUS
 62
    7
 10
-264.07958312639153
 20
10307.897670728826
 40
208.9961945030376
 50
318.6141993796906
 51
324.62177519628352
  0
ARC
  8
_0-1_レイヤ___3
  6
CONTINUOUS
 62
    7
 10
-337.62051756901485
 20
10370.546918730302
 40
305.59542888809415
 50
308.76110525464964
 51
318.91711914959734
  0
ARC
  8
_0-1_レイヤ___3
  6
CONTINUOUS
 62
    7
 10
-374.71868033572463
 20
10414.072350149027
 40
362.76505364824902
 50
288.6444027766882
 51
309.02607137185748
  0
ARC
  8
_0-1_レイヤ___3
  6
CONTINUOUS
 62
    7
 10
-396.6608469280348
 20
10469.392110608376
 40
422.20787734973584
 50
275.98405353516426
 51
289.06580942457413
  0
ARC
  8
_0-1_レイヤ___3
  6
CONTINUOUS
 62
    7
 10
-407.38847434836458
 20
10543.953934779156
 40
497.49021243479353
 50
269.87717178965937
 51
276.31758418819595
  0
ARC
  8
_0-1_レイヤ___3
  6
CONTINUOUS
 62
    7
 10
-1276.0226190732164
 20
10136.86405511169
 40
100.7533113132661
 50
144.59559624777009
 51
147.4554239348
  0
ARC
  8
_0-1_レイヤ___3
  6
CONTINUOUS
 62
    7
 10
-1187.8515067695196
 20
10074.411363475117
 40
208.80176608438217
 50
138.63276352575733
 51
144.64423277713425
  0
ARC
  8
_0-1_レイヤ___3
  6
CONTINUOUS
 62
    7
 10
-1114.3625214196113
 20
10011.8442922704
 40
305.30820552446175
 50
128.77234981341056
 51
138.93522570002384
  0
ARC
  8
_0-1_レイヤ___3
  6
CONTINUOUS
 62
    7
 10
-1077.2630257264518
 20
9968.3715807244535
 40
362.43800051855146
 50
108.64653596687239
 51
129.04116488951158
  0
ARC
  8
_0-1_レイヤ___3
  6
CONTINUOUS
 62
    7
 10
-1055.2727247403093
 20
9912.976211014502
 40
421.96811857703125
 50
95.984238880830361
 51
109.07079194618402
  0
ARC
  8
_0-1_レイヤ___3
  6
CONTINUOUS
 62
    7
 10
-1044.5243282788269
 20
9838.2288048303435
 40
497.43720610568312
 50
89.876828286418601
 51
96.317927691436694
  0
ARC
  8
_0-1_レイヤ___3
  6
CONTINUOUS
 62
    7
 10
-810.8873059267836
 20
10136.864055111695
 40
100.75331131326293
 50
32.544576065197333
 51
35.404403752227225
  0
ARC
  8
_0-1_レイヤ___3
  6
CONTINUOUS
 62
    7
 10
-899.05841773048019
 20
10074.411372997445
 40
208.80176016648454
 50
35.355765171199238
 51
41.367234422576153
  0
ARC
  8
_0-1_レイヤ___3
  6
CONTINUOUS
 62
    7
 10
-972.5474030803889
 20
10011.84428664744
 40
305.30820959523527
 50
41.064775033949324
 51
51.22765092056261
  0
ARC
  8
_0-1_レイヤ___3
  6
CONTINUOUS
 62
    7
 10
-1009.6468992735483
 20
9968.3715807244535
 40
362.43800051855209
 50
50.958835110488486
 51
71.353464033127693
  0
ARC
  8
_0-1_レイヤ___3
  6
CONTINUOUS
 62
    7
 10
-1031.6372002596906
 20
9912.9762110145039
 40
421.96811857702994
 50
70.929208053815955
 51
84.015761119169611
  0
ARC
  8
_0-1_レイヤ___3
  6
CONTINUOUS
 62
    7
 10
-1042.385596721173
 20
9838.2288048303435
 40
497.43720610568312
 50
83.682072308563306
 51
90.123171713581399
  0
ARC
  8
_0-1_レイヤ___3
  6
CONTINUOUS
 62
    7
 10
-18.757711402796531
 20
10144.758611797961
 40
85.687131946336947
 50
144.22233369227371
 51
147.2883916983771
  0
ARC
  8
_0-1_レイヤ___3
  6
CONTINUOUS
 62
    7
 10
43.83339718345951
 20
10100.105046321722
 40
162.57352260625362
 50
139.79746805852093
 51
144.35142471936129
  0
ARC
  8
_0-1_レイヤ___3
  6
CONTINUOUS
 62
    7
 10
100.05521083742991
 20
10053.353656136809
 40
235.69226138958345
 50
128.64561369218313
 51
139.93931621337404
  0
ARC
  8
_0-1_レイヤ___3
  6
CONTINUOUS
 62
    7
 10
131.82812431572415
 20
10016.650635541526
 40
284.20673230090256
 50
110.99190648966881
 51
129.02750531113188
  0
ARC
  8
_0-1_レイヤ___3
  6
CONTINUOUS
 62
    7
 10
149.4449005323429
 20
9975.7474617603439
 40
328.71106836472256
 50
95.239897760050852
 51
111.30471065578647
  0
ARC
  8
_0-1_レイヤ___3
  6
CONTINUOUS
 62
    7
 10
158.95856851511979
 20
9909.5217797552305
 40
395.54367739998719
 50
89.900565307281099
 51
95.736139487848533
  0
ARC
  8
_0-1_レイヤ___3
  6
CONTINUOUS
 62
    7
 10
337.95232440006856
 20
10144.693651616688
 40
85.802528749315769
 50
32.713670581037185
 51
35.77560402830909
  0
ARC
  8
_0-1_レイヤ___3
  6
CONTINUOUS
 62
    7
 10
275.27717551912218
 20
10099.843194853276
 40
162.87200430350629
 50
35.686633815836018
 51
40.234404972050754
  0
ARC
  8
_0-1_レイヤ___3
  6
CONTINUOUS
 62
    7
 10
219.00765633375315
 20
10053.040033641475
 40
236.0603457731514
 50
40.085019287030654
 51
51.364546888739845
  0
ARC
  8
_0-1_レイヤ___3
  6
CONTINUOUS
 62
    7
 10
186.47963510900809
 20
10015.304492729518
 40
285.85213946276093
 50
50.994118956652962
 51
70.768553459569802
  0
ARC
  8
_0-1_レイヤ___3
  6
CONTINUOUS
 62
    7
 10
168.25257500395566
 20
9969.954484598471
 40
334.68285607188528
 50
70.379545131548312
 51
85.909701417178496
  0
ARC
  8
_0-1_レイヤ___3
  6
CONTINUOUS
 62
    7
 10
160.0991728106635
 20
9903.859001758221
 40
401.20611678583725
 50
85.421555026476128
 51
90.064857120620218
  0
ARC
  8
_0-1_レイヤ___3
  6
CONTINUOUS
 62
    7
 10
482.27936018747573
 20
10237.396356717345
 40
85.731971558109663
 50
212.71241029907154
 51
215.77686431030966
  0
ARC
  8
_0-1_レイヤ___3
  6
CONTINUOUS
 62
    7
 10
544.89795123407805
 20
10282.074987124
 40
162.65530541513496
 50
215.64972074407166
 51
220.20138647804609
  0
ARC
  8
_0-1_レイヤ___3
  6
CONTINUOUS
 62
    7
 10
601.11363638963041
 20
10328.790507569851
 40
235.74627722112217
 50
220.05422902587941
 51
231.34358762931706
  0
ARC
  8
_0-1_レイヤ___3
  6
CONTINUOUS
 62
    7
 10
633.63791526181126
 20
10366.508645732083
 40
285.52275669592325
 50
230.9747920774642
 51
250.76515016621897
  0
ARC
  8
_0-1_レイヤ___3
  6
CONTINUOUS
 62
    7
 10
651.91707603715417
 20
10411.957220456574
 40
334.46393574591974
 50
250.37351965152021
 51
265.91051989397164
  0
ARC
  8
_0-1_レイヤ___3
  6
CONTINUOUS
 62
    7
 10
660.08929996746156
 20
10478.231159986703
 40
401.16655332430651
 50
265.42132593742883
 51
270.06508620966753
  0
ARC
  8
_0-1_レイヤ___3
  6
CONTINUOUS
 62
    7
 10
838.94774340283914
 20
10237.371115202037
 40
85.687131946301065
 50
324.22233369225842
 51
327.28839169836181
  0
ARC
  8
_0-1_レイヤ___3
  6
CONTINUOUS
 62
    7
 10
776.3566348165408
 20
10282.024680678278
 40
162.57352260625197
 50
319.79746805852164
 51
324.351424719362
  0
ARC
  8
_0-1_レイヤ___3
  6
CONTINUOUS
 62
    7
 10
720.13482116257035
 20
10328.77607086319
 40
235.69226138958373
 50
308.64561369218308
 51
319.93931621337396
  0
ARC
  8
_0-1_レイヤ___3
  6
CONTINUOUS
 62
    7
 10
688.36190768427605
 20
10365.479091458476
 40
284.20673230090233
 50
290.99190648966885
 51
309.0275053111319
  0
ARC
  8
_0-1_レイヤ___3
  6
CONTINUOUS
 62
    7
 10
670.7451314676573
 20
10406.382265239659
 40
328.71106836472325
 50
275.23989776005084
 51
291.30471065578644
  0
ARC
  8
_0-1_レイヤ___3
  6
CONTINUOUS
 62
    7
 10
661.23146348488046
 20
10472.607947244771
 40
395.54367739998719
 50
269.90056530728111
 51
275.7361394878485
  0
ARC
  8
_0-1_レイヤ___3
  6
CONTINUOUS
 62
    7
 10
1631.0773369267383
 20
10245.265671888308
 40
100.75331131322702
 50
212.54457606521339
 51
215.4044037522433
  0
ARC
  8
_0-1_レイヤ___3
  6
CONTINUOUS
 62
    7
 10
1719.2484492304802
 20
10307.718363524884
 40
208.80176608438285
 50
215.35576722286598
 51
221.3672364742429
  0
ARC
  8
_0-1_レイヤ___3
  6
CONTINUOUS
 62
    7
 10
1792.7374350803889
 20
10370.285440352563
 40
305.30820959523629
 50
221.06477503394947
 51
231.22765092056275
  0
ARC
  8
_0-1_レイヤ___3
  6
CONTINUOUS
 62
    7
 10
1829.8369312735485
 20
10413.75814627555
 40
362.43800051855175
 50
230.95883511048842
 51
251.35346403312764
  0
ARC
  8
_0-1_レイヤ___3
  6
CONTINUOUS
 62
    7
 10
1851.8272322596908
 20
10469.153515985499
 40
421.96811857703062
 50
250.92920805381596
 51
264.01576111916961
  0
ARC
  8
_0-1_レイヤ___3
  6
CONTINUOUS
 62
    7
 10
1862.5756287211732
 20
10543.90092216966
 40
497.43720610568437
 50
263.68207230856331
 51
270.12317171358143
  0
ARC
  8
_0-1_レイヤ___3
  6
CONTINUOUS
 62
    7
 10
2096.2126510732619
 20
10245.26567188831
 40
100.75331131322829
 50
324.59559624775562
 51
327.45542393478553
  0
ARC
  8
_0-1_レイヤ___3
  6
CONTINUOUS
 62
    7
 10
2008.0415387695198
 20
10307.718363524888
 40
208.8017660843839
 50
318.63276352575673
 51
324.64423277713365
  0
ARC
  8
_0-1_レイヤ___3
  6
CONTINUOUS
 62
    7
 10
1934.5525534196111
 20
10370.285434729602
 40
305.30820552446175
 50
308.77234981341053
 51
318.93522570002381
  0
ARC
  8
_0-1_レイヤ___3
  6
CONTINUOUS
 62
    7
 10
1897.4530572264518
 20
10413.758149055178
 40
362.43800299241167
 50
288.64653575148515
 51
309.04116467412439
  0
ARC
  8
_0-1_レイヤ___3
  6
CONTINUOUS
 62
    7
 10
1875.4627562403095
 20
10469.153511626333
 40
421.96811429374577
 50
275.9842390100597
 51
289.07079207541335
  0
ARC
  8
_0-1_レイヤ___3
  6
CONTINUOUS
 62
    7
 10
1864.7143602788269
 20
10543.900922169654
 40
497.43720610568181
 50
269.87682828641857
 51
276.31792769143669
  0
ARC
  8
_0-1_レイヤ___3
  6
CONTINUOUS
 62
    7
 10
996.0359454185176
 20
10136.627503281727
 40
100.93010227787077
 50
144.50212566872608
 51
147.3601201761013
  0
ARC
  8
_0-1_レイヤ___3
  6
CONTINUOUS
 62
    7
 10
1084.269615126392
 20
10074.232056271174
 40
208.99619450303848
 50
138.61419937969035
 51
144.62177519628324
  0
ARC
  8
_0-1_レイヤ___3
  6
CONTINUOUS
 62
    7
 10
1157.8105495690149
 20
10011.582808269703
 40
305.59542888809329
 50
128.76110525464975
 51
138.91711914959751
  0
ARC
  8
_0-1_レイヤ___3
  6
CONTINUOUS
 62
    7
 10
1194.9087118357247
 20
9968.0573796324115
 40
362.76505117262718
 50
108.64440299195788
 51
129.02607158712718
  0
ARC
  8
_0-1_レイヤ___3
  6
CONTINUOUS
 62
    7
 10
1216.8508784280348
 20
9912.7376120308472
 40
422.20788163462692
 50
95.984053405987382
 51
109.06580929539723
  0
ARC
  8
_0-1_レイヤ___3
  6
CONTINUOUS
 62
    7
 10
1227.5785063483647
 20
9838.1757922208417
 40
497.49021243479706
 50
89.877171789659343
 51
96.317584188195951
  0
ARC
  8
_0-1_レイヤ___3
  6
CONTINUOUS
 62
    7
 10
1461.1205275955444
 20
10136.604825622167
 40
100.97057184267894
 50
32.640452692635513
 51
35.497301462540811
  0
ARC
  8
_0-1_レイヤ___3
  6
CONTINUOUS
 62
    7
 10
1372.8578834439213
 20
10074.182553779814
 40
209.07582118488511
 50
35.379367881899604
 51
41.384653441116832
  0
ARC
  8
_0-1_レイヤ___3
  6
CONTINUOUS
 62
    7
 10
1299.3223857357139
 20
10011.574447133708
 40
305.64394410371193
 50
41.077031552933882
 51
51.230071912500513
  0
ARC
  8
_0-1_レイヤ___3
  6
CONTINUOUS
 62
    7
 10
1262.2925590569398
 20
9968.1158798433516
 40
362.71881065871497
 50
50.968264813883259
 51
71.34834178087668
  0
ARC
  8
_0-1_レイヤ___3
  6
CONTINUOUS
 62
    7
 10
1240.4215560883235
 20
9913.0129563069768
 40
421.93378546990107
 50
70.92742247026915
 51
84.012376478250204
  0
ARC
  8
_0-1_レイヤ___3
  6
CONTINUOUS
 62
    7
 10
1229.7120159612969
 20
9838.5477853209923
 40
497.11822129585903
 50
83.680048093082036
 51
90.122979514817999
  0
ARC
  8
_0-1_レイヤ___3
  6
CONTINUOUS
 62
    7
 10
2253.2422545972036
 20
10144.758611797966
 40
85.687131946333949
 50
144.22233369227664
 51
147.28839169838002
  0
ARC
  8
_0-1_レイヤ___3
  6
CONTINUOUS
 62
    7
 10
2315.8333631834594
 20
10100.105046321722
 40
162.57352260625362
 50
139.79746805852093
 51
144.35142471936129
  0
ARC
  8
_0-1_レイヤ___3
  6
CONTINUOUS
 62
    7
 10
2372.0551768374298
 20
10053.353656136809
 40
235.69226138958345
 50
128.64561369218313
 51
139.93931621337404
  0
ARC
  8
_0-1_レイヤ___3
  6
CONTINUOUS
 62
    7
 10
2403.8280903157242
 20
10016.650635541526
 40
284.20673230090256
 50
110.99190648966881
 51
129.02750531113188
  0
ARC
  8
_0-1_レイヤ___3
  6
CONTINUOUS
 62
    7
 10
2421.444866532343
 20
9975.747461760342
 40
328.71106836472364
 50
95.239897760050809
 51
111.30471065578642
  0
ARC
  8
_0-1_レイヤ___3
  6
CONTINUOUS
 62
    7
 10
2430.9585345151199
 20
9909.5217797552323
 40
395.54367739998577
 50
89.900565307281113
 51
95.736139487848533
  0
ARC
  8
_0-1_レイヤ___3
  6
CONTINUOUS
 62
    7
 10
2610.0477174027969
 20
10144.758611797966
 40
85.687131946333949
 50
32.711608301619982
 51
35.777666307723365
  0
ARC
  8
_0-1_レイヤ___3
  6
CONTINUOUS
 62
    7
 10
2547.4566088165411
 20
10100.105046321722
 40
162.57352260625362
 50
35.648575280638724
 51
40.202531941479087
  0
ARC
  8
_0-1_レイヤ___3
  6
CONTINUOUS
 62
    7
 10
2491.2347946625705
 20
10053.353651079997
 40
235.69226502682244
 50
40.060684649250895
 51
51.354387170441797
  0
ARC
  8
_0-1_レイヤ___3
  6
CONTINUOUS
 62
    7
 10
2459.4618806842759
 20
10016.650635541524
 40
284.20673230090301
 50
50.972494688868174
 51
69.00809351033125
  0
ARC
  8
_0-1_レイヤ___3
  6
CONTINUOUS
 62
    7
 10
2441.8451049676569
 20
9975.7474653034842
 40
328.71106488205066
 50
68.695289201023982
 51
84.760102096759596
  0
ARC
  8
_0-1_レイヤ___3
  6
CONTINUOUS
 62
    7
 10
2432.3314369848804
 20
9909.5217699453588
 40
395.5436872107112
 50
84.263860582111889
 51
90.099434762679323
  0
ARC
  8
_0-1_レイヤ___3
  6
CONTINUOUS
 62
    7
 10
2754.242247097161
 20
10237.371096519384
 40
85.687121429294223
 50
212.7115979711987
 51
215.77765597730209
  0
ARC
  8
_0-1_レイヤ___3
  6
CONTINUOUS
 62
    7
 10
2816.8333551834594
 20
10282.024680678278
 40
162.57352260625251
 50
215.64857528063823
 51
220.20253194147855
  0
ARC
  8
_0-1_レイヤ___3
  6
CONTINUOUS
 62
    7
 10
2873.05516933743
 20
10328.776075920005
 40
235.69226502682244
 50
220.06068464925087
 51
231.35438717044178
  0
ARC
  8
_0-1_レイヤ___3
  6
CONTINUOUS
 62
    7
 10
2904.8280833157241
 20
10365.479091458477
 40
284.20673230090335
 50
230.97249468886821
 51
249.00809351033129
  0
ARC
  8
_0-1_レイヤ___3
  6
CONTINUOUS
 62
    7
 10
2922.4448590323432
 20
10406.382261696517
 40
328.71106488204964
 50
248.69528920102391
 51
264.76010209675957
  0
ARC
  8
_0-1_レイヤ___3
  6
CONTINUOUS
 62
    7
 10
2931.9585270151197
 20
10472.607957054643
 40
395.54368721071256
 50
264.26386058211187
 51
270.09943476267932
  0
ARC
  8
_0-1_レイヤ___3
  6
CONTINUOUS
 62
    7
 10
3111.0477094028392
 20
10237.371115202039
 40
85.687131946301804
 50
324.22233369225773
 51
327.28839169836107
  0
ARC
  8
_0-1_レイヤ___3
  6
CONTINUOUS
 62
    7
 10
3048.4566008165402
 20
10282.024680678278
 40
162.57352260625143
 50
319.79746805852193
 51
324.35142471936229
  0
ARC
  8
_0-1_レイヤ___3
  6
CONTINUOUS
 62
    7
 10
2992.2347871625702
 20
10328.77607086319
 40
235.69226138958345
 50
308.64561369218313
 51
319.93931621337401
  0
ARC
  8
_0-1_レイヤ___3
  6
CONTINUOUS
 62
    7
 10
2960.4618736842758
 20
10365.479091458477
 40
284.20673230090335
 50
290.99190648966874
 51
309.02750531113179
  0
ARC
  8
_0-1_レイヤ___3
  6
CONTINUOUS
 62
    7
 10
2942.8450974676571
 20
10406.382265239659
 40
328.71106836472256
 50
275.23989776005084
 51
291.30471065578644
  0
ARC
  8
_0-1_レイヤ___3
  6
CONTINUOUS
 62
    7
 10
2933.3314294848797
 20
10472.607947244771
 40
395.54367739998719
 50
269.90056530728111
 51
275.7361394878485
  0
ARC
  8
_0-1_レイヤ___3
  6
CONTINUOUS
 62
    7
 10
3903.1359024184721
 20
10245.502223718282
 40
100.9301022778378
 50
212.6398798239172
 51
215.49787433129242
  0
ARC
  8
_0-1_レイヤ___3
  6
CONTINUOUS
 62
    7
 10
3991.3695716263919
 20
10307.897661200306
 40
208.99618857862353
 50
215.37822275321037
 51
221.38579856980323
  0
ARC
  8
_0-1_レイヤ___3
  6
CONTINUOUS
 62
    7
 10
4064.9105060690144
 20
10370.546924357084
 40
305.59543296261558
 50
221.08288158398486
 51
231.23889547893262
  0
ARC
  8
_0-1_レイヤ___3
  6
CONTINUOUS
 62
    7
 10
4102.0086688357251
 20
10414.07234736759
 40
362.76505117262622
 50
230.97392841287277
 51
251.35559700804205
  0
ARC
  8
_0-1_レイヤ___3
  6
CONTINUOUS
 62
    7
 10
4123.9508354280351
 20
10469.392114969156
 40
422.20788163462777
 50
250.93419070460283
 51
264.01594659401269
  0
ARC
  8
_0-1_レイヤ___3
  6
CONTINUOUS
 62
    7
 10
4134.6784633483649
 20
10543.953934779158
 40
497.49021243479604
 50
263.68241581180405
 51
270.12282821034069
  0
ARC
  8
_0-1_レイヤ___3
  6
CONTINUOUS
 62
    7
 10
4368.2204845955894
 20
10245.524901377848
 40
100.97057184265014
 50
324.50269853743714
 51
327.35954730734244
  0
ARC
  8
_0-1_レイヤ___3
  6
CONTINUOUS
 62
    7
 10
4279.9578399439215
 20
10307.947182752338
 40
209.07582711155086
 50
318.61534450837905
 51
324.62063006759627
  0
ARC
  8
_0-1_レイヤ___3
  6
CONTINUOUS
 62
    7
 10
4206.4223422357136
 20
10370.555274237853
 40
305.6439400285019
 50
308.76992882127729
 51
318.92296918084389
  0
ARC
  8
_0-1_レイヤ___3
  6
CONTINUOUS
 62
    7
 10
4169.3925160569397
 20
10414.01384715665
 40
362.71881065871611
 50
288.65165821912319
 51
309.03173518611663
  0
ARC
  8
_0-1_レイヤ___3
  6
CONTINUOUS
 62
    7
 10
4147.5215130883234
 20
10469.116770693026
 40
421.93378546990107
 50
275.98762352174981
 51
289.07257752973084
  0
ARC
  8
_0-1_レイヤ___3
  6
CONTINUOUS
 62
    7
 10
4136.8119729612963
 20
10543.581941679005
 40
497.11822129585721
 50
269.87702048518202
 51
276.31995190691799
  0
ARC
  8
_0-1_レイヤ___3
  6
CONTINUOUS
 62
    7
 10
3268.0773129267836
 20
10136.864055111695
 40
100.75331131326293
 50
144.59559624777279
 51
147.4554239348027
  0
ARC
  8
_0-1_レイヤ___3
  6
CONTINUOUS
 62
    7
 10
3356.2484252304803
 20
10074.411363475112
 40
208.80176608438552
 50
138.63276352575616
 51
144.64423277713306
  0
ARC
  8
_0-1_レイヤ___3
  6
CONTINUOUS
 62
    7
 10
3429.7374105803892
 20
10011.8442922704
 40
305.30820552446175
 50
128.77234981341056
 51
138.93522570002384
  0
ARC
  8
_0-1_レイヤ___3
  6
CONTINUOUS
 62
    7
 10
3466.8369067735489
 20
9968.371577944823
 40
362.43800299241201
 50
108.64653575148515
 51
129.04116467412436
  0
ARC
  8
_0-1_レイヤ___3
  6
CONTINUOUS
 62
    7
 10
3488.8272077596912
 20
9912.9762153736719
 40
421.96811429374492
 50
95.984239010059753
 51
109.07079207541342
  0
ARC
  8
_0-1_レイヤ___3
  6
CONTINUOUS
 62
    7
 10
3499.5756037211731
 20
9838.2288048303435
 40
497.43720610568312
 50
89.876828286418601
 51
96.317927691436694
  0
ARC
  8
_0-1_レイヤ___3
  6
CONTINUOUS
 62
    7
 10
3733.2126270732165
 20
10136.864055111695
 40
100.75331131326293
 50
32.544576065197333
 51
35.404403752227225
  0
ARC
  8
_0-1_レイヤ___3
  6
CONTINUOUS
 62
    7
 10
3645.0415147695194
 20
10074.411363475116
 40
208.8017660843839
 50
35.355767222866348
 51
41.367236474243263
  0
ARC
  8
_0-1_レイヤ___3
  6
CONTINUOUS
 62
    7
 10
3571.5525289196112
 20
10011.844286647438
 40
305.30820959523646
 50
41.064775033949537
 51
51.227650920562823
  0
ARC
  8
_0-1_レイヤ___3
  6
CONTINUOUS
 62
    7
 10
3534.4530327264515
 20
9968.3715807244535
 40
362.43800051855209
 50
50.958835110488486
 51
71.353464033127693
  0
ARC
  8
_0-1_レイヤ___3
  6
CONTINUOUS
 62
    7
 10
3512.4627317403092
 20
9912.9762110145057
 40
421.96811857702875
 50
70.929208053815913
 51
84.015761119169582
  0
ARC
  8
_0-1_レイヤ___3
  6
CONTINUOUS
 62
    7
 10
3501.7143352788275
 20
9838.2288048303417
 40
497.43720610568568
 50
83.682072308563335
 51
90.123171713581428
  0
ARC
  8
_0-1_レイヤ___3
  6
CONTINUOUS
 62
    7
 10
4525.3422205972038
 20
10144.758611797966
 40
85.687131946333949
 50
144.22233369227664
 51
147.28839169838002
  0
ARC
  8
_0-1_レイヤ___3
  6
CONTINUOUS
 62
    7
 10
4587.9333291834591
 20
10100.105046321731
 40
162.57352260624702
 50
139.79746805852392
 51
144.35142471936425
  0
ARC
  8
_0-1_レイヤ___3
  6
CONTINUOUS
 62
    7
 10
4644.1551428374296
 20
10053.353656136806
 40
235.69226138958658
 50
128.64561369218239
 51
139.9393162133733
  0
ARC
  8
_0-1_レイヤ___3
  6
CONTINUOUS
 62
    7
 10
4675.9280563157245
 20
10016.650635541526
 40
284.20673230090256
 50
110.99190648966881
 51
129.02750531113188
  0
ARC
  8
_0-1_レイヤ___3
  6
CONTINUOUS
 62
    7
 10
4693.5448325323432
 20
9975.7474617603439
 40
328.71106836472171
 50
95.23989776005088
 51
111.30471065578651
  0
ARC
  8
_0-1_レイヤ___3
  6
CONTINUOUS
 62
    7
 10
4703.0585005151197
 20
9909.5217797552341
 40
395.54367739998446
 50
89.900565307281127
 51
95.736139487848547
  0
ARC
  8
_0-1_レイヤ___3
  6
CONTINUOUS
 62
    7
 10
4882.0522574000679
 20
10144.69365161669
 40
85.802528749314291
 50
32.713670581035714
 51
35.775604028307619
  0
ARC
  8
_0-1_レイヤ___3
  6
CONTINUOUS
 62
    7
 10
4819.3771080191218
 20
10099.843182261238
 40
162.87201205520404
 50
35.686637311100895
 51
40.234408467315632
  0
ARC
  8
_0-1_レイヤ___3
  6
CONTINUOUS
 62
    7
 10
4763.1075883337526
 20
10053.040033641475
 40
236.0603457731514
 50
40.085019287030654
 51
51.364546888739845
  0
ARC
  8
_0-1_レイヤ___3
  6
CONTINUOUS
 62
    7
 10
4730.5795676090074
 20
10015.304495598168
 40
285.85213691888589
 50
50.994118672633938
 51
70.768553175550778
  0
ARC
  8
_0-1_レイヤ___3
  6
CONTINUOUS
 62
    7
 10
4712.3525075039561
 20
9969.9544809317631
 40
334.68285969358885
 50
70.379545261701679
 51
85.909701547331878
  0
ARC
  8
_0-1_レイヤ___3
  6
CONTINUOUS
 62
    7
 10
4704.1991048106629
 20
9903.8590017582137
 40
401.2061167858443
 50
85.42155502647617
 51
90.06485712062026
  0
ARC
  8
_0-1_レイヤ___3
  6
CONTINUOUS
 62
    7
 10
5026.3422135971605
 20
10237.371115202033
 40
85.68713194629882
 50
212.71160830163598
 51
215.77766630773934
  0
ARC
  8
_0-1_レイヤ___3
  6
CONTINUOUS
 62
    7
 10
5088.9333216834584
 20
10282.024668103368
 40
162.57351487113877
 50
215.6485717820467
 51
220.20252844288706
  0
ARC
  8
_0-1_レイヤ___3
  6
CONTINUOUS
 62
    7
 10
5145.1551353374289
 20
10328.776075920005
 40
235.69226502682301
 50
220.06068464925102
 51
231.35438717044192
  0
ARC
  8
_0-1_レイヤ___3
  6
CONTINUOUS
 62
    7
 10
5176.9280493157239
 20
10365.479091458476
 40
284.20673230090256
 50
230.97249468886812
 51
249.00809351033121
  0
ARC
  8
_0-1_レイヤ___3
  6
CONTINUOUS
 62
    7
 10
5194.5448255323436
 20
10406.382265239663
 40
328.71106836472558
 50
248.69528934421368
 51
264.76010223994928
  0
ARC
  8
_0-1_レイヤ___3
  6
CONTINUOUS
 62
    7
 10
5204.0584935151201
 20
10472.607947244769
 40
395.54367739998446
 50
264.26386051215144
 51
270.09943469271889
  0
ARC
  8
_0-1_レイヤ___3
  6
CONTINUOUS
 62
    7
 10
5383.010595812525
 20
10237.39635671735
 40
85.731971558112647
 50
324.22313568968741
 51
327.28758970092554
  0
ARC
  8
_0-1_レイヤ___3
  6
CONTINUOUS
 62
    7
 10
5320.3920047659221
 20
10282.074987124006
 40
162.65530541513715
 50
319.79861352195292
 51
324.35027925592732
  0
ARC
  8
_0-1_レイヤ___3
  6
CONTINUOUS
 62
    7
 10
5264.1763201103695
 20
10328.790502511083
 40
235.74627358302268
 50
308.65641323357414
 51
319.94577183701176
  0
ARC
  8
_0-1_レイヤ___3
  6
CONTINUOUS
 62
    7
 10
5231.6520412381888
 20
10366.508648598377
 40
285.52275923748948
 50
289.23484954955984
 51
309.02520763831461
  0
ARC
  8
_0-1_レイヤ___3
  6
CONTINUOUS
 62
    7
 10
5213.3728799628461
 20
10411.957220456572
 40
334.46393574591821
 50
274.08948010602842
 51
289.62648034847984
  0
ARC
  8
_0-1_レイヤ___3
  6
CONTINUOUS
 62
    7
 10
5205.2006565325382
 20
10478.231147655228
 40
401.16654099227435
 50
269.93491385974318
 51
274.57867413198187
  0
ARC
  8
_0-1_レイヤ___3
  6
CONTINUOUS
 62
    7
 10
6175.1772699267367
 20
10245.265671888299
 40
100.75331131322194
 50
212.54457606520913
 51
215.40440375223901
  0
ARC
  8
_0-1_レイヤ___3
  6
CONTINUOUS
 62
    7
 10
6263.3483817304796
 20
10307.718354002554
 40
208.80176016648289
 50
215.35576517119864
 51
221.36723442257554
  0
ARC
  8
_0-1_レイヤ___3
  6
CONTINUOUS
 62
    7
 10
6336.8373670803885
 20
10370.285440352563
 40
305.30820959523527
 50
221.06477503394933
 51
231.22765092056261
  0
ARC
  8
_0-1_レイヤ___3
  6
CONTINUOUS
 62
    7
 10
6373.9368632735477
 20
10413.758146275548
 40
362.43800051855146
 50
230.95883511048842
 51
251.35346403312761
  0
ARC
  8
_0-1_レイヤ___3
  6
CONTINUOUS
 62
    7
 10
6395.9271642596905
 20
10469.153515985501
 40
421.96811857703369
 50
250.92920805381607
 51
264.01576111916972
  0
ARC
  8
_0-1_レイヤ___3
  6
CONTINUOUS
 62
    7
 10
6406.6755607211735
 20
10543.900922169661
 40
497.43720610568812
 50
263.68207230856331
 51
270.12317171358143
  0
ARC
  8
_0-1_レイヤ___3
  6
CONTINUOUS
 62
    7
 10
6640.3125830732624
 20
10245.265671888299
 40
100.75331131322194
 50
324.59559624776097
 51
327.45542393479087
  0
ARC
  8
_0-1_レイヤ___3
  6
CONTINUOUS
 62
    7
 10
6552.1414712695196
 20
10307.718354002558
 40
208.80176016648622
 50
318.63276557742324
 51
324.64423482880017
  0
ARC
  8
_0-1_レイヤ___3
  6
CONTINUOUS
 62
    7
 10
6478.6524859196106
 20
10370.285440352563
 40
305.30820959523527
 50
308.77234907943739
 51
318.93522496605067
  0
ARC
  8
_0-1_レイヤ___3
  6
CONTINUOUS
 62
    7
 10
6441.5529897264514
 20
10413.758146275548
 40
362.43800051855146
 50
288.64653596687236
 51
309.04116488951161
  0
ARC
  8
_0-1_レイヤ___3
  6
CONTINUOUS
 62
    7
 10
6419.5626887403087
 20
10469.153515985501
 40
421.96811857703369
 50
275.98423888083028
 51
289.07079194618393
  0
ARC
  8
_0-1_レイヤ___3
  6
CONTINUOUS
 62
    7
 10
6408.8142922788284
 20
10543.900922169647
 40
497.43720610567294
 50
269.87682828641869
 51
276.31792769143675
  0
ARC
  8
_0-1_レイヤ___3
  6
CONTINUOUS
 62
    7
 10
5540.1358774185173
 20
10136.627503281741
 40
100.93010227786282
 50
144.50212566873279
 51
147.36012017610801
  0
ARC
  8
_0-1_レイヤ___3
  6
CONTINUOUS
 62
    7
 10
5628.3695471263927
 20
10074.232056271167
 40
208.99619450304266
 50
138.6141993796889
 51
144.62177519628176
  0
ARC
  8
_0-1_レイヤ___3
  6
CONTINUOUS
 62
    7
 10
5701.9104815690162
 20
10011.582808269701
 40
305.59542888809415
 50
128.76110525464961
 51
138.91711914959737
  0
ARC
  8
_0-1_レイヤ___3
  6
CONTINUOUS
 62
    7
 10
5739.008644335725
 20
9968.0573768509767
 40
362.76505364824754
 50
108.64440277668834
 51
129.02607137185763
  0
ARC
  8
_0-1_レイヤ___3
  6
CONTINUOUS
 62
    7
 10
5760.9508109280341
 20
9912.7376163916269
 40
422.2078773497347
 50
95.984053535164293
 51
109.06580942457414
  0
ARC
  8
_0-1_レイヤ___3
  6
CONTINUOUS
 62
    7
 10
5771.6784383483646
 20
9838.1757922208435
 40
497.49021243479604
 50
89.877171789659343
 51
96.317584188195951
  0
ARC
  8
_0-1_レイヤ___3
  6
CONTINUOUS
 62
    7
 10
6005.2204605955449
 20
10136.604825622162
 40
100.97057184268152
 50
32.640452692637687
 51
35.497301462542985
  0
ARC
  8
_0-1_レイヤ___3
  6
CONTINUOUS
 62
    7
 10
5916.9578159439207
 20
10074.182544247664
 40
209.07582711155086
 50
35.379369932403733
 51
41.384655491620954
  0
ARC
  8
_0-1_レイヤ___3
  6
CONTINUOUS
 62
    7
 10
5843.4223182357146
 20
10011.574452762146
 40
305.6439400285019
 50
41.077030819156093
 51
51.230071178722717
  0
ARC
  8
_0-1_レイヤ___3
  6
CONTINUOUS
 62
    7
 10
5806.3924915569396
 20
9968.115877061693
 40
362.71881313437632
 50
50.968265029241259
 51
71.34834199623468
  0
ARC
  8
_0-1_レイヤ___3
  6
CONTINUOUS
 62
    7
 10
5784.5214885883233
 20
9913.0129606666815
 40
421.93378118613651
 50
70.927422340987263
 51
84.012376348968317
  0
ARC
  8
_0-1_レイヤ___3
  6
CONTINUOUS
 62
    7
 10
5773.8119484612971
 20
9838.5477764375537
 40
497.11823018035136
 50
83.680048148512199
 51
90.122979570248162
  0
ARC
  8
_0-1_レイヤ___3
  6
CONTINUOUS
 62
    7
 10
6797.3421865972032
 20
10144.758611797955
 40
85.687131946339932
 50
144.22233369227075
 51
147.28839169837414
  0
ARC
  8
_0-1_レイヤ___3
  6
CONTINUOUS
 62
    7
 10
6859.9332951834594
 20
10100.105046321725
 40
162.57352260625143
 50
139.79746805852193
 51
144.35142471936226
  0
ARC
  8
_0-1_レイヤ___3
  6
CONTINUOUS
 62
    7
 10
6916.1551093374292
 20
10053.353651079999
 40
235.69226502682088
 50
128.64561282955856
 51
139.93931535074947
  0
ARC
  8
_0-1_レイヤ___3
  6
CONTINUOUS
 62
    7
 10
6947.9280228157231
 20
10016.650638692066
 40
284.20672953857724
 50
110.99190681131051
 51
129.0275056327736
  0
ARC
  8
_0-1_レイヤ___3
  6
CONTINUOUS
 62
    7
 10
6965.5447985323426
 20
9975.7474617603402
 40
328.71106836472558
 50
95.239897760050724
 51
111.30471065578634
  0
ARC
  8
_0-1_レイヤ___3
  6
CONTINUOUS
 62
    7
 10
6975.0584670151202
 20
9909.5217699453515
 40
395.54368721071808
 50
89.900565237320635
 51
95.736139417888069
  0
ARC
  8
_0-1_レイヤ___3
  6
CONTINUOUS
 62
    7
 10
7154.1476494027975
 20
10144.758611797955
 40
85.687131946339932
 50
32.711608301625859
 51
35.777666307729241
  0
ARC
  8
_0-1_レイヤ___3
  6
CONTINUOUS
 62
    7
 10
7091.5565408165412
 20
10100.105046321725
 40
162.57352260625143
 50
35.648575280637729
 51
40.202531941478085
  0
ARC
  8
_0-1_レイヤ___3
  6
CONTINUOUS
 62
    7
 10
7035.3347266625697
 20
10053.353651079993
 40
235.69226502682505
 50
40.060684649251506
 51
51.354387170442408
  0
ARC
  8
_0-1_レイヤ___3
  6
CONTINUOUS
 62
    7
 10
7003.5618131842766
 20
10016.650638692066
 40
284.20672953857724
 50
50.972494367226417
 51
69.008093188689486
  0
ARC
  8
_0-1_レイヤ___3
  6
CONTINUOUS
 62
    7
 10
6985.945037467658
 20
9975.7474617603439
 40
328.71106836472171
 50
68.695289344213506
 51
84.760102239949134
  0
ARC
  8
_0-1_レイヤ___3
  6
CONTINUOUS
 62
    7
 10
6976.4313694848806
 20
9909.5217797552341
 40
395.54367739998446
 50
84.263860512151453
 51
90.099434692718887
  0
ARC
  8
_0-2_決定
  6
CONTINUOUS
 62
    7
 10
786.75111830573178
 20
1125.6864264124672
 40
5.6101996334769186
 50
322.84420314905566
 51
38.488196791308653
  0
ARC
  8
_0-2_決定
  6
CONTINUOUS
 62
    7
 10
781.18427044158557
 20
1129.1931124626938
 40
12.178168210660985
 50
301.03258093953184
 51
325.51501976283402
  0
ARC
  8
_0-2_決定
  6
CONTINUOUS
 62
    7
 10
775.1942144889814
 20
1138.0468077278824
 40
22.85976624619893
 50
277.41004407489163
 51
302.45741721894547
  0
ARC
  8
_0-2_決定
  6
CONTINUOUS
 62
    7
 10
768.25159222791228
 20
1137.5898368013354
 40
24.314529757446831
 50
267.52693198907531
 51
294.00315528441251
  0
ARC
  8
_0-2_決定
  6
CONTINUOUS
 62
    7
 10
768.04409276926799
 20
1124.9266312182997
 40
11.659097520194805
 50
241.73221939205558
 51
265.86023217815944
  0
ARC
  8
_0-2_決定
  6
CONTINUOUS
 62
    7
 10
765.41388819553447
 20
1119.5552588502314
 40
5.6871924341485292
 50
175.73762308631578
 51
239.44158826599187
  0
ARC
  8
_0-2_決定
  6
CONTINUOUS
 62
    7
 10
763.99387060595723
 20
1123.3058653757203
 40
5.399053922059684
 50
159.93784465628551
 51
218.05284535106605
  0
ARC
  8
_0-2_決定
  6
CONTINUOUS
 62
    7
 10
767.33585329287064
 20
1121.9721619834834
 40
8.9963898532608688
 50
130.25537748629057
 51
159.26054939640412
  0
ARC
  8
_0-2_決定
  6
CONTINUOUS
 62
    7
 10
773.30501612220246
 20
1115.760612506421
 40
17.602450925934786
 50
111.67947696468119
 51
132.01862567343238
  0
ARC
  8
_0-2_決定
  6
CONTINUOUS
 62
    7
 10
776.50767071081759
 20
1108.8471366328872
 40
25.213541739763063
 50
98.588346664485243
 51
112.63889341481193
  0
ARC
  8
_0-2_決定
  6
CONTINUOUS
 62
    7
 10
782.49270007642076
 20
1111.7774781783119
 40
24.064263008325032
 50
87.45219851114706
 51
113.90218944403433
  0
ARC
  8
_0-2_決定
  6
CONTINUOUS
 62
    7
 10
782.70508376755515
 20
1123.6952945816511
 40
12.152937428051926
 50
61.722606888483732
 51
85.954648098073804
  0
ARC
  8
_0-2_決定
  6
CONTINUOUS
 62
    7
 10
785.6832297306579
 20
1129.6731170153439
 40
5.4816062803657353
 50
354.81730010468897
 51
59.535531624671322
  0
ARC
  8
_0-2_決定
  6
CONTINUOUS
 62
    7
 10
837.73329934901108
 20
1183.1165978691572
 40
27.107216866989525
 50
283.67629472941695
 51
301.06876747027843
  0
ARC
  8
_0-2_決定
  6
CONTINUOUS
 62
    7
 10
848.8820935355343
 20
1164.3276748106589
 40
5.2621229080112686
 50
302.66793200020044
 51
322.96046638623352
  0
ARC
  8
_0-2_決定
  6
CONTINUOUS
 62
    7
 10
852.04956139927162
 20
1161.9643676237156
 40
1.3103877181882724
 50
322.01879957676135
 51
9.3806455248424889
  0
ARC
  8
_0-2_決定
  6
CONTINUOUS
 62
    7
 10
852.17606686056092
 20
1161.8061368974386
 40
1.2241890245955347
 50
17.681352118995289
 51
59.226066314389875
  0
ARC
  8
_0-2_決定
  6
CONTINUOUS
 62
    7
 10
850.91896448372745
 20
1159.6278853462061
 40
3.7390843417092938
 50
59.75340949555909
 51
80.712253150858587
  0
ARC
  8
_0-2_決定
  6
CONTINUOUS
 62
    7
 10
849.39225114630165
 20
1152.2058919202784
 40
11.314393746688172
 50
79.14808927014505
 51
91.163909979702865
  0
ARC
  8
_0-2_決定
  6
CONTINUOUS
 62
    7
 10
849.71119346302044
 20
1137.3763669203286
 40
26.147343592704861
 50
91.202584398109991
 51
105.45724051765934
  0
ARC
  8
_0-2_決定
  6
CONTINUOUS
 62
    7
 10
848.77203148420449
 20
1136.9306342543293
 40
26.346556037011311
 50
103.22981481161834
 51
120.89889105669474
  0
ARC
  8
_0-2_決定
  6
CONTINUOUS
 62
    7
 10
838.19333400151652
 20
1154.8513864239994
 40
5.5382081764165321
 50
122.19668177246281
 51
141.7777432191933
  0
ARC
  8
_0-2_決定
  6
CONTINUOUS
 62
    7
 10
834.91598352352275
 20
1157.3942536444779
 40
1.3904847786389876
 50
140.54054555487969
 51
188.94921703898595
  0
ARC
  8
_0-2_決定
  6
CONTINUOUS
 62
    7
 10
834.70878446965855
 20
1157.5497655870161
 40
1.224189024595064
 50
197.68135211901276
 51
239.22606631440735
  0
ARC
  8
_0-2_決定
  6
CONTINUOUS
 62
    7
 10
835.96588684649282
 20
1159.7280171382486
 40
3.7390843417092938
 50
239.75340949555908
 51
260.7122531508586
  0
ARC
  8
_0-2_決定
  6
CONTINUOUS
 62
    7
 10
837.49260018391828
 20
1167.1500105641744
 40
11.314393746686145
 50
259.14808927014417
 51
271.163909979702
  0
ARC
  8
_0-2_決定
  6
CONTINUOUS
 62
    7
 10
837.17365786720075
 20
1181.9795355641256
 40
26.147343592704324
 50
271.20258439810635
 51
285.45724051765569
  0
ARC
  8
_0-2_決定
  6
CONTINUOUS
 62
    7
 10
811.83903057305861
 20
1440.191289971674
 40
3.7916568414579115
 50
347.61330464477328
 51
35.589718419245671
  0
ARC
  8
_0-2_決定
  6
CONTINUOUS
 62
    7
 10
807.94386266040146
 20
1437.9145257257828
 40
8.2946615425106849
 50
32.718971113154318
 51
47.173376786729293
  0
ARC
  8
_0-2_決定
  6
CONTINUOUS
 62
    7
 10
802.78393743645006
 20
1432.4651663984116
 40
15.799125988990196
 50
46.88331055329914
 51
68.234363328597908
  0
ARC
  8
_0-2_決定
  6
CONTINUOUS
 62
    7
 10
798.86185382495592
 20
1424.4284680725661
 40
24.726100171229678
 50
66.699308396100335
 51
73.842923627351794
  0
ARC
  8
_0-2_決定
  6
CONTINUOUS
 62
    7
 10
800.46049467847774
 20
1428.1682374684151
 40
20.695102806696241
 50
75.213015211995355
 51
95.206723343279833
  0
ARC
  8
_0-2_決定
  6
CONTINUOUS
 62
    7
 10
799.48933094797894
 20
1439.1453927982227
 40
9.6751528312892603
 50
95.378544495897387
 51
122.13875619977981
  0
ARC
  8
_0-2_決定
  6
CONTINUOUS
 62
    7
 10
796.45329961605501
 20
1444.3501801344096
 40
3.6582155660016258
 50
125.24141664602755
 51
163.68322777001737
  0
ARC
  8
_0-2_決定
  6
CONTINUOUS
 62
    7
 10
796.63873571409226
 20
1444.5631499675153
 40
3.7850498777541075
 50
167.56879331357541
 51
215.63422975044614
  0
ARC
  8
_0-2_決定
  6
CONTINUOUS
 62
    7
 10
800.35375407327808
 20
1446.7594536137112
 40
8.0929228271251201
 50
212.94754831570404
 51
227.65509064969262
  0
ARC
  8
_0-2_決定
  6
CONTINUOUS
 62
    7
 10
805.1316378973595
 20
1451.8666671196324
 40
15.086301449062148
 50
227.30883097313054
 51
249.47616453437206
  0
ARC
  8
_0-2_決定
  6
CONTINUOUS
 62
    7
 10
808.47866386942678
 20
1458.9663751510971
 40
22.917913556949195
 50
247.86231856323184
 51
255.50503305653604
  0
ARC
  8
_0-2_決定
  6
CONTINUOUS
 62
    7
 10
808.07363449159664
 20
1456.9979476702713
 40
20.91100678737677
 50
255.22952591394687
 51
275.34741219385216
  0
ARC
  8
_0-2_決定
  6
CONTINUOUS
 62
    7
 10
809.13300927034902
 20
1445.8303874100623
 40
9.6933308370706559
 50
275.26460764463536
 51
302.08879581974492
  0
ARC
  8
_0-2_決定
  6
CONTINUOUS
 62
    7
 10
812.28513312724976
 20
1440.3788498545589
 40
3.4076033684353431
 50
305.88273448125005
 51
342.9188256008128
  0
ARC
  8
_0-2_決定
  6
CONTINUOUS
 62
    7
 10
831.95925961263367
 20
1367.7611152947038
 40
4.5868247042317503
 50
272.28860565918131
 51
357.7113943408196
  0
ARC
  8
_0-2_決定
  6
CONTINUOUS
 62
    7
 10
832.32559171758612
 20
1367.7611152947038
 40
4.5868247042317876
 50
182.28860565918086
 51
267.7113943408192
  0
ARC
  8
_0-2_決定
  6
CONTINUOUS
 62
    7
 10
832.32559171758578
 20
1367.394783189751
 40
4.5868247042314918
 50
92.288605659177165
 51
177.71139434081547
  0
ARC
  8
_0-2_決定
  6
CONTINUOUS
 62
    7
 10
831.95925961263401
 20
1367.394783189751
 40
4.5868247042314554
 50
2.2886056591840824
 51
87.711394340822395
  0
ARC
  8
_0-2_決定
  6
CONTINUOUS
 62
    7
 10
810.12087003754368
 20
1275.1893772341627
 40
2.421582583908541
 50
275.24945117444418
 51
359.72965466956026
  0
ARC
  8
_0-2_決定
  6
CONTINUOUS
 62
    7
 10
810.35549314615855
 20
1274.6999840953165
 40
1.922077274048986
 50
202.70942320342903
 51
269.61046452663089
  0
ARC
  8
_0-2_決定
  6
CONTINUOUS
 62
    7
 10
811.32710135844991
 20
1275.1314940015723
 40
2.9850372308603408
 50
179.10824854782567
 51
203.15013003138083
  0
ARC
  8
_0-2_決定
  6
CONTINUOUS
 62
    7
 10
810.54977679152012
 20
1275.1803593091274
 40
2.2073524399265492
 50
95.390116293196456
 51
180.06250569462441
  0
ARC
  8
_0-2_決定
  6
CONTINUOUS
 62
    7
 10
810.24726897272149
 20
1275.082794549839
 40
2.2971284332231172
 50
2.3741107609603378
 51
87.625889239028538
  0
ARC
  8
_0-2_決定
  6
CONTINUOUS
 62
    7
 10
820.57360955847798
 20
1218.264810371099
 40
1.1720390775866125
 50
312.30126513390604
 51
355.74994694126269
  0
ARC
  8
_0-2_決定
  6
CONTINUOUS
 62
    7
 10
819.50850031188963
 20
1219.4100885211415
 40
2.7360072449665864
 50
287.30670179976522
 51
312.65657693795919
  0
ARC
  8
_0-2_決定
  6
CONTINUOUS
 62
    7
 10
818.96162782745637
 20
1220.895683132969
 40
4.3177745892262447
 50
269.74519131004098
 51
288.37058494717417
  0
ARC
  8
_0-2_決定
  6
CONTINUOUS
 62
    7
 10
818.84169364375566
 20
1220.5365954086917
 40
3.9599255771805328
 50
226.63080744987334
 51
271.45763908886829
  0
ARC
  8
_0-2_決定
  6
CONTINUOUS
 62
    7
 10
816.79402667473084
 20
1218.1815823609418
 40
0.8516087509005345
 50
180.24430045774434
 51
217.94268354319141
  0
ARC
  8
_0-2_決定
  6
CONTINUOUS
 62
    7
 10
816.8720197293319
 20
1218.0990817526517
 40
0.9329338243532286
 50
127.62860890915356
 51
175.15047175892727
  0
ARC
  8
_0-2_決定
  6
CONTINUOUS
 62
    7
 10
818.05492103810025
 20
1216.6329604962475
 40
2.8165979873259639
 50
104.65292302566966
 51
128.47717932849255
  0
ARC
  8
_0-2_決定
  6
CONTINUOUS
 62
    7
 10
818.93031346632574
 20
1213.7378581424723
 40
5.8401056599314209
 50
89.881170237511384
 51
105.77698278259278
  0
ARC
  8
_0-2_決定
  6
CONTINUOUS
 62
    7
 10
819.05856623959039
 20
1214.9970264964304
 40
4.5823967702169455
 50
67.089967754445937
 51
91.452313649526218
  0
ARC
  8
_0-2_決定
  6
CONTINUOUS
 62
    7
 10
820.39337079967845
 20
1217.9199229932965
 40
1.3735092308353258
 50
10.827956696258671
 51
70.916859898693616
  0
ARC
  8
_0-2_決定
  6
CONTINUOUS
 62
    7
 10
841.57360955847798
 20
1244.8648103710989
 40
1.1720390775866547
 50
312.30126513390184
 51
355.74994694125849
  0
ARC
  8
_0-2_決定
  6
CONTINUOUS
 62
    7
 10
840.50850031189054
 20
1246.0100885211414
 40
2.7360072449659607
 50
287.30670179974931
 51
312.65657693794327
  0
ARC
  8
_0-2_決定
  6
CONTINUOUS
 62
    7
 10
839.96162782745478
 20
1247.4956831329691
 40
4.3177745892265209
 50
269.745191310064
 51
288.37058494719719
  0
ARC
  8
_0-2_決定
  6
CONTINUOUS
 62
    7
 10
839.84169364375566
 20
1247.1365954086914
 40
3.9599255771805328
 50
226.63080744987334
 51
271.45763908886829
  0
ARC
  8
_0-2_決定
  6
CONTINUOUS
 62
    7
 10
837.79402667473107
 20
1244.7815823609417
 40
0.8516087509007424
 50
180.24430045773951
 51
217.94268354318655
  0
ARC
  8
_0-2_決定
  6
CONTINUOUS
 62
    7
 10
837.8720197293319
 20
1244.6990817526516
 40
0.9329338243532286
 50
127.62860890915356
 51
175.15047175892727
  0
ARC
  8
_0-2_決定
  6
CONTINUOUS
 62
    7
 10
839.05492103809991
 20
1243.2329604962474
 40
2.8165979873258093
 50
104.65292302566341
 51
128.4771793284863
  0
ARC
  8
_0-2_決定
  6
CONTINUOUS
 62
    7
 10
839.93031346632563
 20
1240.3378581424722
 40
5.8401056599314209
 50
89.881170237511384
 51
105.77698278259278
  0
ARC
  8
_0-2_決定
  6
CONTINUOUS
 62
    7
 10
840.05856623959176
 20
1241.5970264964305
 40
4.5823967702166941
 50
67.089967754462492
 51
91.452313649542774
  0
ARC
  8
_0-2_決定
  6
CONTINUOUS
 62
    7
 10
841.39337079967822
 20
1244.5199229932966
 40
1.3735092308356474
 50
10.827956696247055
 51
70.916859898681992
  0
ARC
  8
_0-2_決定
  6
CONTINUOUS
 62
    7
 10
853.36014272393277
 20
1408.6432856870535
 40
9.5832291341629379
 50
344.22477519096117
 51
0.8051469082894714
  0
ARC
  8
_0-2_決定
  6
CONTINUOUS
 62
    7
 10
859.27087920884537
 20
1406.8121895250242
 40
3.4008510622349108
 50
320.69550911121382
 51
346.8406110224762
  0
ARC
  8
_0-2_決定
  6
CONTINUOUS
 62
    7
 10
861.30477081275308
 20
1405.1532589469407
 40
0.7762235671049808
 50
272.78052777936438
 51
320.34957457482648
  0
ARC
  8
_0-2_決定
  6
CONTINUOUS
 62
    7
 10
861.43352833271206
 20
1405.1719479844751
 40
0.7992081698379818
 50
212.89054707003393
 51
263.45455977662903
  0
ARC
  8
_0-2_決定
  6
CONTINUOUS
 62
    7
 10
863.69437636643909
 20
1406.7084528198434
 40
3.5325938436823789
 50
192.26603391535548
 51
213.90423343026558
  0
ARC
  8
_0-2_決定
  6
CONTINUOUS
 62
    7
 10
871.37804283020034
 20
1408.5685468129805
 40
11.437534232686787
 50
178.95094995602724
 51
193.19396285837675
  0
ARC
  8
_0-2_決定
  6
CONTINUOUS
 62
    7
 10
870.78472140780832
 20
1408.9423620084269
 40
10.843542250105543
 50
165.16911754916455
 51
180.86876763717044
  0
ARC
  8
_0-2_決定
  6
CONTINUOUS
 62
    7
 10
863.0362749207211
 20
1411.1510246144217
 40
2.7920127660912684
 50
138.58540418929866
 51
168.28449345654539
  0
ARC
  8
_0-2_決定
  6
CONTINUOUS
 62
    7
 10
861.35564282024598
 20
1412.6141333419259
 40
0.5639707994415883
 50
91.342900282268332
 51
137.11259035370264
  0
ARC
  8
_0-2_決定
  6
CONTINUOUS
 62
    7
 10
861.21000370934496
 20
1412.3051777331248
 40
0.8827602627384463
 50
33.932559252937182
 51
81.372553748159689
  0
ARC
  8
_0-2_決定
  6
CONTINUOUS
 62
    7
 10
858.83388783932719
 20
1410.5286567458813
 40
3.8487265229287737
 50
15.51181976611908
 51
36.13016418224197
  0
ARC
  8
_0-2_決定
  6
CONTINUOUS
 62
    7
 10
853.56969332418828
 20
1408.8481316392165
 40
9.3729950978013683
 50
359.57098102819828
 51
16.804622995614551
  0
ARC
  8
_0-2_決定
  6
CONTINUOUS
 62
    7
 10
881.30012792241178
 20
1370.4135364760277
 40
10.843542250105511
 50
345.16911754916589
 51
0.8687676371717759
  0
ARC
  8
_0-2_決定
  6
CONTINUOUS
 62
    7
 10
889.04857440949831
 20
1368.2048738700328
 40
2.7920127660920739
 50
318.58540418930374
 51
348.28449345655048
  0
ARC
  8
_0-2_決定
  6
CONTINUOUS
 62
    7
 10
890.72920650997457
 20
1366.7417651425287
 40
0.5639707994413635
 50
271.34290028221756
 51
317.11259035365185
  0
ARC
  8
_0-2_決定
  6
CONTINUOUS
 62
    7
 10
890.85075309793615
 20
1366.9759257449621
 40
0.8052960728410236
 50
211.26751477124077
 51
262.26906309283777
  0
ARC
  8
_0-2_決定
  6
CONTINUOUS
 62
    7
 10
893.34104710886425
 20
1368.5604586953536
 40
3.756819280594164
 50
191.71050118858835
 51
212.21062685159475
  0
ARC
  8
_0-2_決定
  6
CONTINUOUS
 62
    7
 10
900.67754785481497
 20
1370.4742944726977
 40
11.33559811863865
 50
179.47606967650822
 51
193.65652756499074
  0
ARC
  8
_0-2_決定
  6
CONTINUOUS
 62
    7
 10
900.18471940780614
 20
1370.7423620084273
 40
10.843542250103443
 50
165.16911754916458
 51
180.86876763717046
  0
ARC
  8
_0-2_決定
  6
CONTINUOUS
 62
    7
 10
892.4362729207221
 20
1372.9510246144216
 40
2.7920127660923217
 50
138.58540418930627
 51
168.28449345655304
  0
ARC
  8
_0-2_決定
  6
CONTINUOUS
 62
    7
 10
890.75564082024539
 20
1374.4141333419259
 40
0.5639707994413635
 50
91.342900282217542
 51
137.11259035365185
  0
ARC
  8
_0-2_決定
  6
CONTINUOUS
 62
    7
 10
890.63409423228393
 20
1374.1799727394925
 40
0.8052960728410236
 50
31.267514771240783
 51
82.269063092837754
  0
ARC
  8
_0-2_決定
  6
CONTINUOUS
 62
    7
 10
888.14380022135583
 20
1372.595439789101
 40
3.756819280594164
 50
11.71050118858834
 51
32.210626851594746
  0
ARC
  8
_0-2_決定
  6
CONTINUOUS
 62
    7
 10
880.80729947540681
 20
1370.6816040117569
 40
11.335598118636936
 50
359.47606967650921
 51
13.656527564991709
  0
ARC
  8
_0-2_決定
  6
CONTINUOUS
 62
    7
 10
805.14271032632564
 20
1326.0396951026212
 40
10.454215078155913
 50
156.68128296764618
 51
172.31363944910458
  0
ARC
  8
_0-2_決定
  6
CONTINUOUS
 62
    7
 10
797.47024367156655
 20
1326.8462086996658
 40
2.7521850420242306
 50
167.58403018934095
 51
212.24147270408935
  0
ARC
  8
_0-2_決定
  6
CONTINUOUS
 62
    7
 10
795.258170681862
 20
1326.4603078191972
 40
1.0885297414598962
 50
263.89611373285686
 51
307.60623359406952
  0
ARC
  8
_0-2_決定
  6
CONTINUOUS
 62
    7
 10
793.12276887729524
 20
1329.4776060300424
 40
4.7843301433739409
 50
305.81515301549757
 51
324.18484698449862
  0
ARC
  8
_0-2_決定
  6
CONTINUOUS
 62
    7
 10
787.40225880984758
 20
1333.8114377579031
 40
11.960345398530823
 50
323.38548026723043
 51
336.16362028285204
  0
ARC
  8
_0-2_決定
  6
CONTINUOUS
 62
    7
 10
787.80383606786143
 20
1333.0482275703339
 40
11.297302172089283
 50
338.88213802583169
 51
354.15608234431193
  0
ARC
  8
_0-2_決定
  6
CONTINUOUS
 62
    7
 10
796.43373736459671
 20
1332.3089562935975
 40
2.640867555465662
 50
351.0464699765223
 51
21.993133526778735
  0
ARC
  8
_0-2_決定
  6
CONTINUOUS
 62
    7
 10
798.4168857768999
 20
1333.0790793779724
 40
0.514423371352488
 50
25.180189118496063
 51
75.874891184797818
  0
ARC
  8
_0-2_決定
  6
CONTINUOUS
 62
    7
 10
798.29834033202997
 20
1333.0551439053513
 40
0.5769775299705366
 50
64.97325211851242
 51
123.19798144150546
  0
ARC
  8
_0-2_決定
  6
CONTINUOUS
 62
    7
 10
799.7529067251221
 20
1330.6750414145938
 40
3.3661319661274396
 50
121.7334987074866
 51
143.06137688749303
  0
ARC
  8
_0-2_決定
  6
CONTINUOUS
 62
    7
 10
805.98789351184735
 20
1325.5959210172111
 40
11.406260613894041
 50
141.49060239243812
 51
156.31477183600168
  0
ARC
  8
_0-2_決定
  6
CONTINUOUS
 62
    7
 10
719.63985840763087
 20
1210.551512620432
 40
9.8502313293524786
 50
154.59144639061327
 51
171.32068573674988
  0
ARC
  8
_0-2_決定
  6
CONTINUOUS
 62
    7
 10
712.7138410631153
 20
1211.4840872083118
 40
2.8654512144772597
 50
168.85513282255178
 51
197.59391239047895
  0
ARC
  8
_0-2_決定
  6
CONTINUOUS
 62
    7
 10
710.71969935830327
 20
1210.8539008093856
 40
0.7741070648343826
 50
197.74626657494733
 51
240.83254715006348
  0
ARC
  8
_0-2_決定
  6
CONTINUOUS
 62
    7
 10
710.48701972311756
 20
1211.2995830101959
 40
1.1309132089402096
 50
262.65438494129364
 51
305.41810199458564
  0
ARC
  8
_0-2_決定
  6
CONTINUOUS
 62
    7
 10
708.95742414549522
 20
1213.5429547618426
 40
3.845970314485752
 50
304.61979014945086
 51
325.38020985054914
  0
ARC
  8
_0-2_決定
  6
CONTINUOUS
 62
    7
 10
705.17258092877182
 20
1216.3791136464968
 40
8.5739396748892833
 50
324.15244050781791
 51
342.33926854733943
  0
ARC
  8
_0-2_決定
  6
CONTINUOUS
 62
    7
 10
704.44499692258762
 20
1218.0043898640226
 40
9.850231329353953
 50
334.59144639061441
 51
351.32068573675105
  0
ARC
  8
_0-2_決定
  6
CONTINUOUS
 62
    7
 10
711.37101426710444
 20
1217.0718152761426
 40
2.8654512144775532
 50
348.85513282255431
 51
17.593912390481485
  0
ARC
  8
_0-2_決定
  6
CONTINUOUS
 62
    7
 10
713.36515597191692
 20
1217.7020016750691
 40
0.7741070648341714
 50
17.746266574950852
 51
60.832547150067022
  0
ARC
  8
_0-2_決定
  6
CONTINUOUS
 62
    7
 10
713.62811903429645
 20
1217.4078984549637
 40
0.976764492166135
 50
83.279398848926661
 51
129.83474390236358
  0
ARC
  8
_0-2_決定
  6
CONTINUOUS
 62
    7
 10
715.86685912446478
 20
1214.5939945820887
 40
4.5723904755268236
 50
128.78961643324354
 51
147.6897841589572
  0
ARC
  8
_0-2_決定
  6
CONTINUOUS
 62
    7
 10
724.18087873716036
 20
1208.7669563967495
 40
14.721549723050538
 50
145.81761406399568
 51
155.9011184692277
  0
ARC
  8
_0-2_決定
  6
CONTINUOUS
 62
    7
 10
859.9578163032055
 20
1294.2743589796037
 40
5.7855368300910639
 50
323.06709597604822
 51
1.0259379897876786
  0
ARC
  8
_0-2_決定
  6
CONTINUOUS
 62
    7
 10
862.81828120663386
 20
1292.2762381591788
 40
2.301639370612464
 50
273.09188616621446
 51
320.03821618794944
  0
ARC
  8
_0-2_決定
  6
CONTINUOUS
 62
    7
 10
862.99880007249931
 20
1292.175111875699
 40
2.1978857367327906
 50
235.76912582819051
 51
268.53023756737286
  0
ARC
  8
_0-2_決定
  6
CONTINUOUS
 62
    7
 10
864.04807224964486
 20
1293.6265457735065
 40
3.9884713354475041
 50
191.69684911202191
 51
235.03588289009562
  0
ARC
  8
_0-2_決定
  6
CONTINUOUS
 62
    7
 10
865.99942206142828
 20
1294.3616667289343
 40
6.0570182817333054
 50
179.84597695239003
 51
194.76554211421924
  0
ARC
  8
_0-2_決定
  6
CONTINUOUS
 62
    7
 10
865.48348367680262
 20
1294.4194381284133
 40
5.5412133343356498
 50
141.90809749549317
 51
180.42899634840265
  0
ARC
  8
_0-2_決定
  6
CONTINUOUS
 62
    7
 10
863.1277724786105
 20
1296.1871713692794
 40
2.5973993586336555
 50
94.09202513363482
 51
140.5391908132496
  0
ARC
  8
_0-2_決定
  6
CONTINUOUS
 62
    7
 10
862.83126242368678
 20
1296.4184673323457
 40
2.3620990981123593
 50
26.649669902043534
 51
87.302594986359992
  0
ARC
  8
_0-2_決定
  6
CONTINUOUS
 62
    7
 10
860.04555680028443
 20
1294.5610153416278
 40
5.6998094757426401
 50
358.15946145623815
 51
30.781126743882982
  0
ARC
  8
_0-2_決定
  6
CONTINUOUS
 62
    7
 10
908.6257673139246
 20
1470.0582576643728
 40
4.118395938809428
 50
1.6653749373321205
 51
69.583691820813101
  0
ARC
  8
_0-2_決定
  6
CONTINUOUS
 62
    7
 10
907.02435968848931
 20
1467.260735716382
 40
7.3176702594397192
 50
65.470090829770285
 51
90.641554793343616
  0
ARC
  8
_0-2_決定
  6
CONTINUOUS
 62
    7
 10
906.80819273828115
 20
1466.9220612347835
 40
7.6570626548755865
 50
88.995533939634157
 51
122.24866658578402
  0
ARC
  8
_0-2_決定
  6
CONTINUOUS
 62
    7
 10
905.05137135382881
 20
1470.0085289546746
 40
4.1124388949608566
 50
124.4938575864211
 51
177.63894348397179
  0
ARC
  8
_0-2_決定
  6
CONTINUOUS
 62
    7
 10
904.63549223703342
 20
1470.2573792424585
 40
3.6939227008142037
 50
181.23215062976126
 51
228.80163632644835
  0
ARC
  8
_0-2_決定
  6
CONTINUOUS
 62
    7
 10
906.62138688919958
 20
1472.3409388199821
 40
6.5708388399935158
 50
227.73881644179281
 51
272.80046104874032
  0
ARC
  8
_0-2_決定
  6
CONTINUOUS
 62
    7
 10
906.99958575654989
 20
1472.4308230261249
 40
6.6531213502139899
 50
269.5077217578023
 51
319.81615007402928
  0
ARC
  8
_0-2_決定
  6
CONTINUOUS
 62
    7
 10
909.11629159427889
 20
1470.2243429122018
 40
3.6264288705699537
 50
324.87720907431799
 51
359.26695140167243
  0
ARC
  8
_0-2_決定
  6
CONTINUOUS
 62
    7
 10
915.42817638028907
 20
1157.2578451222873
 40
8.1205589048567468
 50
2.2591404206833472
 51
90.605051947646345
  0
ARC
  8
_0-2_決定
  6
CONTINUOUS
 62
    7
 10
915.60143951930581
 20
1156.8953961134575
 40
8.4865087477328078
 50
91.748990159805075
 51
175.38681747186772
  0
ARC
  8
_0-2_決定
  6
CONTINUOUS
 62
    7
 10
915.34335158082308
 20
1157.9891852590622
 40
8.2112320692647955
 50
182.87068178869174
 51
269.9935252525114
  0
ARC
  8
_0-2_決定
  6
CONTINUOUS
 62
    7
 10
915.09961303120247
 20
1158.2434722844173
 40
8.4690005111360414
 50
271.64292482625422
 51
355.4928681325402
  0
ARC
  8
_0-2_決定
  6
CONTINUOUS
 62
    7
 10
886.1119973560983
 20
1215.3003397438574
 40
3.2327438938594972
 50
305.78706357790867
 51
357.83031967449989
  0
ARC
  8
_0-2_決定
  6
CONTINUOUS
 62
    7
 10
882.99499155959643
 20
1218.8666667189843
 40
7.9608150049841697
 50
278.72382927774441
 51
308.97711853840673
  0
ARC
  8
_0-2_決定
  6
CONTINUOUS
 62
    7
 10
881.93853372899309
 20
1222.5360933132283
 40
11.758142714453495
 50
270.01895511319611
 51
281.10093941343905
  0
ARC
  8
_0-2_決定
  6
CONTINUOUS
 62
    7
 10
881.85404157912217
 20
1221.5866628920774
 40
10.809072990905976
 50
242.97382397201358
 51
270.4684931764865
  0
ARC
  8
_0-2_決定
  6
CONTINUOUS
 62
    7
 10
879.27256959781653
 20
1216.4306531265283
 40
5.0432760080089647
 50
205.01656454331035
 51
242.48183382717349
  0
ARC
  8
_0-2_決定
  6
CONTINUOUS
 62
    7
 10
877.15796463091033
 20
1215.1989583269176
 40
2.6156233251803935
 50
180.46016955918347
 51
200.14952337832665
  0
ARC
  8
_0-2_決定
  6
CONTINUOUS
 62
    7
 10
877.77285197412175
 20
1215.0555627405968
 40
3.2327438938594972
 50
125.78706357790864
 51
177.83031967449986
  0
ARC
  8
_0-2_決定
  6
CONTINUOUS
 62
    7
 10
880.88985777062453
 20
1211.4892357654703
 40
7.9608150049844877
 50
98.723829277752003
 51
128.97711853841432
  0
ARC
  8
_0-2_決定
  6
CONTINUOUS
 62
    7
 10
881.94631460122366
 20
1207.8198194793174
 40
11.758132406693466
 50
90.018960002663462
 51
101.10094430290636
  0
ARC
  8
_0-2_決定
  6
CONTINUOUS
 62
    7
 10
882.03080675109868
 20
1208.7692355048905
 40
10.809077086432541
 50
62.973829095392659
 51
90.468498299865601
  0
ARC
  8
_0-2_決定
  6
CONTINUOUS
 62
    7
 10
884.61227973240261
 20
1213.9252493579263
 40
5.0432760080096042
 50
25.016564543303378
 51
62.48183382716654
  0
ARC
  8
_0-2_決定
  6
CONTINUOUS
 62
    7
 10
886.72688469930949
 20
1215.1569441575366
 40
2.6156233251803935
 50
0.4601695591834489
 51
20.14952337832662
  0
ARC
  8
_0-2_決定
  6
CONTINUOUS
 62
    7
 10
783.33484500579982
 20
1225.0304340246716
 40
28.361452892702506
 50
146.9499719468449
 51
156.4153496453622
  0
ARC
  8
_0-2_決定
  6
CONTINUOUS
 62
    7
 10
765.45126740526314
 20
1237.0482434152798
 40
6.8248766385826851
 50
130.24037930887502
 51
149.63805177537219
  0
ARC
  8
_0-2_決定
  6
CONTINUOUS
 62
    7
 10
761.37357024863445
 20
1241.9798488108759
 40
0.4324323039749675
 50
67.015738184270248
 51
139.97572837738542
  0
ARC
  8
_0-2_決定
  6
CONTINUOUS
 62
    7
 10
761.2984577259341
 20
1241.8669300671484
 40
0.5662711335789877
 50
5.1693748686137351
 51
64.479603445322155
  0
ARC
  8
_0-2_決定
  6
CONTINUOUS
 62
    7
 10
757.45736850598689
 20
1241.3197583855363
 40
4.4454879674720154
 50
349.08443785943331
 51
7.7332815981794143
  0
ARC
  8
_0-2_決定
  6
CONTINUOUS
 62
    7
 10
741.65550756453945
 20
1243.9542196212769
 40
20.464335501508678
 50
334.60497162438043
 51
350.21976288918444
  0
ARC
  8
_0-2_決定
  6
CONTINUOUS
 62
    7
 10
735.29593522033201
 20
1245.3576016652678
 40
26.850947286041055
 50
327.82163960838704
 51
337.72100203743196
  0
ARC
  8
_0-2_決定
  6
CONTINUOUS
 62
    7
 10
751.28557140528096
 20
1235.0753525873031
 40
7.8437694309299468
 50
311.68963771760627
 51
329.19102634440793
  0
ARC
  8
_0-2_決定
  6
CONTINUOUS
 62
    7
 10
755.9244346661776
 20
1229.7249227388468
 40
0.7688261788152663
 50
256.30601105298729
 51
318.74512569441123
  0
ARC
  8
_0-2_決定
  6
CONTINUOUS
 62
    7
 10
756.40042150512954
 20
1229.5619498122339
 40
0.8797800038947638
 50
176.35043267626349
 51
221.59038294068472
  0
ARC
  8
_0-2_決定
  6
CONTINUOUS
 62
    7
 10
763.20971594275511
 20
1229.7097200645812
 40
7.6878380140018248
 50
166.2427834468009
 51
180.68394925561893
  0
ARC
  8
_0-2_決定
  6
CONTINUOUS
 62
    7
 10
782.52450124744382
 20
1225.3688353472394
 40
27.483405237045346
 50
156.3859824219879
 51
167.02846564887528
  0
ARC
  8
_0-2_決定
  6
CONTINUOUS
 62
    7
 10
878.66329834117312
 20
1148.0570784907243
 40
7.6841965516946464
 50
272.08171884526269
 51
357.91829664008702
  0
ARC
  8
_0-2_決定
  6
CONTINUOUS
 62
    7
 10
879.25581480997892
 20
1147.8855751129106
 40
7.5141598937796825
 50
180.82064926754964
 51
267.60970152646814
  0
ARC
  8
_0-2_決定
  6
CONTINUOUS
 62
    7
 10
878.99937522231141
 20
1147.7210016692061
 40
7.2571730279386015
 50
90.449624495730717
 51
179.55035958877144
  0
ARC
  8
_0-2_決定
  6
CONTINUOUS
 62
    7
 10
879.05018894544583
 20
1147.6859321692991
 40
7.2928153058018754
 50
0.7229799195612868
 51
90.846669716407717
  0
ARC
  8
_0-2_決定
  6
CONTINUOUS
 62
    7
 10
789.55457441531962
 20
1173.5985963428855
 40
8.718794545442206
 50
315.96288467159002
 51
15.836878658385153
  0
ARC
  8
_0-2_決定
  6
CONTINUOUS
 62
    7
 10
787.46921067986045
 20
1175.0897515991956
 40
11.260812103099179
 50
287.96486888962073
 51
317.88455394398949
  0
ARC
  8
_0-2_決定
  6
CONTINUOUS
 62
    7
 10
787.33801325722357
 20
1175.2071034824853
 40
11.413252255549587
 50
237.71847212951602
 51
288.40968376337054
  0
ARC
  8
_0-2_決定
  6
CONTINUOUS
 62
    7
 10
785.89771577638032
 20
1172.1028573476412
 40
8.031657484528278
 50
199.83244777884596
 51
234.57634817991246
  0
ARC
  8
_0-2_決定
  6
CONTINUOUS
 62
    7
 10
786.73027691490063
 20
1171.7573061415694
 40
8.7187945454423446
 50
135.96288467159025
 51
195.83687865838539
  0
ARC
  8
_0-2_決定
  6
CONTINUOUS
 62
    7
 10
788.81564065035946
 20
1170.2661508852591
 40
11.260812103099028
 50
107.96486888961958
 51
137.88455394398832
  0
ARC
  8
_0-2_決定
  6
CONTINUOUS
 62
    7
 10
788.946838072996
 20
1170.1487990019698
 40
11.413252255549153
 50
57.718472129513245
 51
108.40968376336777
  0
ARC
  8
_0-2_決定
  6
CONTINUOUS
 62
    7
 10
790.38713555384015
 20
1173.2530451368125
 40
8.0316574845281412
 50
19.832447778853119
 51
54.576348179919613
  0
ARC
  8
_0-2_決定
  6
CONTINUOUS
 62
    7
 10
750.20762443948479
 20
1379.3185506721234
 40
1.3421859312401887
 50
267.21567241902653
 51
353.98691687098818
  0
ARC
  8
_0-2_決定
  6
CONTINUOUS
 62
    7
 10
750.25567858189106
 20
1379.2912021590082
 40
1.3181272497727268
 50
184.9289053857425
 51
265.07109461424045
  0
ARC
  8
_0-2_決定
  6
CONTINUOUS
 62
    7
 10
750.14287154766726
 20
1379.17750335967
 40
1.2004459653644386
 50
90.021281415423488
 51
179.97871858457995
  0
ARC
  8
_0-2_決定
  6
CONTINUOUS
 62
    7
 10
750.23560555446375
 20
1379.0699924464734
 40
1.3112717000449603
 50
4.7224979339420328
 51
94.074912776056721
  0
ARC
  8
_0-2_決定
  6
CONTINUOUS
 62
    7
 10
824.53328401323211
 20
1335.9000701072973
 40
2.412234856828559
 50
297.37409736399354
 51
357.09812565482912
  0
ARC
  8
_0-2_決定
  6
CONTINUOUS
 62
    7
 10
823.56018037064837
 20
1337.2053891014848
 40
4.0274789942969802
 50
269.74741693495059
 51
301.13187413568613
  0
ARC
  8
_0-2_決定
  6
CONTINUOUS
 62
    7
 10
823.46567338760156
 20
1337.0459830820755
 40
3.8687952515366879
 50
224.8406791884376
 51
271.13675441572968
  0
ARC
  8
_0-2_決定
  6
CONTINUOUS
 62
    7
 10
822.41387746177054
 20
1335.8351013258323
 40
2.2721706857569641
 50
181.44131714714186
 51
221.89060029943343
  0
ARC
  8
_0-2_決定
  6
CONTINUOUS
 62
    7
 10
822.52347526970448
 20
1335.7791605318398
 40
2.3810499126988196
 50
119.18432715292744
 51
180.02914755595452
  0
ARC
  8
_0-2_決定
  6
CONTINUOUS
 62
    7
 10
823.38240009721767
 20
1334.2192102768527
 40
4.1618166663734391
 50
87.79638287973566
 51
119.0359840839445
  0
ARC
  8
_0-2_決定
  6
CONTINUOUS
 62
    7
 10
823.6097484273613
 20
1334.438245018122
 40
3.9402793971683732
 50
44.866610426523486
 51
90.978990942410064
  0
ARC
  8
_0-2_決定
  6
CONTINUOUS
 62
    7
 10
824.7155799742327
 20
1335.7641321081485
 40
2.2268885567476095
 50
0.355504340335456
 51
40.756586098831484
  0
ARC
  8
_0-2_決定
  6
CONTINUOUS
 62
    7
 10
859.65020562357699
 20
1433.6274525912504
 40
1.4930410014244344
 50
320.50922555771007
 51
358.09987297420361
  0
ARC
  8
_0-2_決定
  6
CONTINUOUS
 62
    7
 10
858.23319044475568
 20
1434.8294349553521
 40
3.3510996698455142
 50
297.53604334129477
 51
320.0570608552996
  0
ARC
  8
_0-2_決定
  6
CONTINUOUS
 62
    7
 10
856.56435540915936
 20
1437.9676404460893
 40
6.9053839297718209
 50
282.18974044139827
 51
297.7764726024173
  0
ARC
  8
_0-2_決定
  6
CONTINUOUS
 62
    7
 10
855.81197193976493
 20
1441.2672576330165
 40
10.289545422530482
 50
269.61273912553463
 51
282.40527278943955
  0
ARC
  8
_0-2_決定
  6
CONTINUOUS
 62
    7
 10
855.5781558936942
 20
1439.5544755009244
 40
8.5781012776737704
 50
240.10268193453535
 51
271.09727545188241
  0
ARC
  8
_0-2_決定
  6
CONTINUOUS
 62
    7
 10
852.37703181638744
 20
1433.8701540266288
 40
2.0554821808195061
 50
188.17283963634173
 51
238.47973973789038
  0
ARC
  8
_0-2_決定
  6
CONTINUOUS
 62
    7
 10
851.73727934759791
 20
1433.5447083194483
 40
1.3952496627978022
 50
139.11564369060153
 51
178.63491801729046
  0
ARC
  8
_0-2_決定
  6
CONTINUOUS
 62
    7
 10
852.98485883423245
 20
1432.3572961172201
 40
3.1167184100060141
 50
114.29715180378813
 51
137.62388258949147
  0
ARC
  8
_0-2_決定
  6
CONTINUOUS
 62
    7
 10
854.78290500484036
 20
1428.6771327623815
 40
7.2118218532541398
 50
100.06583245673055
 51
115.28638494056923
  0
ARC
  8
_0-2_決定
  6
CONTINUOUS
 62
    7
 10
855.70250352482287
 20
1424.0000829994281
 40
11.977930772725971
 50
89.80903426259944
 51
100.48673538568659
  0
ARC
  8
_0-2_決定
  6
CONTINUOUS
 62
    7
 10
855.99194727500958
 20
1426.8648162618022
 40
9.1165463471752357
 50
61.782545215646756
 51
91.568392260576658
  0
ARC
  8
_0-2_決定
  6
CONTINUOUS
 62
    7
 10
859.3720621103821
 20
1433.3786249801283
 40
1.781548899153832
 50
6.4237839173644842
 51
58.518600664304948
  0
ARC
  8
_0-2_決定
  6
CONTINUOUS
 62
    7
 10
890.75209473589155
 20
1456.9121007425292
 40
2.9910538053407438
 50
308.70477424179342
 51
1.2614388020130101
  0
ARC
  8
_0-2_決定
  6
CONTINUOUS
 62
    7
 10
891.92678530562273
 20
1455.6871176644854
 40
1.3092638209323986
 50
270.68437948838516
 51
302.09470117964418
  0
ARC
  8
_0-2_決定
  6
CONTINUOUS
 62
    7
 10
891.99162348765049
 20
1455.8059467985788
 40
1.4288468621507844
 50
228.37045024314574
 51
268.02673078416626
  0
ARC
  8
_0-2_決定
  6
CONTINUOUS
 62
    7
 10
892.97045736774885
 20
1456.8134072120374
 40
2.8328162744511398
 50
176.67018354288388
 51
227.10892999692382
  0
ARC
  8
_0-2_決定
  6
CONTINUOUS
 62
    7
 10
892.87722614276277
 20
1456.970775071786
 40
2.734811882342965
 50
126.18979956320636
 51
179.84973900034979
  0
ARC
  8
_0-2_決定
  6
CONTINUOUS
 62
    7
 10
891.96404873491531
 20
1458.0484220048904
 40
1.32970109436669
 50
90.931848414126193
 51
121.84723225398874
  0
ARC
  8
_0-2_決定
  6
CONTINUOUS
 62
    7
 10
891.90017381482107
 20
1457.9144198470453
 40
1.4641371132163308
 50
48.912339792626966
 51
88.346415668672321
  0
ARC
  8
_0-2_決定
  6
CONTINUOUS
 62
    7
 10
891.06297665092166
 20
1457.0319112753225
 40
2.6799903766077686
 50
358.84621961880811
 51
47.821862934616554
  0
ARC
  8
_0-2_決定
  6
CONTINUOUS
 62
    7
 10
927.33921812848234
 20
1435.0853013369529
 40
2.6048536100310757
 50
305.2453352209746
 51
2.0382485664231464
  0
ARC
  8
_0-2_決定
  6
CONTINUOUS
 62
    7
 10
928.13567901283773
 20
1434.2552875566164
 40
1.4773557103333101
 50
270.26157644309365
 51
298.5799698119813
  0
ARC
  8
_0-2_決定
  6
CONTINUOUS
 62
    7
 10
928.22159315658848
 20
1434.5323594892957
 40
1.7561976372394965
 50
197.03240408923975
 51
267.41622729883676
  0
ARC
  8
_0-2_決定
  6
CONTINUOUS
 62
    7
 10
929.54701216303647
 20
1435.1332211211809
 40
3.2049006017266093
 50
179.2003804557321
 51
200.36443360791512
  0
ARC
  8
_0-2_決定
  6
CONTINUOUS
 62
    7
 10
929.33275259432833
 20
1435.2437937419249
 40
2.991053805340778
 50
128.70477424179205
 51
181.26143880201164
  0
ARC
  8
_0-2_決定
  6
CONTINUOUS
 62
    7
 10
928.15806202459726
 20
1436.468776819969
 40
1.3092638209323986
 50
90.684379488385204
 51
122.09470117964416
  0
ARC
  8
_0-2_決定
  6
CONTINUOUS
 62
    7
 10
928.09322384256984
 20
1436.3499476858749
 40
1.42884686215129
 50
48.370450243162907
 51
88.0267307841834
  0
ARC
  8
_0-2_決定
  6
CONTINUOUS
 62
    7
 10
927.11438996247125
 20
1435.3424872724177
 40
2.8328162744511074
 50
356.67018354287325
 51
47.108929996913183
  0
ARC
  8
_0-2_決定
  6
CONTINUOUS
 62
    7
 10
895.21194110549629
 20
1391.8736576703482
 40
2.132631248019988
 50
293.50286621336727
 51
357.42781064384792
  0
ARC
  8
_0-2_決定
  6
CONTINUOUS
 62
    7
 10
893.86052561744293
 20
1394.1242519655384
 40
4.7477718576670433
 50
268.57460685358092
 51
297.63097302894266
  0
ARC
  8
_0-2_決定
  6
CONTINUOUS
 62
    7
 10
893.62183190889652
 20
1393.8486667203972
 40
4.4723435848870174
 50
228.91019488245084
 51
271.54510405240535
  0
ARC
  8
_0-2_決定
  6
CONTINUOUS
 62
    7
 10
892.06882431661882
 20
1391.8159925897769
 40
1.9267762626796581
 50
181.13135341495808
 51
223.98313985444642
  0
ARC
  8
_0-2_決定
  6
CONTINUOUS
 62
    7
 10
892.49642408107866
 20
1391.6599085692781
 40
2.3569581156333035
 50
117.10819654692408
 51
177.12932412253988
  0
ARC
  8
_0-2_決定
  6
CONTINUOUS
 62
    7
 10
893.66706882232597
 20
1390.0092770410306
 40
4.3693220473934975
 50
89.011808131727662
 51
120.91250237691612
  0
ARC
  8
_0-2_決定
  6
CONTINUOUS
 62
    7
 10
893.79858154207125
 20
1390.1144582709721
 40
4.263860805551424
 50
46.707235056421105
 51
90.754645265126939
  0
ARC
  8
_0-2_決定
  6
CONTINUOUS
 62
    7
 10
895.15674821122479
 20
1391.6903667551378
 40
2.1874295146954479
 50
2.2946790176947682
 51
44.294447490086114
  0
ARC
  8
_0-2_決定
  6
CONTINUOUS
 62
    7
 10
929.75090109112887
 20
1400.9616994197495
 40
7.3915404360934867
 50
311.64235955981133
 51
0.1259611584133049
  0
ARC
  8
_0-2_決定
  6
CONTINUOUS
 62
    7
 10
931.64650285122639
 20
1399.1940707295296
 40
4.8170766013208688
 50
271.14098685161014
 51
308.76219453791333
  0
ARC
  8
_0-2_決定
  6
CONTINUOUS
 62
    7
 10
931.87131088478418
 20
1399.4547835568887
 40
5.0784701017059044
 50
207.39648595432089
 51
268.54572606504541
  0
ARC
  8
_0-2_決定
  6
CONTINUOUS
 62
    7
 10
933.85678900180949
 20
1400.8988437094381
 40
7.5147817066572351
 50
179.39685581663656
 51
210.20714035023451
  0
ARC
  8
_0-2_決定
  6
CONTINUOUS
 62
    7
 10
933.72072331311631
 20
1401.0595593981102
 40
7.3787509724420577
 50
131.59328682880817
 51
180.63371332792386
  0
ARC
  8
_0-2_決定
  6
CONTINUOUS
 62
    7
 10
931.7777279101058
 20
1402.7116608468398
 40
4.8664164573944717
 50
90.415665613199025
 51
127.39348607202626
  0
ARC
  8
_0-2_決定
  6
CONTINUOUS
 62
    7
 10
931.65985124576673
 20
1402.487545001045
 40
5.0910739086255186
 50
28.771245007061026
 51
89.070675722774183
  0
ARC
  8
_0-2_決定
  6
CONTINUOUS
 62
    7
 10
929.61220229777211
 20
1401.1497104051855
 40
7.5321800123346847
 50
358.69333409203369
 51
30.194737356949855
  0
ARC
  8
_0-2_決定
  6
CONTINUOUS
 62
    7
 10
848.67248267006357
 20
1415.4919150392557
 40
0.8773762120792685
 50
305.53594680616095
 51
352.53654012966007
  0
ARC
  8
_0-2_決定
  6
CONTINUOUS
 62
    7
 10
846.90684748445165
 20
1417.8646248762316
 40
3.8348171437297069
 50
285.97760873652646
 51
306.3986126584449
  0
ARC
  8
_0-2_決定
  6
CONTINUOUS
 62
    7
 10
845.36703312156249
 20
1422.3972704024618
 40
8.6193562863001443
 50
269.8364256833471
 51
287.52441116679859
  0
ARC
  8
_0-2_決定
  6
CONTINUOUS
 62
    7
 10
845.27951776001328
 20
1423.3203519434546
 40
9.542610057888357
 50
254.20731390938766
 51
270.37771464467733
  0
ARC
  8
_0-2_決定
  6
CONTINUOUS
 62
    7
 10
843.54981797936694
 20
1417.8394859077139
 40
3.8018078742584294
 50
232.63288690481488
 51
256.81166862409151
  0
ARC
  8
_0-2_決定
  6
CONTINUOUS
 62
    7
 10
841.69705349344497
 20
1415.4218570074065
 40
0.7559041282731638
 50
183.32998112181215
 51
233.02719909806507
  0
ARC
  8
_0-2_決定
  6
CONTINUOUS
 62
    7
 10
841.8151971742127
 20
1415.245527286462
 40
0.8827602627383718
 50
123.93255925293414
 51
171.37255374815663
  0
ARC
  8
_0-2_決定
  6
CONTINUOUS
 62
    7
 10
843.59171816145704
 20
1412.8694114164457
 40
3.848726522928041
 50
105.51181976614407
 51
126.13016418226695
  0
ARC
  8
_0-2_決定
  6
CONTINUOUS
 62
    7
 10
845.27224326811938
 20
1407.6052169013042
 40
9.3729950978025727
 50
89.570981028188442
 51
106.80462299560472
  0
ARC
  8
_0-2_決定
  6
CONTINUOUS
 62
    7
 10
845.53040487901046
 20
1409.8948157691048
 40
7.0856274233780265
 50
58.217044850773476
 51
91.52021532592299
  0
ARC
  8
_0-2_決定
  6
CONTINUOUS
 62
    7
 10
848.80583680282871
 20
1415.3386068691921
 40
0.7376387831133139
 50
3.0573528357557218
 51
51.757798039925085
  0
ARC
  8
_0-2_決定
  6
CONTINUOUS
 62
    7
 10
809.82281574282661
 20
1483.0911531335828
 40
0.9265516623475766
 50
305.61847634020569
 51
352.9820785582113
  0
ARC
  8
_0-2_決定
  6
CONTINUOUS
 62
    7
 10
808.16355989986823
 20
1485.2356787727103
 40
3.6375621886515646
 50
285.93803385574051
 51
307.19206849842902
  0
ARC
  8
_0-2_決定
  6
CONTINUOUS
 62
    7
 10
806.6822984259851
 20
1490.0738732603088
 40
8.6970508622854865
 50
269.07848482006057
 51
286.56893664369875
  0
ARC
  8
_0-2_決定
  6
CONTINUOUS
 62
    7
 10
806.44625518172188
 20
1490.1137254446185
 40
8.7363075474278808
 50
253.48232376392048
 51
270.63073261490979
  0
ARC
  8
_0-2_決定
  6
CONTINUOUS
 62
    7
 10
804.76944577685526
 20
1484.9885456977245
 40
3.3492792925707757
 50
230.13062857178829
 51
256.05718451632515
  0
ARC
  8
_0-2_決定
  6
CONTINUOUS
 62
    7
 10
803.12462121277588
 20
1483.0190450160603
 40
0.7832744741162989
 50
183.00764398784926
 51
230.12245836627184
  0
ARC
  8
_0-2_決定
  6
CONTINUOUS
 62
    7
 10
803.14322215180766
 20
1482.8826252849672
 40
0.8064498054082393
 50
123.1333083602844
 51
173.21179848641165
  0
ARC
  8
_0-2_決定
  6
CONTINUOUS
 62
    7
 10
804.65766981113916
 20
1480.7198932185447
 40
3.4463793047087155
 50
102.99961589152849
 51
124.56444495489723
  0
ARC
  8
_0-2_決定
  6
CONTINUOUS
 62
    7
 10
806.37171999953
 20
1473.9488708103768
 40
10.430473414263073
 50
89.062252453517047
 51
103.80722584856368
  0
ARC
  8
_0-2_決定
  6
CONTINUOUS
 62
    7
 10
806.74916764537727
 20
1474.4798418632433
 40
9.9002642560628455
 50
74.454787101866785
 51
91.19656442516326
  0
ARC
  8
_0-2_決定
  6
CONTINUOUS
 62
    7
 10
808.83601090101752
 20
1481.5630421997316
 40
2.5194016060671776
 50
46.744890546045788
 51
77.007638687383348
  0
ARC
  8
_0-2_決定
  6
CONTINUOUS
 62
    7
 10
810.13026747489323
 20
1482.9641651607062
 40
0.6123133149133884
 50
1.2897348071085992
 51
45.10744622013862
  0
ARC
  8
_0-2_決定
  6
CONTINUOUS
 62
    7
 10
855.94757198262278
 20
1317.0111881650068
 40
1.3952496627974411
 50
319.11564369056805
 51
358.63491801725695
  0
ARC
  8
_0-2_決定
  6
CONTINUOUS
 62
    7
 10
854.69999249598675
 20
1318.1986003672346
 40
3.1167184100064271
 50
294.29715180379856
 51
317.62388258950193
  0
ARC
  8
_0-2_決定
  6
CONTINUOUS
 62
    7
 10
852.90194632537941
 20
1321.878763722073
 40
7.2118218532541398
 50
280.06583245673056
 51
295.28638494056923
  0
ARC
  8
_0-2_決定
  6
CONTINUOUS
 62
    7
 10
851.98234780539917
 20
1326.5558134850266
 40
11.977930772725765
 50
269.80903426258851
 51
280.48673538567567
  0
ARC
  8
_0-2_決定
  6
CONTINUOUS
 62
    7
 10
851.69290405521053
 20
1323.6910802226521
 40
9.1165463471742942
 50
241.78254521564537
 51
271.56839226057525
  0
ARC
  8
_0-2_決定
  6
CONTINUOUS
 62
    7
 10
848.31278921983744
 20
1317.1772715043267
 40
1.7815488991535893
 50
186.42378391739103
 51
238.5186006643315
  0
ARC
  8
_0-2_決定
  6
CONTINUOUS
 62
    7
 10
848.03464570664323
 20
1316.9284438932032
 40
1.4930410014246682
 50
140.50922555768634
 51
178.0998729741799
  0
ARC
  8
_0-2_決定
  6
CONTINUOUS
 62
    7
 10
849.45166088546569
 20
1315.7264615291022
 40
3.3510996698463407
 50
117.53604334130738
 51
140.05706085531216
  0
ARC
  8
_0-2_決定
  6
CONTINUOUS
 62
    7
 10
851.12049592105916
 20
1312.5882560383673
 40
6.9053839297695587
 50
102.18974044139121
 51
117.77647260241024
  0
ARC
  8
_0-2_決定
  6
CONTINUOUS
 62
    7
 10
851.87287939045746
 20
1309.288638851438
 40
10.28954542253075
 50
89.612739125548757
 51
102.40527278945369
  0
ARC
  8
_0-2_決定
  6
CONTINUOUS
 62
    7
 10
852.106695436525
 20
1311.0014209835297
 40
8.5781012776747403
 50
60.102681934531532
 51
91.097275451878616
  0
ARC
  8
_0-2_決定
  6
CONTINUOUS
 62
    7
 10
855.30781951383256
 20
1316.6857424578257
 40
2.055482180819646
 50
8.1728396363391909
 51
58.479739737887847
  0
ARC
  8
_0-2_決定
  6
CONTINUOUS
 62
    7
 10
886.95209473589125
 20
1340.3121027425289
 40
2.9910538053407438
 50
308.70477424179342
 51
1.2614388020130101
  0
ARC
  8
_0-2_決定
  6
CONTINUOUS
 62
    7
 10
888.12678530562278
 20
1339.0871196644844
 40
1.3092638209316427
 50
270.68437948839494
 51
302.0947011796539
  0
ARC
  8
_0-2_決定
  6
CONTINUOUS
 62
    7
 10
888.19162348765099
 20
1339.2059487985796
 40
1.4288468621516015
 50
228.3704502431317
 51
268.02673078415216
  0
ARC
  8
_0-2_決定
  6
CONTINUOUS
 62
    7
 10
889.1704573677481
 20
1340.2134092120377
 40
2.8328162744507064
 50
176.67018354288922
 51
227.10892999692916
  0
ARC
  8
_0-2_決定
  6
CONTINUOUS
 62
    7
 10
888.94562920173769
 20
1340.4705951475021
 40
2.6048536100314772
 50
125.24533522097897
 51
182.03824856642751
  0
ARC
  8
_0-2_決定
  6
CONTINUOUS
 62
    7
 10
888.14916831738128
 20
1341.3006089278372
 40
1.477355710334078
 50
90.261576443051126
 51
118.57996981193875
  0
ARC
  8
_0-2_決定
  6
CONTINUOUS
 62
    7
 10
888.06325417363166
 20
1341.0235369951583
 40
1.7561976372394965
 50
17.032404089239723
 51
87.416227298836731
  0
ARC
  8
_0-2_決定
  6
CONTINUOUS
 62
    7
 10
886.73783516718345
 20
1340.4226753632747
 40
3.2049006017263793
 50
359.20038045570823
 51
20.364433607891264
  0
ARC
  8
_0-2_決定
  6
CONTINUOUS
 62
    7
 10
923.4076211874567
 20
1318.5851214126692
 40
2.7348118823436001
 50
306.18979956320203
 51
359.84973900034544
  0
ARC
  8
_0-2_決定
  6
CONTINUOUS
 62
    7
 10
924.32079859530518
 20
1317.5074744795643
 40
1.329701094366464
 50
270.93184841409311
 51
301.84723225395567
  0
ARC
  8
_0-2_決定
  6
CONTINUOUS
 62
    7
 10
924.38467351539794
 20
1317.6414766374091
 40
1.4641371132161005
 50
228.91233979264999
 51
268.34641566869533
  0
ARC
  8
_0-2_決定
  6
CONTINUOUS
 62
    7
 10
925.22187067929872
 20
1318.5239852091318
 40
2.6799903766080369
 50
178.8462196187937
 51
227.82186293460211
  0
ARC
  8
_0-2_決定
  6
CONTINUOUS
 62
    7
 10
925.53275259432826
 20
1318.6437957419253
 40
2.9910538053403073
 50
128.70477424178952
 51
181.26143880200911
  0
ARC
  8
_0-2_決定
  6
CONTINUOUS
 62
    7
 10
924.35806202459787
 20
1319.8687788199697
 40
1.3092638209318654
 50
90.684379488427979
 51
122.09470117968694
  0
ARC
  8
_0-2_決定
  6
CONTINUOUS
 62
    7
 10
924.29322384256898
 20
1319.749949685875
 40
1.4288468621516015
 50
48.370450243131714
 51
88.026730784152193
  0
ARC
  8
_0-2_決定
  6
CONTINUOUS
 62
    7
 10
923.31438996247186
 20
1318.7424892724173
 40
2.8328162744506753
 50
356.67018354288768
 51
47.108929996927607
  0
ARC
  8
_0-2_決定
  6
CONTINUOUS
 62
    7
 10
891.18842324914169
 20
1275.4959919151768
 40
2.3569581156334154
 50
297.10819654691346
 51
357.12932412252928
  0
ARC
  8
_0-2_決定
  6
CONTINUOUS
 62
    7
 10
890.0177785078929
 20
1277.146623443424
 40
4.3693220473938901
 50
269.01180813174034
 51
300.91250237692878
  0
ARC
  8
_0-2_決定
  6
CONTINUOUS
 62
    7
 10
889.88626578814899
 20
1277.0414422134822
 40
4.2638608055516301
 50
226.70723505641399
 51
270.75464526511985
  0
ARC
  8
_0-2_決定
  6
CONTINUOUS
 62
    7
 10
888.52809911899499
 20
1275.4655337293166
 40
2.1874295146954479
 50
182.29467901769479
 51
224.29444749008613
  0
ARC
  8
_0-2_決定
  6
CONTINUOUS
 62
    7
 10
888.47290622472337
 20
1275.2822428141058
 40
2.1326312480199232
 50
113.50286621335074
 51
177.42781064383141
  0
ARC
  8
_0-2_決定
  6
CONTINUOUS
 62
    7
 10
889.82432171277708
 20
1273.0316485189169
 40
4.7477718576660779
 50
88.574606853583688
 51
117.63097302894538
  0
ARC
  8
_0-2_決定
  6
CONTINUOUS
 62
    7
 10
890.06301542132348
 20
1273.3072337640572
 40
4.4723435848870441
 50
48.910194882453631
 51
91.545104052408135
  0
ARC
  8
_0-2_決定
  6
CONTINUOUS
 62
    7
 10
891.61602301360165
 20
1275.339907894677
 40
1.9267762626795233
 50
1.1313534149785271
 51
43.983139854466877
  0
ARC
  8
_0-2_決定
  6
CONTINUOUS
 62
    7
 10
925.598434100747
 20
1284.5180373049095
 40
7.7442213174207435
 50
312.82264884741488
 51
0.4432641130406225
  0
ARC
  8
_0-2_決定
  6
CONTINUOUS
 62
    7
 10
927.86592482499486
 20
1282.5405706885806
 40
4.763233782140369
 50
270.92022548563068
 51
308.98295590390842
  0
ARC
  8
_0-2_決定
  6
CONTINUOUS
 62
    7
 10
928.05241682006795
 20
1282.7790006991654
 40
5.0022589062225409
 50
208.1639817906011
 51
268.74003892365926
  0
ARC
  8
_0-2_決定
  6
CONTINUOUS
 62
    7
 10
930.41115505281482
 20
1284.4331926453424
 40
7.8700627776524605
 50
178.94608086065153
 51
210.67660551282273
  0
ARC
  8
_0-2_決定
  6
CONTINUOUS
 62
    7
 10
929.93394623909114
 20
1284.5941990647057
 40
7.3915404360931163
 50
131.64235955981445
 51
180.12596115841643
  0
ARC
  8
_0-2_決定
  6
CONTINUOUS
 62
    7
 10
928.03834447899351
 20
1286.3618277549249
 40
4.8170766013208688
 50
91.140986851610123
 51
128.76219453791336
  0
ARC
  8
_0-2_決定
  6
CONTINUOUS
 62
    7
 10
927.81353644543572
 20
1286.1011149275657
 40
5.0784701017058307
 50
27.396485954322234
 51
88.545726065046779
  0
ARC
  8
_0-2_決定
  6
CONTINUOUS
 62
    7
 10
925.82805832841041
 20
1284.6570547750164
 40
7.5147817066572022
 50
359.39685581663559
 51
30.207140350233519
  0
ARC
  8
_0-2_決定
  6
CONTINUOUS
 62
    7
 10
844.9485359022616
 20
1298.8689842674432
 40
0.79909219203493
 50
302.88661937132554
 51
353.45848747537053
  0
ARC
  8
_0-2_決定
  6
CONTINUOUS
 62
    7
 10
843.33551010120391
 20
1301.3712446470777
 40
3.7761974328954544
 50
282.02792232063837
 51
302.82380152205326
  0
ARC
  8
_0-2_決定
  6
CONTINUOUS
 62
    7
 10
841.63647675539187
 20
1307.813109865798
 40
10.435584451639633
 50
269.48361268024132
 51
283.78141655004254
  0
ARC
  8
_0-2_決定
  6
CONTINUOUS
 62
    7
 10
841.37801289890967
 20
1308.2202449849251
 40
10.843542250105223
 50
255.16911754916708
 51
270.86876763717294
  0
ARC
  8
_0-2_決定
  6
CONTINUOUS
 62
    7
 10
839.16935029291562
 20
1300.4717984978381
 40
2.7920127660913305
 50
228.58540418929607
 51
258.2844934565428
  0
ARC
  8
_0-2_決定
  6
CONTINUOUS
 62
    7
 10
837.70624156541146
 20
1298.7911663973632
 40
0.5639707994415883
 50
181.34290028226835
 51
227.11259035370264
  0
ARC
  8
_0-2_決定
  6
CONTINUOUS
 62
    7
 10
838.09119516389217
 20
1298.7109536252246
 40
0.951131943800193
 50
128.2445898319408
 51
175.96086810614139
  0
ARC
  8
_0-2_決定
  6
CONTINUOUS
 62
    7
 10
839.35997298263544
 20
1297.0644269287493
 40
3.0297575978883247
 50
104.4796199659196
 51
127.81406250524708
  0
ARC
  8
_0-2_決定
  6
CONTINUOUS
 62
    7
 10
841.31970459739648
 20
1290.5379490819068
 40
9.8425204002380688
 50
88.703374140191784
 51
106.02611834977749
  0
ARC
  8
_0-2_決定
  6
CONTINUOUS
 62
    7
 10
841.67520376389893
 20
1291.0687849831497
 40
9.3101111285526681
 50
73.993549806348952
 51
90.817163456460662
  0
ARC
  8
_0-2_決定
  6
CONTINUOUS
 62
    7
 10
843.58812847921536
 20
1297.2289984445558
 40
2.8646729934321282
 50
48.603867600331725
 51
76.796987977016713
  0
ARC
  8
_0-2_決定
  6
CONTINUOUS
 62
    7
 10
844.89209402958363
 20
1298.7658055334991
 40
0.8504183441331241
 50
0.8181936700296421
 51
46.03919194742916
  0
ARC
  8
_0-2_決定
  6
CONTINUOUS
 62
    7
 10
701.5592616126338
 20
1417.3611152947035
 40
4.5868247042317876
 50
272.28860565918086
 51
357.71139434081914
  0
ARC
  8
_0-2_決定
  6
CONTINUOUS
 62
    7
 10
701.92559371758625
 20
1417.3611152947035
 40
4.5868247042317876
 50
182.28860565918086
 51
267.7113943408192
  0
ARC
  8
_0-2_決定
  6
CONTINUOUS
 62
    7
 10
701.92559263432884
 20
1416.9947821897513
 40
4.5868236617715867
 50
92.288592637407817
 51
177.71138131904613
  0
ARC
  8
_0-2_決定
  6
CONTINUOUS
 62
    7
 10
701.55926269589122
 20
1416.9947821897513
 40
4.5868236617715867
 50
2.2886186809538858
 51
87.711407362592198
  0
ARC
  8
_0-2_決定
  6
CONTINUOUS
 62
    7
 10
711.36123447028524
 20
1294.2399914567086
 40
0.9831527459900245
 50
309.18585214169855
 51
356.38192474368986
  0
ARC
  8
_0-2_決定
  6
CONTINUOUS
 62
    7
 10
710.31756342630729
 20
1295.4832598644934
 40
2.606346796843936
 50
284.32493686899483
 51
309.70039382687702
  0
ARC
  8
_0-2_決定
  6
CONTINUOUS
 62
    7
 10
709.58198350255429
 20
1298.1570087468356
 40
5.3792049429623754
 50
269.57867324438877
 51
284.86995814369442
  0
ARC
  8
_0-2_決定
  6
CONTINUOUS
 62
    7
 10
709.45875054378246
 20
1298.0486319015156
 40
5.2713468445508127
 50
248.68250374355819
 51
270.90954881296943
  0
ARC
  8
_0-2_決定
  6
CONTINUOUS
 62
    7
 10
707.96154873398234
 20
1294.5417195007585
 40
1.4650028700002187
 50
194.37734331524999
 51
253.37605125660826
  0
ARC
  8
_0-2_決定
  6
CONTINUOUS
 62
    7
 10
707.62106346390453
 20
1294.068947015086
 40
1.0841294535075161
 50
130.12227875525494
 51
174.22952847627047
  0
ARC
  8
_0-2_決定
  6
CONTINUOUS
 62
    7
 10
708.93071875704754
 20
1292.6502808885289
 40
3.0141742050142337
 50
107.93725269249801
 51
131.78077963733955
  0
ARC
  8
_0-2_決定
  6
CONTINUOUS
 62
    7
 10
709.5590805082611
 20
1290.9885439404889
 40
4.789434252759305
 50
90.199217590556074
 51
108.96667185652217
  0
ARC
  8
_0-2_決定
  6
CONTINUOUS
 62
    7
 10
709.66937811023456
 20
1292.32380788961
 40
3.4564734773143355
 50
43.840591838271664
 51
92.104850823386698
  0
ARC
  8
_0-2_決定
  6
CONTINUOUS
 62
    7
 10
711.38435914462548
 20
1294.1585930687329
 40
0.9582640301062421
 50
1.1574080243774727
 51
35.712489621425831
  0
ARC
  8
_0-2_決定
  6
CONTINUOUS
 62
    7
 10
723.00002496388424
 20
1458.1150393371306
 40
9.5426100578871065
 50
344.20731390938664
 51
0.3777146446762821
  0
ARC
  8
_0-2_決定
  6
CONTINUOUS
 62
    7
 10
728.48089099962317
 20
1456.3853395564854
 40
3.8018078742588646
 50
322.63288690480101
 51
346.81166862407764
  0
ARC
  8
_0-2_決定
  6
CONTINUOUS
 62
    7
 10
730.89851989993008
 20
1454.532575070562
 40
0.7559041282734034
 50
273.32998112184606
 51
323.02719909809895
  0
ARC
  8
_0-2_決定
  6
CONTINUOUS
 62
    7
 10
731.05075709793618
 20
1454.575923744962
 40
0.8052960728412952
 50
211.26751477121132
 51
262.26906309280827
  0
ARC
  8
_0-2_決定
  6
CONTINUOUS
 62
    7
 10
733.54105110886394
 20
1456.1604566953538
 40
3.756819280594164
 50
191.71050118858835
 51
212.21062685159475
  0
ARC
  8
_0-2_決定
  6
CONTINUOUS
 62
    7
 10
740.87755185481342
 20
1458.0742924726956
 40
11.335598118636733
 50
179.47606967650054
 51
193.65652756498304
  0
ARC
  8
_0-2_決定
  6
CONTINUOUS
 62
    7
 10
740.38472340780777
 20
1458.3423600084284
 40
10.843542250104834
 50
165.1691175491724
 51
180.86876763717825
  0
ARC
  8
_0-2_決定
  6
CONTINUOUS
 62
    7
 10
732.63627692072203
 20
1460.5510226144211
 40
2.7920127660926317
 50
138.58540418929357
 51
168.2844934565403
  0
ARC
  8
_0-2_決定
  6
CONTINUOUS
 62
    7
 10
730.95564482024531
 20
1462.0141313419265
 40
0.5639707994407885
 50
91.342900282223482
 51
137.11259035365779
  0
ARC
  8
_0-2_決定
  6
CONTINUOUS
 62
    7
 10
730.81000570934498
 20
1461.705175733124
 40
0.8827602627388941
 50
33.932559252955592
 51
81.372553748178092
  0
ARC
  8
_0-2_決定
  6
CONTINUOUS
 62
    7
 10
728.4338898393288
 20
1459.9286547458814
 40
3.8487265229273437
 50
15.511819766129378
 51
36.130164182252273
  0
ARC
  8
_0-2_決定
  6
CONTINUOUS
 62
    7
 10
723.16969532418693
 20
1458.2481296392166
 40
9.3729950978028107
 50
359.5709810281985
 51
16.804622995614746
  0
ARC
  8
_0-2_決定
  6
CONTINUOUS
 62
    7
 10
758.39340803759364
 20
1411.9617573103358
 40
9.948296320053899
 50
59.098945672342822
 51
75.153723946406458
  0
ARC
  8
_0-2_決定
  6
CONTINUOUS
 62
    7
 10
761.95216164554847
 20
1417.6344515403189
 40
3.2562134704583787
 50
34.910011249745295
 51
61.569389342447828
  0
ARC
  8
_0-2_決定
  6
CONTINUOUS
 62
    7
 10
764.0828316490697
 20
1419.0995793923719
 40
0.6707150258824951
 50
349.55177208728139
 51
36.437461496541317
  0
ARC
  8
_0-2_決定
  6
CONTINUOUS
 62
    7
 10
763.94143447643557
 20
1419.2905813289804
 40
0.8598412391446326
 50
289.07431568857334
 51
338.67884987590395
  0
ARC
  8
_0-2_決定
  6
CONTINUOUS
 62
    7
 10
763.0505585246176
 20
1421.7818989413804
 40
3.5056178071060664
 50
268.23239734069858
 51
289.52892096032889
  0
ARC
  8
_0-2_決定
  6
CONTINUOUS
 62
    7
 10
762.92294297575063
 20
1426.2588761055299
 40
7.9809506434115249
 50
249.61086833948298
 51
270.13986767146196
  0
ARC
  8
_0-2_決定
  6
CONTINUOUS
 62
    7
 10
762.4011140711732
 20
1428.5504348814504
 40
10.030114055904932
 50
240.76465397049398
 51
256.98590773736328
  0
ARC
  8
_0-2_決定
  6
CONTINUOUS
 62
    7
 10
758.88536352725396
 20
1422.4927718759336
 40
3.0289597120102973
 50
214.94193724736337
 51
242.83388187429665
  0
ARC
  8
_0-2_決定
  6
CONTINUOUS
 62
    7
 10
756.9267286424548
 20
1421.1215894658412
 40
0.6380668294524426
 50
156.31096015325133
 51
214.74412015004131
  0
ARC
  8
_0-2_決定
  6
CONTINUOUS
 62
    7
 10
757.0462717496082
 20
1421.1239339366643
 40
0.7482794064159286
 50
107.40642090512529
 51
160.15582862461798
  0
ARC
  8
_0-2_決定
  6
CONTINUOUS
 62
    7
 10
757.89127128534562
 20
1418.4871822803389
 40
3.517109152374835
 50
86.558101035548759
 51
107.69193166223683
  0
ARC
  8
_0-2_決定
  6
CONTINUOUS
 62
    7
 10
757.68028774631432
 20
1409.3315860770372
 40
12.67339360982387
 50
75.08412694513369
 51
88.091182474012768
  0
ARC
  8
_0-2_決定
  6
CONTINUOUS
 62
    7
 10
729.55781830320575
 20
1343.6743589796038
 40
5.7855368300910639
 50
323.06709597604822
 51
1.0259379897876786
  0
ARC
  8
_0-2_決定
  6
CONTINUOUS
 62
    7
 10
732.41828320663387
 20
1341.6762381591789
 40
2.3016393706125435
 50
273.09188616621839
 51
320.03821618795342
  0
ARC
  8
_0-2_決定
  6
CONTINUOUS
 62
    7
 10
732.59880207249932
 20
1341.5751118756993
 40
2.1978857367329105
 50
235.76912582819153
 51
268.53023756737389
  0
ARC
  8
_0-2_決定
  6
CONTINUOUS
 62
    7
 10
733.64807424964511
 20
1343.0265457735063
 40
3.988471335447664
 50
191.69684911202043
 51
235.03588289009414
  0
ARC
  8
_0-2_決定
  6
CONTINUOUS
 62
    7
 10
735.59942406142841
 20
1343.7616667289342
 40
6.0570182817333054
 50
179.84597695239003
 51
194.76554211421924
  0
ARC
  8
_0-2_決定
  6
CONTINUOUS
 62
    7
 10
735.08348567680275
 20
1343.8194381284131
 40
5.5412133343356835
 50
141.90809749549211
 51
180.42899634840157
  0
ARC
  8
_0-2_決定
  6
CONTINUOUS
 62
    7
 10
732.72777447861063
 20
1345.5871713692795
 40
2.5973993586336555
 50
94.09202513363482
 51
140.5391908132496
  0
ARC
  8
_0-2_決定
  6
CONTINUOUS
 62
    7
 10
732.43126442368691
 20
1345.8184673323456
 40
2.3620990981123775
 50
26.649669902039744
 51
87.302594986356212
  0
ARC
  8
_0-2_決定
  6
CONTINUOUS
 62
    7
 10
729.64555880028479
 20
1343.9610153416277
 40
5.6998094757424251
 50
358.15946145624002
 51
30.781126743884844
  0
ARC
  8
_0-2_決定
  6
CONTINUOUS
 62
    7
 10
741.40987718794941
 20
1359.6973808267626
 40
26.334043136931307
 50
342.77211330112021
 51
0.610452794054708
  0
ARC
  8
_0-2_決定
  6
CONTINUOUS
 62
    7
 10
756.98342832836215
 20
1355.1296727423273
 40
10.109462238839473
 50
327.6348797369331
 51
341.35684128943751
  0
ARC
  8
_0-2_決定
  6
CONTINUOUS
 62
    7
 10
761.98254850240551
 20
1351.9151228684766
 40
4.1663295922096184
 50
305.84665341182802
 51
328.17245421422962
  0
ARC
  8
_0-2_決定
  6
CONTINUOUS
 62
    7
 10
763.3054596110569
 20
1350.0888474043882
 40
1.9112556802534404
 50
271.10824050285112
 51
305.76165714297025
  0
ARC
  8
_0-2_決定
  6
CONTINUOUS
 62
    7
 10
763.38979804666997
 20
1350.1200663869095
 40
1.9426948155079509
 50
234.52739160944429
 51
268.6027107447502
  0
ARC
  8
_0-2_決定
  6
CONTINUOUS
 62
    7
 10
764.62439168083563
 20
1351.8098396419628
 40
4.0353624678987341
 50
213.5787781708004
 51
234.17461640102653
  0
ARC
  8
_0-2_決定
  6
CONTINUOUS
 62
    7
 10
768.89203248145668
 20
1354.6823318880702
 40
9.1796308404654887
 50
200.29761380624819
 51
213.78343401279483
  0
ARC
  8
_0-2_決定
  6
CONTINUOUS
 62
    7
 10
777.10194232374249
 20
1357.773460691234
 40
17.952108081688671
 50
190.70780943211699
 51
200.46099290169622
  0
ARC
  8
_0-2_決定
  6
CONTINUOUS
 62
    7
 10
787.24402681901836
 20
1359.8400128884423
 40
28.301937289037369
 50
179.72075402044979
 51
191.00371104608672
  0
ARC
  8
_0-2_決定
  6
CONTINUOUS
 62
    7
 10
784.32936050035039
 20
1360.2241032794955
 40
25.388128173199544
 50
162.45387802832178
 51
180.55552769891051
  0
ARC
  8
_0-2_決定
  6
CONTINUOUS
 62
    7
 10
769.57894236215884
 20
1364.6989144061508
 40
9.9765710808148569
 50
147.09988832355026
 51
161.41869496399184
  0
ARC
  8
_0-2_決定
  6
CONTINUOUS
 62
    7
 10
764.560189710028
 20
1367.9203238409675
 40
4.0129959862437632
 50
124.23670318815002
 51
146.7956252713588
  0
ARC
  8
_0-2_決定
  6
CONTINUOUS
 62
    7
 10
763.39576317660988
 20
1369.6542109717579
 40
1.9244775455695795
 50
91.588174245844087
 51
124.61935182317542
  0
ARC
  8
_0-2_決定
  6
CONTINUOUS
 62
    7
 10
763.29331771673026
 20
1369.6306253970879
 40
1.9479429530769248
 50
54.574691017980236
 51
88.555411336171204
  0
ARC
  8
_0-2_決定
  6
CONTINUOUS
 62
    7
 10
762.04664308119948
 20
1367.932773680775
 40
4.0542226573756981
 50
33.627202840410739
 51
54.126191731439675
  0
ARC
  8
_0-2_決定
  6
CONTINUOUS
 62
    7
 10
757.85260090342445
 20
1365.0707764704109
 40
9.1315639757826776
 50
20.56185255121855
 51
34.006562036024164
  0
ARC
  8
_0-2_決定
  6
CONTINUOUS
 62
    7
 10
749.8608744733765
 20
1362.0347520087046
 40
17.680509820856681
 50
10.89964819243631
 51
20.67776729209665
  0
ARC
  8
_0-2_決定
  6
CONTINUOUS
 62
    7
 10
740.58074756586564
 20
1360.0874172771148
 40
27.161898689480878
 50
359.76908560621916
 51
11.231737334184425
  0
ARC
  8
_0-2_決定
  6
CONTINUOUS
 62
    7
 10
837.73329934901062
 20
831.31660386915712
 40
27.107216866989706
 50
283.67629472941786
 51
301.06876747027934
  0
ARC
  8
_0-2_決定
  6
CONTINUOUS
 62
    7
 10
848.8820935355343
 20
812.52768081065915
 40
5.2621229080112686
 50
302.66793200020044
 51
322.96046638623352
  0
ARC
  8
_0-2_決定
  6
CONTINUOUS
 62
    7
 10
852.04956139927162
 20
810.16437362371562
 40
1.3103877181882724
 50
322.01879957676135
 51
9.3806455248424889
  0
ARC
  8
_0-2_決定
  6
CONTINUOUS
 62
    7
 10
852.1760668605607
 20
810.00614289743851
 40
1.2241890245956917
 50
17.681352118989459
 51
59.226066314384035
  0
ARC
  8
_0-2_決定
  6
CONTINUOUS
 62
    7
 10
850.91896448372938
 20
807.827891346206
 40
3.7390843417086339
 50
59.753409495587256
 51
80.712253150886752
  0
ARC
  8
_0-2_決定
  6
CONTINUOUS
 62
    7
 10
849.39225114629892
 20
800.40589792027822
 40
11.314393746688403
 50
79.148089270131337
 51
91.163909979689166
  0
ARC
  8
_0-2_決定
  6
CONTINUOUS
 62
    7
 10
849.71119346301987
 20
785.57637292032859
 40
26.147343592704779
 50
91.202584398108726
 51
105.45724051765806
  0
ARC
  8
_0-2_決定
  6
CONTINUOUS
 62
    7
 10
848.77203148420449
 20
785.13064025432959
 40
26.346556037011311
 50
103.22981481161834
 51
120.89889105669474
  0
ARC
  8
_0-2_決定
  6
CONTINUOUS
 62
    7
 10
838.19333400151686
 20
803.05139242399946
 40
5.5382081764168136
 50
122.19668177246601
 51
141.77774321919648
  0
ARC
  8
_0-2_決定
  6
CONTINUOUS
 62
    7
 10
834.91598352352275
 20
805.59425964447792
 40
1.3904847786389876
 50
140.54054555487969
 51
188.94921703898595
  0
ARC
  8
_0-2_決定
  6
CONTINUOUS
 62
    7
 10
834.70878446965855
 20
805.74977158701608
 40
1.224189024595064
 50
197.68135211901276
 51
239.22606631440735
  0
ARC
  8
_0-2_決定
  6
CONTINUOUS
 62
    7
 10
835.96588684649214
 20
807.92802313824859
 40
3.7390843417091619
 50
239.75340949556471
 51
260.71225315086423
  0
ARC
  8
_0-2_決定
  6
CONTINUOUS
 62
    7
 10
837.49260018392101
 20
815.35001656417421
 40
11.314393746686374
 50
259.14808927013047
 51
271.1639099796883
  0
ARC
  8
_0-2_決定
  6
CONTINUOUS
 62
    7
 10
837.17365786719961
 20
830.17954156412543
 40
26.147343592704495
 50
271.20258439810885
 51
285.45724051765819
  0
ARC
  8
_0-2_決定
  6
CONTINUOUS
 62
    7
 10
811.83903057305861
 20
1088.391295971674
 40
3.7916568414579115
 50
347.61330464477328
 51
35.589718419245671
  0
ARC
  8
_0-2_決定
  6
CONTINUOUS
 62
    7
 10
807.94386266040146
 20
1086.1145317257829
 40
8.2946615425106849
 50
32.718971113154318
 51
47.173376786729293
  0
ARC
  8
_0-2_決定
  6
CONTINUOUS
 62
    7
 10
802.78393743645006
 20
1080.6651723984116
 40
15.799125988990196
 50
46.88331055329914
 51
68.234363328597908
  0
ARC
  8
_0-2_決定
  6
CONTINUOUS
 62
    7
 10
798.86185382495592
 20
1072.6284740725662
 40
24.726100171229678
 50
66.699308396100335
 51
73.842923627351794
  0
ARC
  8
_0-2_決定
  6
CONTINUOUS
 62
    7
 10
800.46049467847774
 20
1076.3682434684154
 40
20.695102806696241
 50
75.213015211995355
 51
95.206723343279833
  0
ARC
  8
_0-2_決定
  6
CONTINUOUS
 62
    7
 10
799.48933094797985
 20
1087.3453987982225
 40
9.6751528312895569
 50
95.378544495902588
 51
122.13875619978499
  0
ARC
  8
_0-2_決定
  6
CONTINUOUS
 62
    7
 10
796.45329961605444
 20
1092.5501861344092
 40
3.6582155660010991
 50
125.24141664602165
 51
163.68322777001146
  0
ARC
  8
_0-2_決定
  6
CONTINUOUS
 62
    7
 10
796.63873571409226
 20
1092.7631559675151
 40
3.7850498777541075
 50
167.56879331357541
 51
215.63422975044614
  0
ARC
  8
_0-2_決定
  6
CONTINUOUS
 62
    7
 10
800.35375407327808
 20
1094.9594596137113
 40
8.0929228271251201
 50
212.94754831570404
 51
227.65509064969262
  0
ARC
  8
_0-2_決定
  6
CONTINUOUS
 62
    7
 10
805.1316378973595
 20
1100.0666731196327
 40
15.086301449062148
 50
227.30883097313054
 51
249.47616453437206
  0
ARC
  8
_0-2_決定
  6
CONTINUOUS
 62
    7
 10
808.47866386942678
 20
1107.1663811510973
 40
22.917913556949195
 50
247.86231856323184
 51
255.50503305653604
  0
ARC
  8
_0-2_決定
  6
CONTINUOUS
 62
    7
 10
808.07363449159664
 20
1105.1979536702713
 40
20.91100678737677
 50
255.22952591394687
 51
275.34741219385216
  0
ARC
  8
_0-2_決定
  6
CONTINUOUS
 62
    7
 10
809.13300927034902
 20
1094.0303934100623
 40
9.6933308370706559
 50
275.26460764463536
 51
302.08879581974492
  0
ARC
  8
_0-2_決定
  6
CONTINUOUS
 62
    7
 10
812.28513312724976
 20
1088.5788558545587
 40
3.4076033684353431
 50
305.88273448125005
 51
342.9188256008128
  0
ARC
  8
_0-2_決定
  6
CONTINUOUS
 62
    7
 10
831.95925961263379
 20
1015.9611212947034
 40
4.58682470423153
 50
272.28860565917853
 51
357.71139434081687
  0
ARC
  8
_0-2_決定
  6
CONTINUOUS
 62
    7
 10
832.32559171758589
 20
1015.9611212947034
 40
4.5868247042315655
 50
182.28860565918362
 51
267.71139434082193
  0
ARC
  8
_0-2_決定
  6
CONTINUOUS
 62
    7
 10
832.32559063432882
 20
1015.5947881897509
 40
4.5868236617718088
 50
92.288592637410588
 51
177.71138131904891
  0
ARC
  8
_0-2_決定
  6
CONTINUOUS
 62
    7
 10
831.95926069589086
 20
1015.5947881897509
 40
4.5868236617717715
 50
2.2886186809506417
 51
87.711407362588957
  0
ARC
  8
_0-2_決定
  6
CONTINUOUS
 62
    7
 10
810.12087003754368
 20
923.38938123416278
 40
2.421582583908541
 50
275.24945117444418
 51
359.72965466956026
  0
ARC
  8
_0-2_決定
  6
CONTINUOUS
 62
    7
 10
810.35549314615832
 20
922.89998809531653
 40
1.9220772740488423
 50
202.70942320343539
 51
269.61046452663726
  0
ARC
  8
_0-2_決定
  6
CONTINUOUS
 62
    7
 10
811.32710135845059
 20
923.33149800157253
 40
2.98503723086101
 50
179.10824854782314
 51
203.1501300313783
  0
ARC
  8
_0-2_決定
  6
CONTINUOUS
 62
    7
 10
810.54977679151989
 20
923.38036330912723
 40
2.207352439926237
 50
95.390116293189067
 51
180.06250569461702
  0
ARC
  8
_0-2_決定
  6
CONTINUOUS
 62
    7
 10
810.24726897272171
 20
923.28279854983884
 40
2.2971284332228206
 50
2.3741107609677421
 51
87.625889239035942
  0
ARC
  8
_0-2_決定
  6
CONTINUOUS
 62
    7
 10
820.57360955847798
 20
866.464816371099
 40
1.1720390775866125
 50
312.30126513390604
 51
355.74994694126269
  0
ARC
  8
_0-2_決定
  6
CONTINUOUS
 62
    7
 10
819.50850031188963
 20
867.61009452114138
 40
2.7360072449665864
 50
287.30670179976522
 51
312.65657693795919
  0
ARC
  8
_0-2_決定
  6
CONTINUOUS
 62
    7
 10
818.96162782745591
 20
869.09568913296903
 40
4.317774589226314
 50
269.74519131004672
 51
288.37058494717996
  0
ARC
  8
_0-2_決定
  6
CONTINUOUS
 62
    7
 10
818.84169364375589
 20
868.73660140869163
 40
3.9599255771805995
 50
226.63080744987079
 51
271.45763908886579
  0
ARC
  8
_0-2_決定
  6
CONTINUOUS
 62
    7
 10
816.79402667473084
 20
866.38158836094192
 40
0.8516087509005345
 50
180.24430045774434
 51
217.94268354319141
  0
ARC
  8
_0-2_決定
  6
CONTINUOUS
 62
    7
 10
816.87201972933167
 20
866.29908775265164
 40
0.9329338243529188
 50
127.62860890914318
 51
175.15047175891689
  0
ARC
  8
_0-2_決定
  6
CONTINUOUS
 62
    7
 10
818.05492103810047
 20
864.83296649624754
 40
2.8165979873261175
 50
104.65292302567593
 51
128.47717932849881
  0
ARC
  8
_0-2_決定
  6
CONTINUOUS
 62
    7
 10
818.93031346632608
 20
861.93786414247234
 40
5.8401056599314902
 50
89.881170237516372
 51
105.77698278259777
  0
ARC
  8
_0-2_決定
  6
CONTINUOUS
 62
    7
 10
819.05856623959062
 20
863.19703249643055
 40
4.5823967702168824
 50
67.089967754450072
 51
91.452313649530353
  0
ARC
  8
_0-2_決定
  6
CONTINUOUS
 62
    7
 10
820.39337079967845
 20
866.11992899329664
 40
1.3735092308354326
 50
10.827956696254804
 51
70.916859898689751
  0
ARC
  8
_0-2_決定
  6
CONTINUOUS
 62
    7
 10
841.57360955847764
 20
893.06481437109881
 40
1.1720390775869995
 50
312.30126513391002
 51
355.74994694126667
  0
ARC
  8
_0-2_決定
  6
CONTINUOUS
 62
    7
 10
840.50850031189032
 20
894.21009252114118
 40
2.7360072449661228
 50
287.30670179975516
 51
312.65657693794913
  0
ARC
  8
_0-2_決定
  6
CONTINUOUS
 62
    7
 10
839.96162782745671
 20
895.69568713296917
 40
4.3177745892261754
 50
269.74519131003524
 51
288.37058494716842
  0
ARC
  8
_0-2_決定
  6
CONTINUOUS
 62
    7
 10
839.84169364375566
 20
895.33659940869165
 40
3.9599255771804662
 50
226.63080744987585
 51
271.45763908887079
  0
ARC
  8
_0-2_決定
  6
CONTINUOUS
 62
    7
 10
837.79402667473096
 20
892.98158636094195
 40
0.8516087509005345
 50
180.24430045774434
 51
217.94268354319141
  0
ARC
  8
_0-2_決定
  6
CONTINUOUS
 62
    7
 10
837.87201972933167
 20
892.89908575265167
 40
0.9329338243529188
 50
127.62860890914318
 51
175.15047175891689
  0
ARC
  8
_0-2_決定
  6
CONTINUOUS
 62
    7
 10
839.05492103809991
 20
891.43296449624722
 40
2.8165979873258093
 50
104.65292302566341
 51
128.4771793284863
  0
ARC
  8
_0-2_決定
  6
CONTINUOUS
 62
    7
 10
839.93031346632722
 20
888.53786214247236
 40
5.8401056599316288
 50
89.881170237526362
 51
105.77698278260776
  0
ARC
  8
_0-2_決定
  6
CONTINUOUS
 62
    7
 10
840.05856623959073
 20
889.79703049643058
 40
4.5823967702168824
 50
67.089967754450072
 51
91.452313649530353
  0
ARC
  8
_0-2_決定
  6
CONTINUOUS
 62
    7
 10
841.39337079967845
 20
892.71992699329667
 40
1.3735092308354326
 50
10.827956696254804
 51
70.916859898689751
  0
ARC
  8
_0-2_決定
  6
CONTINUOUS
 62
    7
 10
771.24810917367199
 20
794.85460859807995
 40
2.2955965658708553
 50
277.36611835410122
 51
358.08650363370288
  0
ARC
  8
_0-2_決定
  6
CONTINUOUS
 62
    7
 10
771.63758235749833
 20
794.87311393461573
 40
2.2971284332227837
 50
182.3741107609668
 51
267.62588923903502
  0
ARC
  8
_0-2_決定
  6
CONTINUOUS
 62
    7
 10
771.76397667136052
 20
794.76653548649779
 40
2.4215779426598298
 50
95.249351460669843
 51
179.72975438333643
  0
ARC
  8
_0-2_決定
  6
CONTINUOUS
 62
    7
 10
771.4319399328092
 20
795.1821143598047
 40
1.9988986738596879
 50
22.217877719474018
 51
86.831458224104367
  0
ARC
  8
_0-2_決定
  6
CONTINUOUS
 62
    7
 10
770.80453746264629
 20
794.77343057615803
 40
2.7378919445251388
 50
0.0947294431038742
 51
25.17199442742562
  0
ARC
  8
_0-2_決定
  6
CONTINUOUS
 62
    7
 10
782.01283160088849
 20
737.85682873180258
 40
0.9329338243529188
 50
307.62860890914317
 51
355.15047175891686
  0
ARC
  8
_0-2_決定
  6
CONTINUOUS
 62
    7
 10
780.82993029212025
 20
739.32294998820703
 40
2.8165979873258093
 50
284.65292302566343
 51
308.47717932848627
  0
ARC
  8
_0-2_決定
  6
CONTINUOUS
 62
    7
 10
779.95453786389385
 20
742.21805234198223
 40
5.8401056599314902
 50
269.88117023751636
 51
285.77698278259777
  0
ARC
  8
_0-2_決定
  6
CONTINUOUS
 62
    7
 10
779.82628509062863
 20
740.95888398802401
 40
4.5823967702167572
 50
247.08996775445837
 51
271.45231364953867
  0
ARC
  8
_0-2_決定
  6
CONTINUOUS
 62
    7
 10
778.49148053054137
 20
738.03598749115827
 40
1.3735092308357113
 50
190.82795669626822
 51
250.91685989870317
  0
ARC
  8
_0-2_決定
  6
CONTINUOUS
 62
    7
 10
778.1236188599346
 20
737.71591702774595
 40
0.9831527459900245
 50
129.18585214169858
 51
176.38192474368992
  0
ARC
  8
_0-2_決定
  6
CONTINUOUS
 62
    7
 10
779.16728990391243
 20
736.47264861996064
 40
2.606346796843936
 50
104.32493686899484
 51
129.70039382687702
  0
ARC
  8
_0-2_決定
  6
CONTINUOUS
 62
    7
 10
779.90286982766509
 20
733.79889973761749
 40
5.3792049429638986
 50
89.578673244380994
 51
104.86995814368663
  0
ARC
  8
_0-2_決定
  6
CONTINUOUS
 62
    7
 10
780.02610278643954
 20
733.90727658293883
 40
5.2713468445506688
 50
68.682503743578224
 51
90.90954881298947
  0
ARC
  8
_0-2_決定
  6
CONTINUOUS
 62
    7
 10
781.52330459623727
 20
737.41418898369625
 40
1.4650028700005848
 50
14.377343315232292
 51
73.376051256590571
  0
ARC
  8
_0-2_決定
  6
CONTINUOUS
 62
    7
 10
803.01283160088838
 20
764.45682673180272
 40
0.9329338243529188
 50
307.62860890914317
 51
355.15047175891686
  0
ARC
  8
_0-2_決定
  6
CONTINUOUS
 62
    7
 10
801.82993029212014
 20
765.92294798820717
 40
2.8165979873258093
 50
284.65292302566343
 51
308.47717932848627
  0
ARC
  8
_0-2_決定
  6
CONTINUOUS
 62
    7
 10
800.95453786389294
 20
768.81805034198214
 40
5.8401056599316288
 50
269.88117023752636
 51
285.77698278260777
  0
ARC
  8
_0-2_決定
  6
CONTINUOUS
 62
    7
 10
800.82628509062943
 20
767.55888198802381
 40
4.5823967702168824
 50
247.08996775445007
 51
271.45231364953037
  0
ARC
  8
_0-2_決定
  6
CONTINUOUS
 62
    7
 10
799.49148053054148
 20
764.63598549115829
 40
1.3735092308357579
 50
190.82795669627046
 51
250.91685989870541
  0
ARC
  8
_0-2_決定
  6
CONTINUOUS
 62
    7
 10
799.31124177174206
 20
764.29109811335502
 40
1.1720390775872518
 50
132.30126513388473
 51
175.7499469412414
  0
ARC
  8
_0-2_決定
  6
CONTINUOUS
 62
    7
 10
800.37635101832973
 20
763.14581996331299
 40
2.7360072449662627
 50
107.30670179975348
 51
132.65657693794742
  0
ARC
  8
_0-2_決定
  6
CONTINUOUS
 62
    7
 10
800.92322350276413
 20
761.66022535148522
 40
4.317774589226314
 50
89.745191310046764
 51
108.37058494717995
  0
ARC
  8
_0-2_決定
  6
CONTINUOUS
 62
    7
 10
801.04315768646404
 20
762.01931307576331
 40
3.9599255771799902
 50
46.630807449867433
 51
91.457639088862422
  0
ARC
  8
_0-2_決定
  6
CONTINUOUS
 62
    7
 10
803.09082465548897
 20
764.37432612351188
 40
0.8516087509007862
 50
0.2443004577932747
 51
37.942683543240321
  0
ARC
  8
_0-2_決定
  6
CONTINUOUS
 62
    7
 10
853.36014272393413
 20
1056.8432896870538
 40
9.5832291341614741
 50
344.22477519096003
 51
0.8051469082883194
  0
ARC
  8
_0-2_決定
  6
CONTINUOUS
 62
    7
 10
859.27087920884446
 20
1055.0121935250243
 40
3.4008510622357555
 50
320.69550911122087
 51
346.84061102248324
  0
ARC
  8
_0-2_決定
  6
CONTINUOUS
 62
    7
 10
861.30477081275353
 20
1053.353262946941
 40
0.7762235671047444
 50
272.78052777932953
 51
320.34957457479157
  0
ARC
  8
_0-2_決定
  6
CONTINUOUS
 62
    7
 10
861.4335283327116
 20
1053.3719519844753
 40
0.7992081698377185
 50
212.89054707006431
 51
263.45455977665938
  0
ARC
  8
_0-2_決定
  6
CONTINUOUS
 62
    7
 10
863.69437636644022
 20
1054.9084568198432
 40
3.5325938436834226
 50
192.26603391534829
 51
213.90423343025839
  0
ARC
  8
_0-2_決定
  6
CONTINUOUS
 62
    7
 10
871.37804283019864
 20
1056.7685508129805
 40
11.437534232685076
 50
178.95094995602815
 51
193.19396285837769
  0
ARC
  8
_0-2_決定
  6
CONTINUOUS
 62
    7
 10
870.78472140780832
 20
1057.1423660084267
 40
10.843542250105543
 50
165.16911754916455
 51
180.86876763717044
  0
ARC
  8
_0-2_決定
  6
CONTINUOUS
 62
    7
 10
863.03627492072201
 20
1059.3510286144217
 40
2.7920127660920127
 50
138.58540418930627
 51
168.28449345655304
  0
ARC
  8
_0-2_決定
  6
CONTINUOUS
 62
    7
 10
861.35564282024552
 20
1060.8141373419257
 40
0.5639707994413635
 50
91.342900282217542
 51
137.11259035365185
  0
ARC
  8
_0-2_決定
  6
CONTINUOUS
 62
    7
 10
861.21000370934496
 20
1060.5051817331246
 40
0.8827602627384463
 50
33.932559252937182
 51
81.372553748159689
  0
ARC
  8
_0-2_決定
  6
CONTINUOUS
 62
    7
 10
858.83388783932844
 20
1058.7286607458814
 40
3.8487265229277021
 50
15.511819766126802
 51
36.130164182249693
  0
ARC
  8
_0-2_決定
  6
CONTINUOUS
 62
    7
 10
853.5696933241868
 20
1057.0481356392165
 40
9.3729950978027752
 50
359.57098102819702
 51
16.804622995613311
  0
ARC
  8
_0-2_決定
  6
CONTINUOUS
 62
    7
 10
881.30013517567534
 20
1018.6135414760274
 40
10.843534982513534
 50
345.16911284700529
 51
0.868762935011191
  0
ARC
  8
_0-2_決定
  6
CONTINUOUS
 62
    7
 10
889.04857440949797
 20
1016.404879870033
 40
2.7920127660923217
 50
318.58540418930625
 51
348.28449345655304
  0
ARC
  8
_0-2_決定
  6
CONTINUOUS
 62
    7
 10
890.72920650997457
 20
1014.9417711425288
 40
0.5639707994413635
 50
271.34290028221756
 51
317.11259035365185
  0
ARC
  8
_0-2_決定
  6
CONTINUOUS
 62
    7
 10
890.85075309793615
 20
1015.1759317449621
 40
0.8052960728410236
 50
211.26751477124077
 51
262.26906309283777
  0
ARC
  8
_0-2_決定
  6
CONTINUOUS
 62
    7
 10
893.34104157882598
 20
1016.7604636953535
 40
3.7568140686275413
 50
191.71053324042532
 51
212.21065890343172
  0
ARC
  8
_0-2_決定
  6
CONTINUOUS
 62
    7
 10
900.67754785481497
 20
1018.6742984726975
 40
11.33559811863865
 50
179.47606967650822
 51
193.65652756499074
  0
ARC
  8
_0-2_決定
  6
CONTINUOUS
 62
    7
 10
900.18471940780773
 20
1018.9423660084274
 40
10.843542250104992
 50
165.16911754916558
 51
180.86876763717143
  0
ARC
  8
_0-2_決定
  6
CONTINUOUS
 62
    7
 10
892.43627292072119
 20
1021.1510286144216
 40
2.7920127660915783
 50
138.58540418929866
 51
168.28449345654539
  0
ARC
  8
_0-2_決定
  6
CONTINUOUS
 62
    7
 10
890.75564082024584
 20
1022.6141373419259
 40
0.5639707994415883
 50
91.342900282268332
 51
137.11259035370264
  0
ARC
  8
_0-2_決定
  6
CONTINUOUS
 62
    7
 10
890.63409423228347
 20
1022.3799767394926
 40
0.8052960728412952
 50
31.267514771211317
 51
82.269063092808281
  0
ARC
  8
_0-2_決定
  6
CONTINUOUS
 62
    7
 10
888.14380022135708
 20
1020.7954437891011
 40
3.7568192805930538
 50
11.710501188595172
 51
32.210626851601575
  0
ARC
  8
_0-2_決定
  6
CONTINUOUS
 62
    7
 10
880.80729947540499
 20
1018.8816080117572
 40
11.33559811863865
 50
359.47606967650819
 51
13.656527564990709
  0
ARC
  8
_0-2_決定
  6
CONTINUOUS
 62
    7
 10
805.14271032632564
 20
974.23970110262132
 40
10.454215078155913
 50
156.68128296764618
 51
172.31363944910458
  0
ARC
  8
_0-2_決定
  6
CONTINUOUS
 62
    7
 10
797.47024367156655
 20
975.04621469966582
 40
2.7521850420242306
 50
167.58403018934095
 51
212.24147270408935
  0
ARC
  8
_0-2_決定
  6
CONTINUOUS
 62
    7
 10
795.258170681862
 20
974.66031381919697
 40
1.0885297414598962
 50
263.89611373285686
 51
307.60623359406952
  0
ARC
  8
_0-2_決定
  6
CONTINUOUS
 62
    7
 10
793.12276887729467
 20
977.67761203004261
 40
4.7843301433742553
 50
305.81515301550138
 51
324.18484698450243
  0
ARC
  8
_0-2_決定
  6
CONTINUOUS
 62
    7
 10
787.40225880984826
 20
982.01144375790318
 40
11.960345398530272
 50
323.3854802672289
 51
336.1636202828505
  0
ARC
  8
_0-2_決定
  6
CONTINUOUS
 62
    7
 10
787.80383606786143
 20
981.24823357033381
 40
11.297302172089283
 50
338.88213802583169
 51
354.15608234431193
  0
ARC
  8
_0-2_決定
  6
CONTINUOUS
 62
    7
 10
796.43373736459671
 20
980.50896229359739
 40
2.640867555465662
 50
351.0464699765223
 51
21.993133526778735
  0
ARC
  8
_0-2_決定
  6
CONTINUOUS
 62
    7
 10
798.41688577690036
 20
981.27908537797214
 40
0.5144233713521715
 50
25.180189118538873
 51
75.874891184840635
  0
ARC
  8
_0-2_決定
  6
CONTINUOUS
 62
    7
 10
798.29834033202951
 20
981.25514990535112
 40
0.5769775299705054
 50
64.973252118469063
 51
123.1979814414621
  0
ARC
  8
_0-2_決定
  6
CONTINUOUS
 62
    7
 10
799.7529067251221
 20
978.87504741459395
 40
3.3661319661274396
 50
121.7334987074866
 51
143.06137688749303
  0
ARC
  8
_0-2_決定
  6
CONTINUOUS
 62
    7
 10
805.98789351184735
 20
973.79592701721106
 40
11.406260613894041
 50
141.49060239243812
 51
156.31477183600168
  0
ARC
  8
_0-2_決定
  6
CONTINUOUS
 62
    7
 10
719.6398584076303
 20
858.75151862043197
 40
9.8502313293520096
 50
154.59144639061245
 51
171.32068573674906
  0
ARC
  8
_0-2_決定
  6
CONTINUOUS
 62
    7
 10
712.71384106311586
 20
859.68409320831165
 40
2.8654512144778312
 50
168.85513282255113
 51
197.59391239047829
  0
ARC
  8
_0-2_決定
  6
CONTINUOUS
 62
    7
 10
710.71969935830282
 20
859.05390680938558
 40
0.7741070648340829
 50
197.74626657496543
 51
240.83254715008161
  0
ARC
  8
_0-2_決定
  6
CONTINUOUS
 62
    7
 10
710.4870197231179
 20
859.4995890101959
 40
1.1309132089401623
 50
262.65438494128409
 51
305.41810199457603
  0
ARC
  8
_0-2_決定
  6
CONTINUOUS
 62
    7
 10
708.95742414549454
 20
861.74296076184248
 40
3.8459703144860318
 50
304.61979014945501
 51
325.38020985055329
  0
ARC
  8
_0-2_決定
  6
CONTINUOUS
 62
    7
 10
705.17258092877182
 20
864.57911964649702
 40
8.5739396748892833
 50
324.15244050781791
 51
342.33926854733943
  0
ARC
  8
_0-2_決定
  6
CONTINUOUS
 62
    7
 10
704.44499692258762
 20
866.2043958640229
 40
9.850231329353953
 50
334.59144639061441
 51
351.32068573675105
  0
ARC
  8
_0-2_決定
  6
CONTINUOUS
 62
    7
 10
711.37101426710478
 20
865.27182127614287
 40
2.8654512144772677
 50
348.85513282255465
 51
17.593912390481805
  0
ARC
  8
_0-2_決定
  6
CONTINUOUS
 62
    7
 10
713.36515597191669
 20
865.90200767506929
 40
0.7741070648343212
 50
17.746266574941778
 51
60.832547150057934
  0
ARC
  8
_0-2_決定
  6
CONTINUOUS
 62
    7
 10
713.60285082634107
 20
865.5643492295502
 40
1.0231729557041445
 50
82.159509987739568
 51
127.32761568524832
  0
ARC
  8
_0-2_決定
  6
CONTINUOUS
 62
    7
 10
715.40937743859274
 20
863.13200451424314
 40
4.0529365052163326
 50
126.78490940961019
 51
146.68649976824656
  0
ARC
  8
_0-2_決定
  6
CONTINUOUS
 62
    7
 10
721.98706559632478
 20
858.4646225565325
 40
12.116603162157736
 50
145.32529995400603
 51
158.1306278871364
  0
ARC
  8
_0-2_決定
  6
CONTINUOUS
 62
    7
 10
859.95781630320539
 20
942.47436497960393
 40
5.78553683009127
 50
323.0670959760489
 51
1.0259379897883458
  0
ARC
  8
_0-2_決定
  6
CONTINUOUS
 62
    7
 10
862.81828120663374
 20
940.4762441591788
 40
2.3016393706125435
 50
273.09188616621839
 51
320.03821618795342
  0
ARC
  8
_0-2_決定
  6
CONTINUOUS
 62
    7
 10
862.99880007249931
 20
940.37511787569883
 40
2.1978857367327906
 50
235.76912582819051
 51
268.53023756737286
  0
ARC
  8
_0-2_決定
  6
CONTINUOUS
 62
    7
 10
864.04807224964497
 20
941.82655177350625
 40
3.988471335447664
 50
191.69684911202043
 51
235.03588289009414
  0
ARC
  8
_0-2_決定
  6
CONTINUOUS
 62
    7
 10
865.99942206142885
 20
942.56167272893413
 40
6.0570182817338472
 50
179.84597695238938
 51
194.76554211421859
  0
ARC
  8
_0-2_決定
  6
CONTINUOUS
 62
    7
 10
865.48348367680262
 20
942.61944412841331
 40
5.5412133343356498
 50
141.90809749549317
 51
180.42899634840265
  0
ARC
  8
_0-2_決定
  6
CONTINUOUS
 62
    7
 10
863.12777247861027
 20
944.3871773692797
 40
2.5973993586335724
 50
94.092025133631296
 51
140.53919081324608
  0
ARC
  8
_0-2_決定
  6
CONTINUOUS
 62
    7
 10
862.83126242368667
 20
944.6184733323455
 40
2.3620990981124361
 50
26.649669902040674
 51
87.302594986357136
  0
ARC
  8
_0-2_決定
  6
CONTINUOUS
 62
    7
 10
860.04555680028488
 20
942.76102134162761
 40
5.6998094757421489
 50
358.1594614562394
 51
30.781126743884254
  0
ARC
  8
_0-2_決定
  6
CONTINUOUS
 62
    7
 10
908.6257673139246
 20
1118.2582636643729
 40
4.118395938809428
 50
1.6653749373321205
 51
69.583691820813101
  0
ARC
  8
_0-2_決定
  6
CONTINUOUS
 62
    7
 10
907.02435968848954
 20
1115.460741716382
 40
7.3176702594396499
 50
65.470090829772801
 51
90.641554793346117
  0
ARC
  8
_0-2_決定
  6
CONTINUOUS
 62
    7
 10
906.80819273828115
 20
1115.1220672347833
 40
7.6570626548755865
 50
88.995533939634157
 51
122.24866658578402
  0
ARC
  8
_0-2_決定
  6
CONTINUOUS
 62
    7
 10
905.05137135382881
 20
1118.2085349546746
 40
4.1124388949607171
 50
124.49385758642003
 51
177.63894348397071
  0
ARC
  8
_0-2_決定
  6
CONTINUOUS
 62
    7
 10
904.63549223703342
 20
1118.4573852424587
 40
3.6939227008142037
 50
181.23215062976126
 51
228.80163632644835
  0
ARC
  8
_0-2_決定
  6
CONTINUOUS
 62
    7
 10
906.62138688919958
 20
1120.5409448199821
 40
6.570838839993578
 50
227.7388164417913
 51
272.80046104873884
  0
ARC
  8
_0-2_決定
  6
CONTINUOUS
 62
    7
 10
906.99958575654989
 20
1120.630829026125
 40
6.6531213502139899
 50
269.5077217578023
 51
319.81615007402928
  0
ARC
  8
_0-2_決定
  6
CONTINUOUS
 62
    7
 10
909.11629159427866
 20
1118.4243489122018
 40
3.6264288705701824
 50
324.87720907431913
 51
359.26695140167362
  0
ARC
  8
_0-2_決定
  6
CONTINUOUS
 62
    7
 10
915.42817638028919
 20
805.45785112228737
 40
8.1205589048566758
 50
2.259140420683865
 51
90.605051947646857
  0
ARC
  8
_0-2_決定
  6
CONTINUOUS
 62
    7
 10
915.6014395193057
 20
805.09540211345757
 40
8.4865087477327332
 50
91.748990159804521
 51
175.38681747186715
  0
ARC
  8
_0-2_決定
  6
CONTINUOUS
 62
    7
 10
915.34335263234334
 20
806.18919025906223
 40
8.2112330693838391
 50
182.87067445225324
 51
269.99351791607296
  0
ARC
  8
_0-2_決定
  6
CONTINUOUS
 62
    7
 10
915.09961191766081
 20
806.44347728441744
 40
8.4690015426509984
 50
271.64293216269272
 51
355.4928754689787
  0
ARC
  8
_0-2_決定
  6
CONTINUOUS
 62
    7
 10
886.1119973560983
 20
863.50034574385768
 40
3.2327438938594972
 50
305.78706357790867
 51
357.83031967449989
  0
ARC
  8
_0-2_決定
  6
CONTINUOUS
 62
    7
 10
882.99499155959575
 20
867.06667271898459
 40
7.9608150049843918
 50
278.723829277748
 51
308.97711853841031
  0
ARC
  8
_0-2_決定
  6
CONTINUOUS
 62
    7
 10
881.93853372899389
 20
870.73609931322835
 40
11.758142714453426
 50
270.01895511319253
 51
281.10093941343547
  0
ARC
  8
_0-2_決定
  6
CONTINUOUS
 62
    7
 10
881.85404157912194
 20
869.78666889207716
 40
10.809072990905907
 50
242.97382397201511
 51
270.46849317648804
  0
ARC
  8
_0-2_決定
  6
CONTINUOUS
 62
    7
 10
879.27256959781687
 20
864.63065912652837
 40
5.0432760080091246
 50
205.01656454330862
 51
242.48183382717178
  0
ARC
  8
_0-2_決定
  6
CONTINUOUS
 62
    7
 10
877.15796463091101
 20
863.39896432691773
 40
2.6156233251808025
 50
180.46016955918185
 51
200.149523378325
  0
ARC
  8
_0-2_決定
  6
CONTINUOUS
 62
    7
 10
877.77285197412175
 20
863.2555687405968
 40
3.2327438938594972
 50
125.78706357790864
 51
177.83031967449986
  0
ARC
  8
_0-2_決定
  6
CONTINUOUS
 62
    7
 10
880.88985777062385
 20
859.68924176547034
 40
7.9608150049842674
 50
98.723829277748422
 51
128.97711853841074
  0
ARC
  8
_0-2_決定
  6
CONTINUOUS
 62
    7
 10
881.94631460122446
 20
856.01982547931721
 40
11.758132406693536
 50
90.018960002667029
 51
101.10094430290994
  0
ARC
  8
_0-2_決定
  6
CONTINUOUS
 62
    7
 10
882.03080675109845
 20
856.96924150489053
 40
10.809077086432611
 50
62.973829095391125
 51
90.468498299864052
  0
ARC
  8
_0-2_決定
  6
CONTINUOUS
 62
    7
 10
884.61227973240273
 20
862.12525535792622
 40
5.0432760080094443
 50
25.016564543305108
 51
62.481833827168273
  0
ARC
  8
_0-2_決定
  6
CONTINUOUS
 62
    7
 10
886.72688469930995
 20
863.35695015753686
 40
2.6156233251799845
 50
0.4601695591850774
 51
20.149523378328247
  0
ARC
  8
_0-2_決定
  6
CONTINUOUS
 62
    7
 10
783.33484500580153
 20
873.23043802467168
 40
28.361452892704023
 50
146.94997194684655
 51
156.41534964536385
  0
ARC
  8
_0-2_決定
  6
CONTINUOUS
 62
    7
 10
765.45126740526393
 20
885.24824741527993
 40
6.824876638583329
 50
130.24037930887957
 51
149.63805177537674
  0
ARC
  8
_0-2_決定
  6
CONTINUOUS
 62
    7
 10
761.373570248634
 20
890.1798528108759
 40
0.4324323039748559
 50
67.015738184208672
 51
139.97572837732386
  0
ARC
  8
_0-2_決定
  6
CONTINUOUS
 62
    7
 10
761.29845772593421
 20
890.06693406714817
 40
0.5662711335788699
 50
5.1693748686220298
 51
64.47960344533044
  0
ARC
  8
_0-2_決定
  6
CONTINUOUS
 62
    7
 10
757.45736850598689
 20
889.51976238553607
 40
4.4454879674720154
 50
349.08443785943331
 51
7.7332815981794143
  0
ARC
  8
_0-2_決定
  6
CONTINUOUS
 62
    7
 10
741.65550756454093
 20
892.15422362127697
 40
20.464335501507186
 50
334.60497162437906
 51
350.21976288918307
  0
ARC
  8
_0-2_決定
  6
CONTINUOUS
 62
    7
 10
735.29594676717034
 20
893.55760666526805
 40
26.85093698030596
 50
327.8216282927026
 51
337.72099072174746
  0
ARC
  8
_0-2_決定
  6
CONTINUOUS
 62
    7
 10
751.28557140528164
 20
883.275358587303
 40
7.8437694309295853
 50
311.68963771760411
 51
329.19102634440577
  0
ARC
  8
_0-2_決定
  6
CONTINUOUS
 62
    7
 10
755.92443466617738
 20
877.92492873884703
 40
0.7688261788153488
 50
256.30601105300684
 51
318.74512569443073
  0
ARC
  8
_0-2_決定
  6
CONTINUOUS
 62
    7
 10
756.40042150512977
 20
877.76195581223396
 40
0.8797800038949383
 50
176.3504326762596
 51
221.59038294068083
  0
ARC
  8
_0-2_決定
  6
CONTINUOUS
 62
    7
 10
763.20971594275511
 20
877.90972606458126
 40
7.6878380140018248
 50
166.2427834468009
 51
180.68394925561893
  0
ARC
  8
_0-2_決定
  6
CONTINUOUS
 62
    7
 10
782.52449051104736
 20
873.56884034723919
 40
27.483394999090542
 50
156.38597536628816
 51
167.02845859317557
  0
ARC
  8
_0-2_決定
  6
CONTINUOUS
 62
    7
 10
878.66329834117323
 20
796.25708249072454
 40
7.6841965516944981
 50
272.08171884526155
 51
357.91829664008594
  0
ARC
  8
_0-2_決定
  6
CONTINUOUS
 62
    7
 10
879.2558148099788
 20
796.08557911291086
 40
7.5141598937795342
 50
180.82064926755069
 51
267.60970152646917
  0
ARC
  8
_0-2_決定
  6
CONTINUOUS
 62
    7
 10
879.00017811046609
 20
795.92020479687108
 40
7.2579822198059603
 50
90.455912703331293
 51
179.54408729666869
  0
ARC
  8
_0-2_決定
  6
CONTINUOUS
 62
    7
 10
879.04940325517202
 20
795.88513068007501
 40
7.2936111406086415
 50
0.7292291471175467
 51
90.840404579325579
  0
ARC
  8
_0-2_決定
  6
CONTINUOUS
 62
    7
 10
789.55457441531939
 20
821.79860234288549
 40
8.7187945454424796
 50
315.96288467159047
 51
15.836878658385608
  0
ARC
  8
_0-2_決定
  6
CONTINUOUS
 62
    7
 10
787.46921067986079
 20
823.28975759919558
 40
11.260812103099028
 50
287.96486888961954
 51
317.88455394398829
  0
ARC
  8
_0-2_決定
  6
CONTINUOUS
 62
    7
 10
787.33801325722368
 20
823.40710948248534
 40
11.413252255549605
 50
237.71847212951519
 51
288.40968376336974
  0
ARC
  8
_0-2_決定
  6
CONTINUOUS
 62
    7
 10
785.89771577638021
 20
820.30286334764128
 40
8.0316574845280879
 50
199.83244777884701
 51
234.57634817991351
  0
ARC
  8
_0-2_決定
  6
CONTINUOUS
 62
    7
 10
786.73027691490029
 20
819.95731214156899
 40
8.7187945454419289
 50
135.96288467158956
 51
195.83687865838471
  0
ARC
  8
_0-2_決定
  6
CONTINUOUS
 62
    7
 10
788.81564065036048
 20
818.46615688525901
 40
11.260812103099624
 50
107.96486888962428
 51
137.88455394399304
  0
ARC
  8
_0-2_決定
  6
CONTINUOUS
 62
    7
 10
788.946838072996
 20
818.34880500196982
 40
11.413252255549153
 50
57.718472129513245
 51
108.40968376336777
  0
ARC
  8
_0-2_決定
  6
CONTINUOUS
 62
    7
 10
790.38713555384015
 20
821.45305113681275
 40
8.0316574845281412
 50
19.832447778853119
 51
54.576348179919613
  0
ARC
  8
_0-2_決定
  6
CONTINUOUS
 62
    7
 10
750.20762443948513
 20
1027.5185546721232
 40
1.3421859312399871
 50
267.21567241901647
 51
353.98691687097812
  0
ARC
  8
_0-2_決定
  6
CONTINUOUS
 62
    7
 10
750.25567858189083
 20
1027.4912061590082
 40
1.3181272497724925
 50
184.92890538575267
 51
265.07109461425068
  0
ARC
  8
_0-2_決定
  6
CONTINUOUS
 62
    7
 10
750.14287154766748
 20
1027.3775073596701
 40
1.2004459653646518
 50
90.021281415433677
 51
179.97871858459013
  0
ARC
  8
_0-2_決定
  6
CONTINUOUS
 62
    7
 10
750.23560555446352
 20
1027.2699964464734
 40
1.3112717000451577
 50
4.7224979339319697
 51
94.074912776046659
  0
ARC
  8
_0-2_決定
  6
CONTINUOUS
 62
    7
 10
824.53328401323211
 20
984.10007610729735
 40
2.412234856828559
 50
297.37409736399354
 51
357.09812565482912
  0
ARC
  8
_0-2_決定
  6
CONTINUOUS
 62
    7
 10
823.56018037064837
 20
985.40539510148483
 40
4.0274789942969802
 50
269.74741693495059
 51
301.13187413568613
  0
ARC
  8
_0-2_決定
  6
CONTINUOUS
 62
    7
 10
823.46567338760156
 20
985.24598908207554
 40
3.8687952515366879
 50
224.8406791884376
 51
271.13675441572968
  0
ARC
  8
_0-2_決定
  6
CONTINUOUS
 62
    7
 10
822.41387746177054
 20
984.03510732583209
 40
2.2721706857569641
 50
181.44131714714186
 51
221.89060029943343
  0
ARC
  8
_0-2_決定
  6
CONTINUOUS
 62
    7
 10
822.81924647642597
 20
983.87202375668369
 40
2.678916037415926
 50
121.42705958732293
 51
177.73378120707383
  0
ARC
  8
_0-2_決定
  6
CONTINUOUS
 62
    7
 10
823.49021054690752
 20
983.02198113027384
 40
3.7563370386896389
 50
89.203531998656388
 51
123.3998846899517
  0
ARC
  8
_0-2_決定
  6
CONTINUOUS
 62
    7
 10
823.46585721273584
 20
983.22069355005829
 40
3.5580856474332272
 50
12.288155690247724
 51
88.766924613071851
  0
ARC
  8
_0-2_決定
  6
CONTINUOUS
 62
    7
 10
859.65020562357722
 20
1081.8274585912504
 40
1.4930410014242281
 50
320.50922555770711
 51
358.09987297420065
  0
ARC
  8
_0-2_決定
  6
CONTINUOUS
 62
    7
 10
858.23319044475522
 20
1083.0294409553524
 40
3.3510996698457425
 50
297.53604334129966
 51
320.05706085530443
  0
ARC
  8
_0-2_決定
  6
CONTINUOUS
 62
    7
 10
856.56435540915936
 20
1086.1676464460893
 40
6.9053839297718209
 50
282.18974044139827
 51
297.7764726024173
  0
ARC
  8
_0-2_決定
  6
CONTINUOUS
 62
    7
 10
855.81197193976493
 20
1089.4672636330163
 40
10.289545422530482
 50
269.61273912553463
 51
282.40527278943955
  0
ARC
  8
_0-2_決定
  6
CONTINUOUS
 62
    7
 10
855.5781558936942
 20
1087.7544815009244
 40
8.5781012776737704
 50
240.10268193453535
 51
271.09727545188241
  0
ARC
  8
_0-2_決定
  6
CONTINUOUS
 62
    7
 10
852.37703181638744
 20
1082.0701600266289
 40
2.0554821808195061
 50
188.17283963634173
 51
238.47973973789038
  0
ARC
  8
_0-2_決定
  6
CONTINUOUS
 62
    7
 10
851.73727934759791
 20
1081.7447143194483
 40
1.3952496627978022
 50
139.11564369060153
 51
178.63491801729046
  0
ARC
  8
_0-2_決定
  6
CONTINUOUS
 62
    7
 10
852.98485883423245
 20
1080.5573021172202
 40
3.1167184100060141
 50
114.29715180378813
 51
137.62388258949147
  0
ARC
  8
_0-2_決定
  6
CONTINUOUS
 62
    7
 10
854.78290500484036
 20
1076.8771387623813
 40
7.2118218532541398
 50
100.06583245673055
 51
115.28638494056923
  0
ARC
  8
_0-2_決定
  6
CONTINUOUS
 62
    7
 10
855.70250352482287
 20
1072.2000889994279
 40
11.977930772725971
 50
89.80903426259944
 51
100.48673538568659
  0
ARC
  8
_0-2_決定
  6
CONTINUOUS
 62
    7
 10
855.99194727500958
 20
1075.0648222618022
 40
9.1165463471752357
 50
61.782545215646756
 51
91.568392260576658
  0
ARC
  8
_0-2_決定
  6
CONTINUOUS
 62
    7
 10
859.3720621103821
 20
1081.5786309801283
 40
1.781548899153832
 50
6.4237839173644842
 51
58.518600664304948
  0
ARC
  8
_0-2_決定
  6
CONTINUOUS
 62
    7
 10
890.75209473589155
 20
1105.112106742529
 40
2.9910538053407438
 50
308.70477424179342
 51
1.2614388020130101
  0
ARC
  8
_0-2_決定
  6
CONTINUOUS
 62
    7
 10
891.92678530562273
 20
1103.8871236644852
 40
1.3092638209323986
 50
270.68437948838516
 51
302.09470117964418
  0
ARC
  8
_0-2_決定
  6
CONTINUOUS
 62
    7
 10
891.99162348765049
 20
1104.0059527985791
 40
1.4288468621507844
 50
228.37045024314574
 51
268.02673078416626
  0
ARC
  8
_0-2_決定
  6
CONTINUOUS
 62
    7
 10
892.97045736774885
 20
1105.0134132120374
 40
2.8328162744511398
 50
176.67018354288388
 51
227.10892999692382
  0
ARC
  8
_0-2_決定
  6
CONTINUOUS
 62
    7
 10
892.87722614276277
 20
1105.170781071786
 40
2.734811882342965
 50
126.18979956320636
 51
179.84973900034979
  0
ARC
  8
_0-2_決定
  6
CONTINUOUS
 62
    7
 10
891.96404873491531
 20
1106.2484280048905
 40
1.32970109436669
 50
90.931848414126193
 51
121.84723225398874
  0
ARC
  8
_0-2_決定
  6
CONTINUOUS
 62
    7
 10
891.9001738148213
 20
1106.1144258470454
 40
1.4641371132162539
 50
48.912339792634647
 51
88.34641566868001
  0
ARC
  8
_0-2_決定
  6
CONTINUOUS
 62
    7
 10
891.06297665092154
 20
1105.2319172753225
 40
2.6799903766079254
 50
358.84621961880669
 51
47.821862934615105
  0
ARC
  8
_0-2_決定
  6
CONTINUOUS
 62
    7
 10
927.33921812848234
 20
1083.2853073369527
 40
2.6048536100310757
 50
305.2453352209746
 51
2.0382485664231464
  0
ARC
  8
_0-2_決定
  6
CONTINUOUS
 62
    7
 10
928.13567901283773
 20
1082.4552935566167
 40
1.4773557103333101
 50
270.26157644309365
 51
298.5799698119813
  0
ARC
  8
_0-2_決定
  6
CONTINUOUS
 62
    7
 10
928.22159315658848
 20
1082.7323654892959
 40
1.7561976372394965
 50
197.03240408923975
 51
267.41622729883676
  0
ARC
  8
_0-2_決定
  6
CONTINUOUS
 62
    7
 10
929.54701216303647
 20
1083.3332271211812
 40
3.2049006017266093
 50
179.2003804557321
 51
200.36443360791512
  0
ARC
  8
_0-2_決定
  6
CONTINUOUS
 62
    7
 10
929.33275259432833
 20
1083.4437997419254
 40
2.991053805340778
 50
128.70477424179205
 51
181.26143880201164
  0
ARC
  8
_0-2_決定
  6
CONTINUOUS
 62
    7
 10
928.15806202459726
 20
1084.6687828199692
 40
1.3092638209323986
 50
90.684379488385204
 51
122.09470117964416
  0
ARC
  8
_0-2_決定
  6
CONTINUOUS
 62
    7
 10
928.09322384256973
 20
1084.5499536858752
 40
1.4288468621513677
 50
48.370450243155112
 51
88.026730784175598
  0
ARC
  8
_0-2_決定
  6
CONTINUOUS
 62
    7
 10
927.11438996247125
 20
1083.5424932724177
 40
2.8328162744509529
 50
356.6701835428745
 51
47.108929996914441
  0
ARC
  8
_0-2_決定
  6
CONTINUOUS
 62
    7
 10
895.21194110549663
 20
1040.0736616703484
 40
2.1326312480196559
 50
293.50286621336113
 51
357.42781064384178
  0
ARC
  8
_0-2_決定
  6
CONTINUOUS
 62
    7
 10
893.86052561744293
 20
1042.3242559655384
 40
4.7477718576670433
 50
268.57460685358092
 51
297.63097302894266
  0
ARC
  8
_0-2_決定
  6
CONTINUOUS
 62
    7
 10
893.62183190889652
 20
1042.0486707203972
 40
4.4723435848870174
 50
228.91019488245084
 51
271.54510405240535
  0
ARC
  8
_0-2_決定
  6
CONTINUOUS
 62
    7
 10
892.06882431661825
 20
1040.0159965897769
 40
1.9267762626791194
 50
181.13135341496471
 51
223.98313985445307
  0
ARC
  8
_0-2_決定
  6
CONTINUOUS
 62
    7
 10
892.49642408107866
 20
1039.8599125692781
 40
2.3569581156333035
 50
117.10819654692408
 51
177.12932412253988
  0
ARC
  8
_0-2_決定
  6
CONTINUOUS
 62
    7
 10
893.66706882232666
 20
1038.2092810410306
 40
4.3693220473936982
 50
89.011808131737496
 51
120.91250237692594
  0
ARC
  8
_0-2_決定
  6
CONTINUOUS
 62
    7
 10
893.79858154207091
 20
1038.3144622709722
 40
4.2638608055516301
 50
46.707235056413978
 51
90.754645265119819
  0
ARC
  8
_0-2_決定
  6
CONTINUOUS
 62
    7
 10
895.15674821122479
 20
1039.8903707551378
 40
2.1874295146954479
 50
2.2946790176947682
 51
44.294447490086114
  0
ARC
  8
_0-2_決定
  6
CONTINUOUS
 62
    7
 10
929.75090109112887
 20
1049.1617034197495
 40
7.3915404360934867
 50
311.64235955981133
 51
0.1259611584133049
  0
ARC
  8
_0-2_決定
  6
CONTINUOUS
 62
    7
 10
931.64650285122639
 20
1047.3940747295298
 40
4.8170766013208688
 50
271.14098685161014
 51
308.76219453791333
  0
ARC
  8
_0-2_決定
  6
CONTINUOUS
 62
    7
 10
931.87131088478395
 20
1047.6547875568888
 40
5.0784701017056797
 50
207.39648595432493
 51
268.54572606504945
  0
ARC
  8
_0-2_決定
  6
CONTINUOUS
 62
    7
 10
933.85678900181028
 20
1049.0988477094384
 40
7.5147817066580114
 50
179.39685581663502
 51
210.20714035023295
  0
ARC
  8
_0-2_決定
  6
CONTINUOUS
 62
    7
 10
933.72072331311585
 20
1049.2595633981105
 40
7.3787509724415878
 50
131.59328682880658
 51
180.63371332792224
  0
ARC
  8
_0-2_決定
  6
CONTINUOUS
 62
    7
 10
931.7777279101058
 20
1050.9116648468396
 40
4.8664164573944717
 50
90.415665613199025
 51
127.39348607202626
  0
ARC
  8
_0-2_決定
  6
CONTINUOUS
 62
    7
 10
931.65985124576719
 20
1050.6875490010448
 40
5.0910739086252992
 50
28.771245007065108
 51
89.070675722778276
  0
ARC
  8
_0-2_決定
  6
CONTINUOUS
 62
    7
 10
929.61220229777211
 20
1049.3497144051858
 40
7.5321800123346847
 50
358.69333409203369
 51
30.194737356949855
  0
ARC
  8
_0-2_決定
  6
CONTINUOUS
 62
    7
 10
848.67248267006289
 20
1063.6919190392555
 40
0.8773762120798799
 50
305.53594680618488
 51
352.536540129684
  0
ARC
  8
_0-2_決定
  6
CONTINUOUS
 62
    7
 10
846.90684748445221
 20
1066.0646288762314
 40
3.8348171437295302
 50
285.97760873652112
 51
306.39861265843956
  0
ARC
  8
_0-2_決定
  6
CONTINUOUS
 62
    7
 10
845.36703312156249
 20
1070.5972744024618
 40
8.6193562863001443
 50
269.8364256833471
 51
287.52441116679859
  0
ARC
  8
_0-2_決定
  6
CONTINUOUS
 62
    7
 10
845.27951776001328
 20
1071.5203559434544
 40
9.542610057888357
 50
254.20731390938766
 51
270.37771464467733
  0
ARC
  8
_0-2_決定
  6
CONTINUOUS
 62
    7
 10
843.54981797936694
 20
1066.0394899077137
 40
3.8018078742584294
 50
232.63288690481488
 51
256.81166862409151
  0
ARC
  8
_0-2_決定
  6
CONTINUOUS
 62
    7
 10
841.69705349344542
 20
1063.6218610074066
 40
0.755904128273611
 50
183.32998112179399
 51
233.02719909804688
  0
ARC
  8
_0-2_決定
  6
CONTINUOUS
 62
    7
 10
841.8151971742127
 20
1063.4455312864623
 40
0.8827602627383718
 50
123.93255925293414
 51
171.37255374815663
  0
ARC
  8
_0-2_決定
  6
CONTINUOUS
 62
    7
 10
843.5917181614559
 20
1061.069415416446
 40
3.8487265229275232
 50
105.51181976612808
 51
126.13016418225098
  0
ARC
  8
_0-2_決定
  6
CONTINUOUS
 62
    7
 10
845.27224326812075
 20
1055.8052209013042
 40
9.3729950978027752
 50
89.570981028197039
 51
106.80462299561331
  0
ARC
  8
_0-2_決定
  6
CONTINUOUS
 62
    7
 10
845.53040487901046
 20
1058.094819769105
 40
7.0856274233780265
 50
58.217044850773476
 51
91.52021532592299
  0
ARC
  8
_0-2_決定
  6
CONTINUOUS
 62
    7
 10
848.80583680282871
 20
1063.5386108691923
 40
0.7376387831133139
 50
3.0573528357557218
 51
51.757798039925085
  0
ARC
  8
_0-2_決定
  6
CONTINUOUS
 62
    7
 10
855.94757198262278
 20
965.2111941650071
 40
1.3952496627974411
 50
319.11564369056805
 51
358.63491801725695
  0
ARC
  8
_0-2_決定
  6
CONTINUOUS
 62
    7
 10
854.69999249598595
 20
966.39860636723461
 40
3.1167184100068388
 50
294.29715180380902
 51
317.62388258951239
  0
ARC
  8
_0-2_決定
  6
CONTINUOUS
 62
    7
 10
852.90194632537941
 20
970.07876972207305
 40
7.2118218532541398
 50
280.06583245673056
 51
295.28638494056923
  0
ARC
  8
_0-2_決定
  6
CONTINUOUS
 62
    7
 10
851.98234780539769
 20
974.75581948502634
 40
11.977930772725902
 50
269.80903426259579
 51
280.48673538568295
  0
ARC
  8
_0-2_決定
  6
CONTINUOUS
 62
    7
 10
851.69290405521122
 20
971.89108622265167
 40
9.1165463471744861
 50
241.78254521564025
 51
271.56839226057019
  0
ARC
  8
_0-2_決定
  6
CONTINUOUS
 62
    7
 10
848.31278921983744
 20
965.3772775043268
 40
1.7815488991537267
 50
186.42378391738822
 51
238.51860066432869
  0
ARC
  8
_0-2_決定
  6
CONTINUOUS
 62
    7
 10
848.03464570664289
 20
965.12844989320342
 40
1.4930410014244619
 50
140.50922555768335
 51
178.09987297417689
  0
ARC
  8
_0-2_決定
  6
CONTINUOUS
 62
    7
 10
849.45166088546614
 20
963.92646752910218
 40
3.351099669846568
 50
117.53604334131224
 51
140.05706085531702
  0
ARC
  8
_0-2_決定
  6
CONTINUOUS
 62
    7
 10
851.12049592105916
 20
960.78826203836741
 40
6.9053839297695587
 50
102.18974044139121
 51
117.77647260241024
  0
ARC
  8
_0-2_決定
  6
CONTINUOUS
 62
    7
 10
851.87287939045495
 20
957.48864485143804
 40
10.289545422530482
 50
89.612739125534631
 51
102.40527278943956
  0
ARC
  8
_0-2_決定
  6
CONTINUOUS
 62
    7
 10
852.10669543652546
 20
959.20142698352925
 40
8.5781012776746088
 50
60.102681934534971
 51
91.097275451882041
  0
ARC
  8
_0-2_決定
  6
CONTINUOUS
 62
    7
 10
855.3078195138329
 20
964.88574845782546
 40
2.0554821808193666
 50
8.172839636344305
 51
58.479739737892963
  0
ARC
  8
_0-2_決定
  6
CONTINUOUS
 62
    7
 10
886.95209473589125
 20
988.51210874252899
 40
2.9910538053407438
 50
308.70477424179342
 51
1.2614388020130101
  0
ARC
  8
_0-2_決定
  6
CONTINUOUS
 62
    7
 10
888.12678530562278
 20
987.28712566448451
 40
1.3092638209316427
 50
270.68437948839494
 51
302.0947011796539
  0
ARC
  8
_0-2_決定
  6
CONTINUOUS
 62
    7
 10
888.19162348765099
 20
987.40595479857961
 40
1.4288468621516015
 50
228.3704502431317
 51
268.02673078415216
  0
ARC
  8
_0-2_決定
  6
CONTINUOUS
 62
    7
 10
889.1704573677481
 20
988.41341521203753
 40
2.8328162744507064
 50
176.67018354288922
 51
227.10892999692916
  0
ARC
  8
_0-2_決定
  6
CONTINUOUS
 62
    7
 10
888.94562920173769
 20
988.670601147502
 40
2.6048536100314772
 50
125.24533522097897
 51
182.03824856642751
  0
ARC
  8
_0-2_決定
  6
CONTINUOUS
 62
    7
 10
888.14916831738128
 20
989.5006149278372
 40
1.477355710334078
 50
90.261576443051126
 51
118.57996981193875
  0
ARC
  8
_0-2_決定
  6
CONTINUOUS
 62
    7
 10
888.06325417363166
 20
989.2235429951586
 40
1.7561976372394965
 50
17.032404089239723
 51
87.416227298836731
  0
ARC
  8
_0-2_決定
  6
CONTINUOUS
 62
    7
 10
886.73783516718345
 20
988.62268136327475
 40
3.2049006017263793
 50
359.20038045570823
 51
20.364433607891264
  0
ARC
  8
_0-2_決定
  6
CONTINUOUS
 62
    7
 10
923.40762118745704
 20
966.785127412669
 40
2.7348118823433198
 50
306.18979956319902
 51
359.84973900034242
  0
ARC
  8
_0-2_決定
  6
CONTINUOUS
 62
    7
 10
924.32079859530518
 20
965.70748047956408
 40
1.329701094366464
 50
270.93184841409311
 51
301.84723225395567
  0
ARC
  8
_0-2_決定
  6
CONTINUOUS
 62
    7
 10
924.38467351539794
 20
965.84148263740894
 40
1.4641371132161005
 50
228.91233979264999
 51
268.34641566869533
  0
ARC
  8
_0-2_決定
  6
CONTINUOUS
 62
    7
 10
925.22187067929849
 20
966.72399120913155
 40
2.679990376607722
 50
178.8462196187966
 51
227.82186293460501
  0
ARC
  8
_0-2_決定
  6
CONTINUOUS
 62
    7
 10
925.53275259432871
 20
966.8438017419254
 40
2.9910538053407438
 50
128.70477424179344
 51
181.26143880201303
  0
ARC
  8
_0-2_決定
  6
CONTINUOUS
 62
    7
 10
924.35806202459776
 20
968.06878481996989
 40
1.3092638209317908
 50
90.684379488416965
 51
122.09470117967592
  0
ARC
  8
_0-2_決定
  6
CONTINUOUS
 62
    7
 10
924.2932238425692
 20
967.94995568587524
 40
1.4288468621515238
 50
48.370450243139508
 51
88.026730784159994
  0
ARC
  8
_0-2_決定
  6
CONTINUOUS
 62
    7
 10
923.3143899624713
 20
966.94249527241709
 40
2.8328162744511398
 50
356.67018354288388
 51
47.108929996923834
  0
ARC
  8
_0-2_決定
  6
CONTINUOUS
 62
    7
 10
891.18842324914158
 20
923.6959959151767
 40
2.3569581156335349
 50
297.10819654691534
 51
357.12932412253116
  0
ARC
  8
_0-2_決定
  6
CONTINUOUS
 62
    7
 10
890.01777850789392
 20
925.34662744342404
 40
4.3693220473936227
 50
269.01180813172721
 51
300.91250237691565
  0
ARC
  8
_0-2_決定
  6
CONTINUOUS
 62
    7
 10
889.88626578814865
 20
925.24144621348228
 40
4.263860805551424
 50
226.7072350564211
 51
270.75464526512695
  0
ARC
  8
_0-2_決定
  6
CONTINUOUS
 62
    7
 10
888.52809911899499
 20
923.66553772931638
 40
2.1874295146954479
 50
182.29467901769479
 51
224.29444749008613
  0
ARC
  8
_0-2_決定
  6
CONTINUOUS
 62
    7
 10
888.47290622472372
 20
923.48224681410579
 40
2.1326312480202545
 50
113.50286621335687
 51
177.42781064383755
  0
ARC
  8
_0-2_決定
  6
CONTINUOUS
 62
    7
 10
889.82432171277708
 20
921.23165251891714
 40
4.7477718576660779
 50
88.574606853583688
 51
117.63097302894538
  0
ARC
  8
_0-2_決定
  6
CONTINUOUS
 62
    7
 10
890.06301542132348
 20
921.50723776405755
 40
4.4723435848870441
 50
48.910194882453631
 51
91.545104052408135
  0
ARC
  8
_0-2_決定
  6
CONTINUOUS
 62
    7
 10
891.61602301360119
 20
923.53991189467706
 40
1.926776262680062
 50
1.1313534149718734
 51
43.983139854460219
  0
ARC
  8
_0-2_決定
  6
CONTINUOUS
 62
    7
 10
925.95090109112857
 20
932.56170541974961
 40
7.3915404360935213
 50
311.6423595598107
 51
0.1259611584126956
  0
ARC
  8
_0-2_決定
  6
CONTINUOUS
 62
    7
 10
927.84650285122609
 20
930.79407672952982
 40
4.8170766013207658
 50
271.14098685161053
 51
308.76219453791379
  0
ARC
  8
_0-2_決定
  6
CONTINUOUS
 62
    7
 10
928.07131088478377
 20
931.05478955688818
 40
5.0784701017052516
 50
207.39648595432374
 51
268.54572606504826
  0
ARC
  8
_0-2_決定
  6
CONTINUOUS
 62
    7
 10
930.05678900181078
 20
932.4988497094381
 40
7.5147817066582379
 50
179.39685581663352
 51
210.20714035023144
  0
ARC
  8
_0-2_決定
  6
CONTINUOUS
 62
    7
 10
930.28641549567214
 20
932.6378681795461
 40
7.744223591288355
 50
132.82265611600451
 51
180.44327138163024
  0
ARC
  8
_0-2_決定
  6
CONTINUOUS
 62
    7
 10
928.01892250522428
 20
934.6153357958741
 40
4.7632337821402473
 50
90.920225485622851
 51
128.9829559039006
  0
ARC
  8
_0-2_決定
  6
CONTINUOUS
 62
    7
 10
927.83243051015211
 20
934.3769057852885
 40
5.002258906222842
 50
28.163981790603206
 51
88.740038923661359
  0
ARC
  8
_0-2_決定
  6
CONTINUOUS
 62
    7
 10
925.47368875878328
 20
932.72271283911186
 40
7.8700663140724592
 50
358.94607405283921
 51
30.676598705010417
  0
ARC
  8
_0-2_決定
  6
CONTINUOUS
 62
    7
 10
844.78397308002354
 20
947.22830228598582
 40
0.9597740268800727
 50
308.57473234018664
 51
356.99304454521916
  0
ARC
  8
_0-2_決定
  6
CONTINUOUS
 62
    7
 10
843.48140280388952
 20
948.96003884841753
 40
3.126439979753493
 50
284.84525106433625
 51
307.44843140683037
  0
ARC
  8
_0-2_決定
  6
CONTINUOUS
 62
    7
 10
841.72578464633511
 20
954.78961188511767
 40
9.2134813519377516
 50
268.85967215250031
 51
286.11040574825739
  0
ARC
  8
_0-2_決定
  6
CONTINUOUS
 62
    7
 10
841.3654578236733
 20
955.71259961302871
 40
10.13618933029197
 50
254.65097305341018
 51
271.00037847361392
  0
ARC
  8
_0-2_決定
  6
CONTINUOUS
 62
    7
 10
839.31709089220647
 20
948.74776490807335
 40
2.8805954781549046
 50
228.87272661226504
 51
257.27191768565035
  0
ARC
  8
_0-2_決定
  6
CONTINUOUS
 62
    7
 10
837.99598755352599
 20
947.21095079015504
 40
0.854199393314956
 50
182.2137408440579
 51
227.8200461121927
  0
ARC
  8
_0-2_決定
  6
CONTINUOUS
 62
    7
 10
837.94040216784481
 20
947.06962580940058
 40
0.8052960728412952
 50
121.26751477121131
 51
172.2690630928083
  0
ARC
  8
_0-2_決定
  6
CONTINUOUS
 62
    7
 10
839.52493511823661
 20
944.5793317984743
 40
3.7568192805930178
 50
101.71050118860197
 51
122.21062685160837
  0
ARC
  8
_0-2_決定
  6
CONTINUOUS
 62
    7
 10
841.43877089557975
 20
937.24283105252221
 40
11.335598118638616
 50
89.476069676506768
 51
103.65652756498926
  0
ARC
  8
_0-2_決定
  6
CONTINUOUS
 62
    7
 10
841.6618836908043
 20
938.58654777397737
 40
9.9921215673401349
 50
74.557928266510928
 51
90.685000048141944
  0
ARC
  8
_0-2_決定
  6
CONTINUOUS
 62
    7
 10
843.72558402736558
 20
945.54032456909738
 40
2.7433421154188982
 50
47.966618655170194
 51
77.434236922162185
  0
ARC
  8
_0-2_決定
  6
CONTINUOUS
 62
    7
 10
845.17516512043414
 20
947.16318799712349
 40
0.5674527267302454
 50
1.4912191100429502
 51
46.964271525794281
  0
ARC
  8
_0-2_決定
  6
CONTINUOUS
 62
    7
 10
701.5592616126338
 20
1065.5611192947033
 40
4.5868247042317138
 50
272.28860565917989
 51
357.71139434081823
  0
ARC
  8
_0-2_決定
  6
CONTINUOUS
 62
    7
 10
701.92559371758625
 20
1065.5611192947033
 40
4.5868247042317138
 50
182.28860565918177
 51
267.71139434082011
  0
ARC
  8
_0-2_決定
  6
CONTINUOUS
 62
    7
 10
701.92559371758625
 20
1065.194787189751
 40
4.5868247042317876
 50
92.288605659180845
 51
177.71139434081917
  0
ARC
  8
_0-2_決定
  6
CONTINUOUS
 62
    7
 10
701.5592616126338
 20
1065.194787189751
 40
4.5868247042317876
 50
2.2886056591808512
 51
87.711394340819155
  0
ARC
  8
_0-2_決定
  6
CONTINUOUS
 62
    7
 10
711.36123447028524
 20
942.43999745670862
 40
0.9831527459900245
 50
309.18585214169855
 51
356.38192474368986
  0
ARC
  8
_0-2_決定
  6
CONTINUOUS
 62
    7
 10
710.31756342630672
 20
943.68326586449371
 40
2.6063467968442295
 50
284.3249368690075
 51
309.70039382688969
  0
ARC
  8
_0-2_決定
  6
CONTINUOUS
 62
    7
 10
709.58198350255486
 20
946.35701474683538
 40
5.3792049429623088
 50
269.57867324438314
 51
284.86995814368879
  0
ARC
  8
_0-2_決定
  6
CONTINUOUS
 62
    7
 10
709.45875054378212
 20
946.24863790151551
 40
5.2713468445507488
 50
248.68250374356214
 51
270.90954881297341
  0
ARC
  8
_0-2_決定
  6
CONTINUOUS
 62
    7
 10
707.96154873398268
 20
942.74172550075855
 40
1.4650028700004269
 50
194.37734331524214
 51
253.37605125660042
  0
ARC
  8
_0-2_決定
  6
CONTINUOUS
 62
    7
 10
707.62106346390442
 20
942.26895301508625
 40
1.0841294535073485
 50
130.12227875525028
 51
174.22952847626581
  0
ARC
  8
_0-2_決定
  6
CONTINUOUS
 62
    7
 10
708.93071875704754
 20
940.85028688852867
 40
3.0141742050142337
 50
107.93725269249801
 51
131.78077963733955
  0
ARC
  8
_0-2_決定
  6
CONTINUOUS
 62
    7
 10
709.55908050826156
 20
939.188549940489
 40
4.7894342527593778
 50
90.199217590561219
 51
108.9666718565273
  0
ARC
  8
_0-2_決定
  6
CONTINUOUS
 62
    7
 10
709.66937811023456
 20
940.5238138896101
 40
3.4564734773143355
 50
43.840591838271664
 51
92.104850823386698
  0
ARC
  8
_0-2_決定
  6
CONTINUOUS
 62
    7
 10
711.38435914462548
 20
942.35859906873293
 40
0.9582640301062421
 50
1.1574080243774727
 51
35.712489621425831
  0
ARC
  8
_0-2_決定
  6
CONTINUOUS
 62
    7
 10
723.00002496388424
 20
1106.3150453371306
 40
9.5426100578871065
 50
344.20731390938664
 51
0.3777146446762821
  0
ARC
  8
_0-2_決定
  6
CONTINUOUS
 62
    7
 10
728.48089099962317
 20
1104.5853455564854
 40
3.8018078742588646
 50
322.63288690480101
 51
346.81166862407764
  0
ARC
  8
_0-2_決定
  6
CONTINUOUS
 62
    7
 10
730.89851989993008
 20
1102.7325810705622
 40
0.7559041282734034
 50
273.32998112184606
 51
323.02719909809895
  0
ARC
  8
_0-2_決定
  6
CONTINUOUS
 62
    7
 10
731.05075709793618
 20
1102.775929744962
 40
0.8052960728412952
 50
211.26751477121132
 51
262.26906309280827
  0
ARC
  8
_0-2_決定
  6
CONTINUOUS
 62
    7
 10
733.54105110886394
 20
1104.3604626953536
 40
3.756819280594164
 50
191.71050118858835
 51
212.21062685159475
  0
ARC
  8
_0-2_決定
  6
CONTINUOUS
 62
    7
 10
740.87755185481342
 20
1106.2742984726958
 40
11.335598118636733
 50
179.47606967650054
 51
193.65652756498304
  0
ARC
  8
_0-2_決定
  6
CONTINUOUS
 62
    7
 10
740.38472340780777
 20
1106.5423660084284
 40
10.843542250104834
 50
165.1691175491724
 51
180.86876763717825
  0
ARC
  8
_0-2_決定
  6
CONTINUOUS
 62
    7
 10
732.63627692072203
 20
1108.7510286144211
 40
2.7920127660926317
 50
138.58540418929357
 51
168.2844934565403
  0
ARC
  8
_0-2_決定
  6
CONTINUOUS
 62
    7
 10
730.95564482024542
 20
1110.2141373419265
 40
0.5639707994408637
 50
91.342900282240393
 51
137.1125903536747
  0
ARC
  8
_0-2_決定
  6
CONTINUOUS
 62
    7
 10
730.81000570934498
 20
1109.9051817331242
 40
0.8827602627388941
 50
33.932559252955592
 51
81.372553748178092
  0
ARC
  8
_0-2_決定
  6
CONTINUOUS
 62
    7
 10
728.43388983932846
 20
1108.1286607458815
 40
3.8487265229277021
 50
15.511819766126802
 51
36.130164182249693
  0
ARC
  8
_0-2_決定
  6
CONTINUOUS
 62
    7
 10
723.16969532418693
 20
1106.4481356392164
 40
9.3729950978028107
 50
359.5709810281985
 51
16.804622995614746
  0
ARC
  8
_0-2_決定
  6
CONTINUOUS
 62
    7
 10
758.39340803759364
 20
1060.161763310336
 40
9.948296320053899
 50
59.098945672342822
 51
75.153723946406458
  0
ARC
  8
_0-2_決定
  6
CONTINUOUS
 62
    7
 10
761.95216164554881
 20
1065.8344575403189
 40
3.2562134704581731
 50
34.910011249749338
 51
61.569389342451878
  0
ARC
  8
_0-2_決定
  6
CONTINUOUS
 62
    7
 10
764.0828316490697
 20
1067.2995853923721
 40
0.6707150258826692
 50
349.55177208727798
 51
36.437461496537885
  0
ARC
  8
_0-2_決定
  6
CONTINUOUS
 62
    7
 10
764.02466729704781
 20
1067.4563862509901
 40
0.769871427766831
 50
286.43039372212769
 51
338.79771821709784
  0
ARC
  8
_0-2_決定
  6
CONTINUOUS
 62
    7
 10
763.15138698458043
 20
1070.2213925215328
 40
3.6693939807811753
 50
266.73540580656731
 51
287.29759768286124
  0
ARC
  8
_0-2_決定
  6
CONTINUOUS
 62
    7
 10
763.19744604031803
 20
1077.8014224102926
 40
11.246360936987516
 50
254.23780851819558
 51
268.70066026192558
  0
ARC
  8
_0-2_決定
  6
CONTINUOUS
 62
    7
 10
762.40111407117388
 20
1076.7504408814507
 40
10.030114055905111
 50
240.76465397049134
 51
256.98590773736066
  0
ARC
  8
_0-2_決定
  6
CONTINUOUS
 62
    7
 10
758.88536352725396
 20
1070.6927778759334
 40
3.0289597120102973
 50
214.94193724736337
 51
242.83388187429665
  0
ARC
  8
_0-2_決定
  6
CONTINUOUS
 62
    7
 10
756.92672864245446
 20
1069.3215954658413
 40
0.6380668294522978
 50
156.31096015325258
 51
214.74412015004256
  0
ARC
  8
_0-2_決定
  6
CONTINUOUS
 62
    7
 10
757.04627174960763
 20
1069.3239399366641
 40
0.7482794064155964
 50
107.40642090509878
 51
160.15582862459149
  0
ARC
  8
_0-2_決定
  6
CONTINUOUS
 62
    7
 10
757.8912712853471
 20
1066.6871882803384
 40
3.5171091523750269
 50
86.558101035573827
 51
107.69193166226187
  0
ARC
  8
_0-2_決定
  6
CONTINUOUS
 62
    7
 10
757.68028774631375
 20
1057.5315920770372
 40
12.673393609823959
 50
75.08412694513089
 51
88.091182474009955
  0
ARC
  8
_0-2_決定
  6
CONTINUOUS
 62
    7
 10
729.55781830320575
 20
991.87436497960391
 40
5.7855368300910639
 50
323.06709597604822
 51
1.0259379897876786
  0
ARC
  8
_0-2_決定
  6
CONTINUOUS
 62
    7
 10
732.41828320663421
 20
989.8762441591789
 40
2.301639370612464
 50
273.09188616621446
 51
320.03821618794944
  0
ARC
  8
_0-2_決定
  6
CONTINUOUS
 62
    7
 10
732.59880207249932
 20
989.77511787569927
 40
2.1978857367329105
 50
235.76912582819153
 51
268.53023756737389
  0
ARC
  8
_0-2_決定
  6
CONTINUOUS
 62
    7
 10
733.64807424964499
 20
991.22655177350657
 40
3.9884713354475041
 50
191.69684911202191
 51
235.03588289009562
  0
ARC
  8
_0-2_決定
  6
CONTINUOUS
 62
    7
 10
735.59942406142841
 20
991.96167272893422
 40
6.0570182817333054
 50
179.84597695239003
 51
194.76554211421924
  0
ARC
  8
_0-2_決定
  6
CONTINUOUS
 62
    7
 10
735.08348567680275
 20
992.01944412841328
 40
5.5412133343356835
 50
141.90809749549211
 51
180.42899634840157
  0
ARC
  8
_0-2_決定
  6
CONTINUOUS
 62
    7
 10
732.72777447861063
 20
993.78717736927968
 40
2.5973993586336555
 50
94.09202513363482
 51
140.5391908132496
  0
ARC
  8
_0-2_決定
  6
CONTINUOUS
 62
    7
 10
732.43126442368691
 20
994.01847333234571
 40
2.3620990981123007
 50
26.649669902042607
 51
87.302594986359068
  0
ARC
  8
_0-2_決定
  6
CONTINUOUS
 62
    7
 10
729.64555880028456
 20
992.16102134162747
 40
5.6998094757426703
 50
358.15946145623934
 51
30.781126743884215
  0
ARC
  8
_0-2_決定
  6
CONTINUOUS
 62
    7
 10
741.40987718794941
 20
1007.8973868267624
 40
26.334043136931307
 50
342.77211330112021
 51
0.610452794054708
  0
ARC
  8
_0-2_決定
  6
CONTINUOUS
 62
    7
 10
756.98342832836215
 20
1003.3296787423274
 40
10.109462238839473
 50
327.6348797369331
 51
341.35684128943751
  0
ARC
  8
_0-2_決定
  6
CONTINUOUS
 62
    7
 10
761.98254850240551
 20
1000.1151288684764
 40
4.1663295922096184
 50
305.84665341182802
 51
328.17245421422962
  0
ARC
  8
_0-2_決定
  6
CONTINUOUS
 62
    7
 10
763.3054596110569
 20
998.28885340438796
 40
1.9112556802534404
 50
271.10824050285112
 51
305.76165714297025
  0
ARC
  8
_0-2_決定
  6
CONTINUOUS
 62
    7
 10
763.38979804666997
 20
998.32007238690926
 40
1.9426948155079509
 50
234.52739160944429
 51
268.6027107447502
  0
ARC
  8
_0-2_決定
  6
CONTINUOUS
 62
    7
 10
764.62439168083449
 20
1000.0098456419624
 40
4.0353624678978743
 50
213.57877817081214
 51
234.17461640103829
  0
ARC
  8
_0-2_決定
  6
CONTINUOUS
 62
    7
 10
768.89203248145895
 20
1002.88233788807
 40
9.1796308404676434
 50
200.29761380624134
 51
213.78343401278795
  0
ARC
  8
_0-2_決定
  6
CONTINUOUS
 62
    7
 10
777.1019423237417
 20
1005.9734666912343
 40
17.952108081687864
 50
190.7078094321177
 51
200.46099290169693
  0
ARC
  8
_0-2_決定
  6
CONTINUOUS
 62
    7
 10
787.24402681901836
 20
1008.0400188884424
 40
28.301937289037369
 50
179.72075402044979
 51
191.00371104608672
  0
ARC
  8
_0-2_決定
  6
CONTINUOUS
 62
    7
 10
784.3293542226462
 20
1008.4241082794956
 40
25.388121886094797
 50
162.45387590899628
 51
180.55552557958501
  0
ARC
  8
_0-2_決定
  6
CONTINUOUS
 62
    7
 10
769.57894236215702
 20
1012.898918406151
 40
9.9765710808133168
 50
147.099888323546
 51
161.41869496398758
  0
ARC
  8
_0-2_決定
  6
CONTINUOUS
 62
    7
 10
764.560189710028
 20
1016.1203278409674
 40
4.0129959862437632
 50
124.23670318815002
 51
146.7956252713588
  0
ARC
  8
_0-2_決定
  6
CONTINUOUS
 62
    7
 10
763.39576317660988
 20
1017.8542149717579
 40
1.9244775455695795
 50
91.588174245844087
 51
124.61935182317542
  0
ARC
  8
_0-2_決定
  6
CONTINUOUS
 62
    7
 10
763.29331771672992
 20
1017.8306293970879
 40
1.947942953077002
 50
54.574691017973457
 51
88.555411336164426
  0
ARC
  8
_0-2_決定
  6
CONTINUOUS
 62
    7
 10
762.04664308119982
 20
1016.1327776807746
 40
4.0542226573754094
 50
33.62720284041464
 51
54.126191731443576
  0
ARC
  8
_0-2_決定
  6
CONTINUOUS
 62
    7
 10
757.85260090342445
 20
1013.2707804704107
 40
9.1315639757826776
 50
20.56185255121855
 51
34.006562036024164
  0
ARC
  8
_0-2_決定
  6
CONTINUOUS
 62
    7
 10
749.86088616410245
 20
1010.2347570087044
 40
17.680498530122644
 50
10.89965853828611
 51
20.677777637946452
  0
ARC
  8
_0-2_決定
  6
CONTINUOUS
 62
    7
 10
740.58074756586564
 20
1008.2874232771148
 40
27.161898689480878
 50
359.76908560621916
 51
11.231737334184425
  0
ARC
  8
_0-2_決定
  6
CONTINUOUS
 62
    7
 10
755.71199935609843
 20
912.90034374385755
 40
3.2327438938594972
 50
305.78706357790867
 51
357.83031967449989
  0
ARC
  8
_0-2_決定
  6
CONTINUOUS
 62
    7
 10
752.59499355959656
 20
916.46667071898435
 40
7.9608150049841697
 50
278.72382927774441
 51
308.97711853840673
  0
ARC
  8
_0-2_決定
  6
CONTINUOUS
 62
    7
 10
751.5385357289955
 20
920.13609731322867
 40
11.758142714453282
 50
270.01895511318543
 51
281.10093941342831
  0
ARC
  8
_0-2_決定
  6
CONTINUOUS
 62
    7
 10
751.45404357912162
 20
919.18666689207748
 40
10.809072990905772
 50
242.97382397201824
 51
270.46849317649117
  0
ARC
  8
_0-2_決定
  6
CONTINUOUS
 62
    7
 10
748.87257159781734
 20
914.03065712652847
 40
5.0432760080094443
 50
205.01656454330509
 51
242.48183382716826
  0
ARC
  8
_0-2_決定
  6
CONTINUOUS
 62
    7
 10
746.75796663090932
 20
912.79896232691783
 40
2.6156233251791674
 50
180.46016955918836
 51
200.14952337833154
  0
ARC
  8
_0-2_決定
  6
CONTINUOUS
 62
    7
 10
747.43098158094426
 20
912.71325090668938
 40
3.2891904031822676
 50
127.63673253487877
 51
178.87281548424761
  0
ARC
  8
_0-2_決定
  6
CONTINUOUS
 62
    7
 10
749.5156668476908
 20
910.3980365640075
 40
6.4000161567072924
 50
113.70749837921916
 51
129.75953992757888
  0
ARC
  8
_0-2_決定
  6
CONTINUOUS
 62
    7
 10
751.29989058592741
 20
906.43064011088791
 40
10.750051432293063
 50
88.70722334022588
 51
113.9126511890551
  0
ARC
  8
_0-2_決定
  6
CONTINUOUS
 62
    7
 10
751.69100844368745
 20
906.04042598958756
 40
11.138520309964479
 50
63.376735845881775
 51
90.764322224237404
  0
ARC
  8
_0-2_決定
  6
CONTINUOUS
 62
    7
 10
754.69991220666589
 20
912.20339610679753
 40
4.2812426519861493
 50
7.7125834204396044
 51
62.414636692703382
  0
ARC
  8
_0-2_決定
  6
CONTINUOUS
 62
    7
 10
748.47291272601274
 20
845.65217887407755
 40
7.4745448724801324
 50
270.53285591477538
 51
357.8974948792378
  0
ARC
  8
_0-2_決定
  6
CONTINUOUS
 62
    7
 10
748.8000538618453
 20
845.63558336739993
 40
7.4620747591139835
 50
181.97851456952779
 51
268.02146951497838
  0
ARC
  8
_0-2_決定
  6
CONTINUOUS
 62
    7
 10
748.66186097876709
 20
845.45904918554299
 40
7.3198825083702426
 50
90.9349116010589
 51
180.6347535144497
  0
ARC
  8
_0-2_決定
  6
CONTINUOUS
 62
    7
 10
748.59654791289177
 20
845.43207949000907
 40
7.3460771278445423
 50
359.57786933407721
 51
90.422130665922808
  0
ARC
  8
_0-2_決定
  6
CONTINUOUS
 62
    7
 10
845.09575786617347
 20
761.87032514972771
 40
5.3828075809802831
 50
339.64460576647087
 51
37.914206455856977
  0
ARC
  8
_0-2_決定
  6
CONTINUOUS
 62
    7
 10
841.75623088368184
 20
763.19590026596097
 40
8.97524943915775
 50
309.97513473354581
 51
339.12643938085978
  0
ARC
  8
_0-2_決定
  6
CONTINUOUS
 62
    7
 10
835.71953331220584
 20
769.54675149969944
 40
17.72876942714236
 50
291.37943850228919
 51
311.73973364037522
  0
ARC
  8
_0-2_決定
  6
CONTINUOUS
 62
    7
 10
832.37133943366507
 20
776.91769268676148
 40
25.816645365767435
 50
278.3993549982016
 51
292.33550853106442
  0
ARC
  8
_0-2_決定
  6
CONTINUOUS
 62
    7
 10
826.46679577942461
 20
773.14498246470089
 40
23.820604541458973
 50
266.95737651089252
 51
293.96555837088835
  0
ARC
  8
_0-2_決定
  6
CONTINUOUS
 62
    7
 10
826.16303621013401
 20
760.93083790573382
 40
11.612680115760599
 50
241.16531569590785
 51
265.25502356171819
  0
ARC
  8
_0-2_決定
  6
CONTINUOUS
 62
    7
 10
823.37382426927149
 20
755.43655194393295
 40
5.4583157195520009
 50
174.3075241492684
 51
238.99806284416371
  0
ARC
  8
_0-2_決定
  6
CONTINUOUS
 62
    7
 10
822.33373302448797
 20
759.46948407198738
 40
5.6101996334766877
 50
142.84420314905569
 51
218.4881967913087
  0
ARC
  8
_0-2_決定
  6
CONTINUOUS
 62
    7
 10
827.90058088863498
 20
755.9627980217607
 40
12.178168210661449
 50
121.03258093953413
 51
145.51501976283635
  0
ARC
  8
_0-2_決定
  6
CONTINUOUS
 62
    7
 10
833.89063684123789
 20
747.10910275657227
 40
22.859766246198706
 50
97.410044074890067
 51
122.45741721894392
  0
ARC
  8
_0-2_決定
  6
CONTINUOUS
 62
    7
 10
840.61487954026893
 20
748.02813278963413
 40
23.803596948480003
 50
86.947544956811953
 51
113.97538992496901
  0
ARC
  8
_0-2_決定
  6
CONTINUOUS
 62
    7
 10
840.95929288933257
 20
760.0640531468523
 40
11.770160552905294
 50
60.794723005701776
 51
85.501676690023814
  0
ARC
  8
_0-2_決定
  6
CONTINUOUS
 62
    7
 10
843.7458598553842
 20
765.56994682794857
 40
5.6102767042195083
 50
355.99348409761154
 51
58.197620889899632
  0
ARC
  8
_0-2_決定
  6
CONTINUOUS
 62
    7
 10
872.53095534312524
 20
716.56255343962243
 40
3.9913117427574525
 50
273.32465082175634
 51
342.73490311169326
  0
ARC
  8
_0-2_決定
  6
CONTINUOUS
 62
    7
 10
871.97020877288196
 20
720.3525849065179
 40
7.8148839930081957
 50
260.81240185880051
 51
275.81822950542261
  0
ARC
  8
_0-2_決定
  6
CONTINUOUS
 62
    7
 10
872.84427141315609
 20
725.97655897123275
 40
13.506312306071219
 50
237.87690862249912
 51
260.96137272184416
  0
ARC
  8
_0-2_決定
  6
CONTINUOUS
 62
    7
 10
875.92560219136317
 20
731.83761300196556
 40
20.114940035104635
 50
225.95973505082313
 51
239.32107847122325
  0
ARC
  8
_0-2_決定
  6
CONTINUOUS
 62
    7
 10
871.51320028807254
 20
733.90187296108684
 40
19.09553485691999
 50
218.94868510145585
 51
239.92025591074901
  0
ARC
  8
_0-2_決定
  6
CONTINUOUS
 62
    7
 10
864.49437900465227
 20
728.14716957689461
 40
10.019586963527038
 50
191.6846150906795
 51
218.58679010250543
  0
ARC
  8
_0-2_決定
  6
CONTINUOUS
 62
    7
 10
858.56478569606793
 20
726.70070267479537
 40
3.9258514131565132
 50
117.65812694371411
 51
188.53638622971437
  0
ARC
  8
_0-2_決定
  6
CONTINUOUS
 62
    7
 10
860.80747161831823
 20
728.73985751287933
 40
4.3119294040661194
 50
94.589786818912373
 51
160.51761772822761
  0
ARC
  8
_0-2_決定
  6
CONTINUOUS
 62
    7
 10
861.41416577965833
 20
724.17602910373057
 40
8.9128903855727906
 50
66.960074794408683
 51
96.129869851243029
  0
ARC
  8
_0-2_決定
  6
CONTINUOUS
 62
    7
 10
859.04001263736495
 20
716.93265988672238
 40
16.520446685518138
 50
42.89756906985351
 51
69.215256890635672
  0
ARC
  8
_0-2_決定
  6
CONTINUOUS
 62
    7
 10
861.84502582317714
 20
711.64040594500443
 40
18.971882164910411
 50
40.168399629369603
 51
60.65533867526991
  0
ARC
  8
_0-2_決定
  6
CONTINUOUS
 62
    7
 10
868.57201046557907
 20
717.37865310028064
 40
10.130169430954563
 50
13.002982765267934
 51
39.909678561384027
  0
ARC
  8
_0-2_決定
  6
CONTINUOUS
 62
    7
 10
874.43486749295414
 20
718.96909759772427
 40
4.0663316230333066
 50
297.97656165812543
 51
9.7532940201284202
  0
ARC
  8
_0-2_決定
  6
CONTINUOUS
 62
    7
 10
822.50769309199336
 20
698.63181549853039
 40
13.746088545984724
 50
342.84787119315899
 51
7.2979089115423506
  0
ARC
  8
_0-2_決定
  6
CONTINUOUS
 62
    7
 10
830.20114393541019
 20
696.45407584266707
 40
5.7556372679667787
 50
322.09351772778814
 51
340.97615798689941
  0
ARC
  8
_0-2_決定
  6
CONTINUOUS
 62
    7
 10
832.94762337181646
 20
694.28645378623037
 40
2.2570096563764888
 50
249.09900551213443
 51
322.67533149339954
  0
ARC
  8
_0-2_決定
  6
CONTINUOUS
 62
    7
 10
831.26117811487097
 20
694.03672849034729
 40
2.0570902660213712
 50
230.12785364182955
 51
295.36575713270855
  0
ARC
  8
_0-2_決定
  6
CONTINUOUS
 62
    7
 10
832.50055825821755
 20
695.50473640315067
 40
3.9783028331490544
 50
209.62860683839526
 51
229.98253534613963
  0
ARC
  8
_0-2_決定
  6
CONTINUOUS
 62
    7
 10
835.40779686533938
 20
697.34311832804053
 40
7.4160087773043699
 50
195.52659548305823
 51
210.87058554424354
  0
ARC
  8
_0-2_決定
  6
CONTINUOUS
 62
    7
 10
840.58549975032156
 20
698.66369304845534
 40
12.758762906616486
 50
172.27839196593615
 51
195.0163793389722
  0
ARC
  8
_0-2_決定
  6
CONTINUOUS
 62
    7
 10
841.00146940561626
 20
702.01790556402466
 40
13.16161264263739
 50
162.30690768068698
 51
187.15769806322447
  0
ARC
  8
_0-2_決定
  6
CONTINUOUS
 62
    7
 10
834.23110118546231
 20
703.9950289606245
 40
6.113089577565324
 50
142.48207449080638
 51
160.67550706013333
  0
ARC
  8
_0-2_決定
  6
CONTINUOUS
 62
    7
 10
831.34329305239794
 20
706.28378018535022
 40
2.4293765615305016
 50
70.795212742653348
 51
143.81825003957368
  0
ARC
  8
_0-2_決定
  6
CONTINUOUS
 62
    7
 10
833.00819911134477
 20
706.78535439889515
 40
1.9907274510949482
 50
49.448788543983596
 51
115.77912515348822
  0
ARC
  8
_0-2_決定
  6
CONTINUOUS
 62
    7
 10
831.77466448525593
 20
705.40270496938206
 40
3.8434455748464611
 50
28.183612597881094
 51
48.876747431731708
  0
ARC
  8
_0-2_決定
  6
CONTINUOUS
 62
    7
 10
828.65893588036033
 20
703.59273251419268
 40
7.4456462587203855
 50
14.031422893859931
 51
29.136515589704914
  0
ARC
  8
_0-2_決定
  6
CONTINUOUS
 62
    7
 10
822.80279043205337
 20
702.20379486760748
 40
13.464009205355957
 50
352.20618545825022
 51
13.723537160064415
  0
ARC
  8
_0-2_決定
  6
CONTINUOUS
 62
    7
 10
775.4312780589413
 20
706.72546251515371
 40
5.8454063821035778
 50
279.36464206963308
 51
317.52121517909472
  0
ARC
  8
_0-2_決定
  6
CONTINUOUS
 62
    7
 10
774.46224199718927
 20
711.40173996684325
 40
10.618835206481361
 50
253.92775354430427
 51
280.41799729937981
  0
ARC
  8
_0-2_決定
  6
CONTINUOUS
 62
    7
 10
776.56147324267522
 20
720.3334044755959
 40
19.787805961455984
 50
226.50789994054557
 51
255.24690510666733
  0
ARC
  8
_0-2_決定
  6
CONTINUOUS
 62
    7
 10
777.89847617635951
 20
722.29096156018443
 40
22.131368948185639
 50
199.07595323065948
 51
227.48484857935327
  0
ARC
  8
_0-2_決定
  6
CONTINUOUS
 62
    7
 10
766.5859300382823
 20
717.91422173655837
 40
10.01925804049691
 50
170.55749503379164
 51
196.56346603604737
  0
ARC
  8
_0-2_決定
  6
CONTINUOUS
 62
    7
 10
762.47872301022085
 20
718.38602017238372
 40
5.893984408069219
 50
137.36773335854852
 51
168.53107262728389
  0
ARC
  8
_0-2_決定
  6
CONTINUOUS
 62
    7
 10
762.44750592189916
 20
718.44165722969228
 40
5.8333686280987411
 50
99.323744405635097
 51
137.56211284307912
  0
ARC
  8
_0-2_決定
  6
CONTINUOUS
 62
    7
 10
763.37081057406465
 20
714.02724870822476
 40
10.340900102722035
 50
73.415377310945715
 51
100.40932011908868
  0
ARC
  8
_0-2_決定
  6
CONTINUOUS
 62
    7
 10
761.3052063811499
 20
705.79401037711841
 40
18.82486041815519
 50
44.454911663034594
 51
74.542653757426308
  0
ARC
  8
_0-2_決定
  6
CONTINUOUS
 62
    7
 10
760.45632606984952
 20
702.86746338940816
 40
21.532317995733568
 50
19.903778351532686
 51
48.434758265364238
  0
ARC
  8
_0-2_決定
  6
CONTINUOUS
 62
    7
 10
770.96072890130529
 20
707.08121965854707
 40
10.228133821494371
 50
350.98169286581054
 51
17.741452424233053
  0
ARC
  8
_0-2_決定
  6
CONTINUOUS
 62
    7
 10
775.31483223933333
 20
706.61522713927354
 40
5.8590279447774147
 50
319.0854670498818
 51
348.80754232913387
  0
ARC
  8
_0-2_決定
  6
CONTINUOUS
 62
    7
 10
742.13996115493831
 20
765.95103942308924
 40
3.9793056384289027
 50
273.20484083532205
 51
342.85471309813528
  0
ARC
  8
_0-2_決定
  6
CONTINUOUS
 62
    7
 10
741.64223160239874
 20
769.66295764305619
 40
7.7186730420121741
 50
260.15470542623081
 51
275.35380944195765
  0
ARC
  8
_0-2_決定
  6
CONTINUOUS
 62
    7
 10
742.5586582728406
 20
775.2283243508748
 40
13.358865861572637
 50
236.89524988654642
 51
260.36350557477635
  0
ARC
  8
_0-2_決定
  6
CONTINUOUS
 62
    7
 10
745.75491429946851
 20
781.13763420814848
 40
20.062184031432277
 50
224.89335435720426
 51
238.46641776923553
  0
ARC
  8
_0-2_決定
  6
CONTINUOUS
 62
    7
 10
739.61861169217229
 20
781.83068395718351
 40
16.906455551301956
 50
209.76352429683877
 51
241.46482208875435
  0
ARC
  8
_0-2_決定
  6
CONTINUOUS
 62
    7
 10
730.68055814125785
 20
776.32730246209974
 40
6.4245199945910745
 50
173.11048115777859
 51
206.72682009433652
  0
ARC
  8
_0-2_決定
  6
CONTINUOUS
 62
    7
 10
728.05573222057069
 20
776.3573821328464
 40
3.8256694288290234
 50
116.60546553119562
 51
168.83818606906047
  0
ARC
  8
_0-2_決定
  6
CONTINUOUS
 62
    7
 10
730.30996412630543
 20
778.37794451521086
 40
4.20730094083161
 50
93.372943816856719
 51
160.56374399417848
  0
ARC
  8
_0-2_決定
  6
CONTINUOUS
 62
    7
 10
730.84753787235115
 20
773.59861848567732
 40
9.0135965375867801
 50
66.078396024775884
 51
94.99695955916809
  0
ARC
  8
_0-2_決定
  6
CONTINUOUS
 62
    7
 10
728.20648870877039
 20
765.91559595406716
 40
17.121928522589222
 50
42.93247516949755
 51
68.425419223576256
  0
ARC
  8
_0-2_決定
  6
CONTINUOUS
 62
    7
 10
732.90096564422231
 20
762.76616383565374
 40
16.759407821998064
 50
30.761234783209055
 51
62.102957585117963
  0
ARC
  8
_0-2_決定
  6
CONTINUOUS
 62
    7
 10
741.43276192378278
 20
768.24002766675358
 40
6.6370282182241311
 50
354.79532395619975
 51
27.824481432812291
  0
ARC
  8
_0-2_決定
  6
CONTINUOUS
 62
    7
 10
744.18933070703713
 20
768.26617259389195
 40
3.903971731966394
 50
296.68305233933887
 51
350.73987482848497
  0
ARC
  8
_0-2_決定
  6
CONTINUOUS
 62
    7
 10
692.1076997074191
 20
748.23181449852996
 40
13.746083840920086
 50
342.84786950251925
 51
7.2979072209026272
  0
ARC
  8
_0-2_決定
  6
CONTINUOUS
 62
    7
 10
699.80114593541111
 20
746.05407584266709
 40
5.7556372679661205
 50
322.09351772778217
 51
340.97615798689338
  0
ARC
  8
_0-2_決定
  6
CONTINUOUS
 62
    7
 10
702.54762537181648
 20
743.88645378623005
 40
2.257009656376554
 50
249.0990055121402
 51
322.67533149340534
  0
ARC
  8
_0-2_決定
  6
CONTINUOUS
 62
    7
 10
700.86118011487099
 20
743.6367284903472
 40
2.0570902660213712
 50
230.12785364182955
 51
295.36575713270855
  0
ARC
  8
_0-2_決定
  6
CONTINUOUS
 62
    7
 10
702.10056025821757
 20
745.10473640315013
 40
3.9783028331489256
 50
209.62860683839301
 51
229.98253534613738
  0
ARC
  8
_0-2_決定
  6
CONTINUOUS
 62
    7
 10
705.00779886533951
 20
746.94311832804055
 40
7.4160087773044756
 50
195.52659548306013
 51
210.87058554424544
  0
ARC
  8
_0-2_決定
  6
CONTINUOUS
 62
    7
 10
710.18549677698491
 20
748.26369204845491
 40
12.758757844015097
 50
172.27839341515505
 51
195.0163807881911
  0
ARC
  8
_0-2_決定
  6
CONTINUOUS
 62
    7
 10
710.60147140561776
 20
751.61790356402457
 40
13.161612642638708
 50
162.30690768068752
 51
187.15769806322501
  0
ARC
  8
_0-2_決定
  6
CONTINUOUS
 62
    7
 10
703.8311031854621
 20
753.595026960626
 40
6.1130895775645753
 50
142.48207449081934
 51
160.67550706014629
  0
ARC
  8
_0-2_決定
  6
CONTINUOUS
 62
    7
 10
700.94329505239784
 20
755.88377818535014
 40
2.4293765615308436
 50
70.795212742650833
 51
143.81825003957118
  0
ARC
  8
_0-2_決定
  6
CONTINUOUS
 62
    7
 10
702.60820111134444
 20
756.38535239889563
 40
1.9907274510945958
 50
49.448788543974743
 51
115.77912515347937
  0
ARC
  8
_0-2_決定
  6
CONTINUOUS
 62
    7
 10
701.37466648525663
 20
755.00270296938083
 40
3.8434455748467045
 50
28.183612597904592
 51
48.876747431755206
  0
ARC
  8
_0-2_決定
  6
CONTINUOUS
 62
    7
 10
698.25893788035819
 20
753.1927305141943
 40
7.4456462587217001
 50
14.031422893840269
 51
29.136515589685249
  0
ARC
  8
_0-2_決定
  6
CONTINUOUS
 62
    7
 10
692.40279243205327
 20
751.80379286760603
 40
13.464009205356014
 50
352.20618545825505
 51
13.723537160069267
  0
ARC
  8
_0-2_決定
  6
CONTINUOUS
 62
    7
 10
893.60002096388507
 20
762.31504933713063
 40
9.5426100578861046
 50
344.20731390938585
 51
0.3777146446754677
  0
ARC
  8
_0-2_決定
  6
CONTINUOUS
 62
    7
 10
899.08088699962354
 20
760.5853495564844
 40
3.8018078742584294
 50
322.63288690481488
 51
346.81166862409151
  0
ARC
  8
_0-2_決定
  6
CONTINUOUS
 62
    7
 10
901.49851589993034
 20
758.73258507056221
 40
0.7559041282734085
 50
273.32998112186038
 51
323.02719909811327
  0
ARC
  8
_0-2_決定
  6
CONTINUOUS
 62
    7
 10
901.65075309793656
 20
758.77593374496257
 40
0.8052960728417785
 50
211.26751477123386
 51
262.26906309283083
  0
ARC
  8
_0-2_決定
  6
CONTINUOUS
 62
    7
 10
904.14104710886386
 20
760.36046669535358
 40
3.756819280594164
 50
191.71050118858835
 51
212.21062685159475
  0
ARC
  8
_0-2_決定
  6
CONTINUOUS
 62
    7
 10
911.47754785481266
 20
762.27430247269558
 40
11.335598118636129
 50
179.47606967649941
 51
193.65652756498193
  0
ARC
  8
_0-2_決定
  6
CONTINUOUS
 62
    7
 10
910.98471940780826
 20
762.54237000842863
 40
10.843542250105321
 50
165.16911754917408
 51
180.86876763717996
  0
ARC
  8
_0-2_決定
  6
CONTINUOUS
 62
    7
 10
903.2362729207216
 20
764.75103261442086
 40
2.7920127660923839
 50
138.58540418929101
 51
168.28449345653775
  0
ARC
  8
_0-2_決定
  6
CONTINUOUS
 62
    7
 10
901.55564082024569
 20
766.21414134192582
 40
0.5639707994415217
 50
91.342900282230673
 51
137.11259035366498
  0
ARC
  8
_0-2_決定
  6
CONTINUOUS
 62
    7
 10
901.4100017093449
 20
765.90518573312465
 40
0.8827602627383718
 50
33.932559252934134
 51
81.372553748156633
  0
ARC
  8
_0-2_決定
  6
CONTINUOUS
 62
    7
 10
899.03388583932815
 20
764.12866474588122
 40
3.8487265229281449
 50
15.511819766126886
 51
36.130164182249779
  0
ARC
  8
_0-2_決定
  6
CONTINUOUS
 62
    7
 10
893.76969132418697
 20
762.44813963921638
 40
9.3729950978027752
 50
359.57098102819702
 51
16.804622995613311
  0
ARC
  8
_0-2_決定
  6
CONTINUOUS
 62
    7
 10
921.5001279224125
 20
724.01354647602716
 40
10.843542250104477
 50
345.16911754916521
 51
0.8687676371711077
  0
ARC
  8
_0-2_決定
  6
CONTINUOUS
 62
    7
 10
929.24857440949859
 20
721.80488387003288
 40
2.7920127660915783
 50
318.58540418929863
 51
348.28449345654536
  0
ARC
  8
_0-2_決定
  6
CONTINUOUS
 62
    7
 10
930.92920650997394
 20
720.3417751425286
 40
0.5639707994415883
 50
271.34290028226832
 51
317.11259035370261
  0
ARC
  8
_0-2_決定
  6
CONTINUOUS
 62
    7
 10
931.05075309793631
 20
720.57593574496195
 40
0.8052960728412952
 50
211.26751477121132
 51
262.26906309280827
  0
ARC
  8
_0-2_決定
  6
CONTINUOUS
 62
    7
 10
933.54104710886406
 20
722.16046869535353
 40
3.756819280594164
 50
191.71050118858835
 51
212.21062685159475
  0
ARC
  8
_0-2_決定
  6
CONTINUOUS
 62
    7
 10
940.87754785481275
 20
724.07430447269576
 40
11.335598118636161
 50
179.47606967650086
 51
193.65652756498338
  0
ARC
  8
_0-2_決定
  6
CONTINUOUS
 62
    7
 10
940.38471940780823
 20
724.34237200842858
 40
10.843542250105321
 50
165.16911754917408
 51
180.86876763717996
  0
ARC
  8
_0-2_決定
  6
CONTINUOUS
 62
    7
 10
932.63627292072169
 20
726.55103461442081
 40
2.7920127660924465
 50
138.58540418928848
 51
168.28449345653522
  0
ARC
  8
_0-2_決定
  6
CONTINUOUS
 62
    7
 10
930.95564082024566
 20
728.01414334192623
 40
0.5639707994409385
 50
91.342900282257318
 51
137.11259035369164
  0
ARC
  8
_0-2_決定
  6
CONTINUOUS
 62
    7
 10
930.83409423228329
 20
727.77998273949243
 40
0.8052960728412952
 50
31.267514771211317
 51
82.269063092808281
  0
ARC
  8
_0-2_決定
  6
CONTINUOUS
 62
    7
 10
928.34380022135633
 20
726.19544978910085
 40
3.7568192805934242
 50
11.710501188592895
 51
32.210626851599301
  0
ARC
  8
_0-2_決定
  6
CONTINUOUS
 62
    7
 10
921.00729947540481
 20
724.2816140117568
 40
11.33559811863865
 50
359.47606967650819
 51
13.656527564990709
  0
ARC
  8
_0-2_決定
  6
CONTINUOUS
 62
    7
 10
755.71199935609843
 20
1264.7003397438575
 40
3.2327438938594972
 50
305.78706357790867
 51
357.83031967449989
  0
ARC
  8
_0-2_決定
  6
CONTINUOUS
 62
    7
 10
752.59499355959633
 20
1268.2666667189844
 40
7.9608150049842816
 50
278.72382927774623
 51
308.97711853840855
  0
ARC
  8
_0-2_決定
  6
CONTINUOUS
 62
    7
 10
751.53853572899391
 20
1271.9360933132284
 40
11.758142714453426
 50
270.01895511319253
 51
281.10093941343547
  0
ARC
  8
_0-2_決定
  6
CONTINUOUS
 62
    7
 10
751.45404357912207
 20
1270.9866628920774
 40
10.809072990905907
 50
242.97382397201511
 51
270.46849317648804
  0
ARC
  8
_0-2_決定
  6
CONTINUOUS
 62
    7
 10
748.87257159781689
 20
1265.8306531265284
 40
5.0432760080091246
 50
205.01656454330862
 51
242.48183382717178
  0
ARC
  8
_0-2_決定
  6
CONTINUOUS
 62
    7
 10
746.75796663091069
 20
1264.5989583269177
 40
2.6156233251803935
 50
180.46016955918347
 51
200.14952337832665
  0
ARC
  8
_0-2_決定
  6
CONTINUOUS
 62
    7
 10
747.43098158094369
 20
1264.5132469066891
 40
3.2891904031816805
 50
127.63673253487363
 51
178.87281548424244
  0
ARC
  8
_0-2_決定
  6
CONTINUOUS
 62
    7
 10
749.5156668476933
 20
1262.1980325640075
 40
6.40001615670863
 50
113.70749837923852
 51
129.75953992759824
  0
ARC
  8
_0-2_決定
  6
CONTINUOUS
 62
    7
 10
751.29989058592741
 20
1258.2306361108883
 40
10.750051432293063
 50
88.70722334022588
 51
113.9126511890551
  0
ARC
  8
_0-2_決定
  6
CONTINUOUS
 62
    7
 10
751.69100844368586
 20
1257.8404219895874
 40
11.138520309964814
 50
63.376735845874258
 51
90.764322224229886
  0
ARC
  8
_0-2_決定
  6
CONTINUOUS
 62
    7
 10
754.69991220666645
 20
1264.0033921067975
 40
4.281242651985643
 50
7.7125834204443624
 51
62.414636692708143
  0
ARC
  8
_0-2_決定
  6
CONTINUOUS
 62
    7
 10
748.47291272601251
 20
1197.4521728740776
 40
7.4745448724802044
 50
270.53285591477595
 51
357.89749487923837
  0
ARC
  8
_0-2_決定
  6
CONTINUOUS
 62
    7
 10
748.8000538618453
 20
1197.4355773673997
 40
7.4620747591140564
 50
181.97851456952722
 51
268.02146951497781
  0
ARC
  8
_0-2_決定
  6
CONTINUOUS
 62
    7
 10
748.66106017193954
 20
1197.2598223487264
 40
7.319090424916376
 50
90.928743030320277
 51
180.64092208518835
  0
ARC
  8
_0-2_決定
  6
CONTINUOUS
 62
    7
 10
748.59734211518173
 20
1197.2328676922989
 40
7.3452888419665019
 50
359.5716288091005
 51
90.428371190899455
  0
ARC
  8
_0-2_決定
  6
CONTINUOUS
 62
    7
 10
786.94529600875501
 20
579.53796561206389
 40
5.4267363385183911
 50
322.01377397362887
 51
39.338276072693212
  0
ARC
  8
_0-2_決定
  6
CONTINUOUS
 62
    7
 10
781.19305819812109
 20
583.08378657439539
 40
12.165640233584703
 50
301.01977945177396
 51
325.52782125059645
  0
ARC
  8
_0-2_決定
  6
CONTINUOUS
 62
    7
 10
775.68350560920157
 20
591.24611213279672
 40
22.005960810972578
 50
276.41556054266567
 51
302.36157488668869
  0
ARC
  8
_0-2_決定
  6
CONTINUOUS
 62
    7
 10
768.15208888973132
 20
590.82669928907876
 40
23.661259321683104
 50
268.13593037174655
 51
294.97503825109254
  0
ARC
  8
_0-2_決定
  6
CONTINUOUS
 62
    7
 10
768.11308488869918
 20
578.99897850791058
 40
11.843576828669686
 50
241.83310648602503
 51
266.46303720540061
  0
ARC
  8
_0-2_決定
  6
CONTINUOUS
 62
    7
 10
765.36830046824684
 20
573.42384858949208
 40
5.6370083440952961
 50
176.3983504429375
 51
239.67823778400094
  0
ARC
  8
_0-2_決定
  6
CONTINUOUS
 62
    7
 10
764.03827676968763
 20
577.12719455750539
 40
5.44717362609929
 50
159.91352237772861
 51
217.94153680612189
  0
ARC
  8
_0-2_決定
  6
CONTINUOUS
 62
    7
 10
767.4355379919225
 20
575.81653864821874
 40
9.0881533443595988
 50
130.58984126751849
 51
159.50885590873517
  0
ARC
  8
_0-2_決定
  6
CONTINUOUS
 62
    7
 10
773.06725377508906
 20
570.02335989445442
 40
17.159136326396013
 50
111.41383541127497
 51
132.28426722682968
  0
ARC
  8
_0-2_決定
  6
CONTINUOUS
 62
    7
 10
775.85178012436222
 20
563.932666629604
 40
23.848858305399819
 50
97.491406978064646
 51
112.29937233068937
  0
ARC
  8
_0-2_決定
  6
CONTINUOUS
 62
    7
 10
782.68574021233667
 20
566.16774867296249
 40
23.606497123593101
 50
87.871690597318789
 51
114.91106202925121
  0
ARC
  8
_0-2_決定
  6
CONTINUOUS
 62
    7
 10
782.79735293713259
 20
577.91591185030825
 40
11.866737971310769
 50
62.251379096481571
 51
86.3034606958404
  0
ARC
  8
_0-2_決定
  6
CONTINUOUS
 62
    7
 10
785.50708191679269
 20
583.50761760798946
 40
5.6601797698915703
 50
354.63064076115484
 51
60.172212243840853
  0
ARC
  8
_0-2_決定
  6
CONTINUOUS
 62
    7
 10
837.7333058869126
 20
637.11660686915707
 40
27.107214349546823
 50
283.67628180199074
 51
301.06875454285222
  0
ARC
  8
_0-2_決定
  6
CONTINUOUS
 62
    7
 10
848.8820935355343
 20
618.3276828106591
 40
5.2621229080112686
 50
302.66793200020044
 51
322.96046638623352
  0
ARC
  8
_0-2_決定
  6
CONTINUOUS
 62
    7
 10
852.04956139927162
 20
615.96437562371557
 40
1.3103877181882724
 50
322.01879957676135
 51
9.3806455248424889
  0
ARC
  8
_0-2_決定
  6
CONTINUOUS
 62
    7
 10
852.29163885547052
 20
615.77525111355101
 40
1.1253118484288858
 50
20.969049103732587
 51
63.005375887920231
  0
ARC
  8
_0-2_決定
  6
CONTINUOUS
 62
    7
 10
850.90686111355581
 20
613.07782472060376
 40
4.1574223320726125
 50
62.874112733052456
 51
82.320479004215173
  0
ARC
  8
_0-2_決定
  6
CONTINUOUS
 62
    7
 10
849.55371043917035
 20
604.06912934690104
 40
13.266852235332562
 50
81.728093545142698
 51
92.986815866714977
  0
ARC
  8
_0-2_決定
  6
CONTINUOUS
 62
    7
 10
850.01803820704117
 20
589.40163077774423
 40
27.940236850892802
 50
92.370438516909459
 51
105.09374466323285
  0
ARC
  8
_0-2_決定
  6
CONTINUOUS
 62
    7
 10
848.77203148420358
 20
590.7306422543295
 40
26.34655603701097
 50
103.22981481161651
 51
120.8988910566929
  0
ARC
  8
_0-2_決定
  6
CONTINUOUS
 62
    7
 10
838.19332820642387
 20
608.65139542399959
 40
5.538204242410826
 50
122.19663655082043
 51
141.77769799755092
  0
ARC
  8
_0-2_決定
  6
CONTINUOUS
 62
    7
 10
834.91598352352321
 20
611.19426364447804
 40
1.3904847786396561
 50
140.54054555488722
 51
188.94921703899348
  0
ARC
  8
_0-2_決定
  6
CONTINUOUS
 62
    7
 10
834.65052073899244
 20
611.33367539358574
 40
1.1637900370080509
 50
197.79736300215538
 51
240.78145072286213
  0
ARC
  8
_0-2_決定
  6
CONTINUOUS
 62
    7
 10
835.89153768163226
 20
613.49901438120071
 40
3.6595061635824493
 50
240.3724692611286
 51
261.6867151218953
  0
ARC
  8
_0-2_決定
  6
CONTINUOUS
 62
    7
 10
837.12853024081346
 20
621.34468456441959
 40
11.601933852596826
 50
261.24410837892117
 51
272.93421596875612
  0
ARC
  8
_0-2_決定
  6
CONTINUOUS
 62
    7
 10
836.42986958050358
 20
638.60757895122617
 40
28.878558537212903
 50
272.5653204778198
 51
285.48990542360605
  0
ARC
  8
_0-2_決定
  6
CONTINUOUS
 62
    7
 10
820.76123247028534
 20
672.04000145670784
 40
0.983152745989781
 50
309.18585214172617
 51
356.38192474371749
  0
ARC
  8
_0-2_決定
  6
CONTINUOUS
 62
    7
 10
819.71756142630761
 20
673.28326986449383
 40
2.606346796843936
 50
284.32493686899483
 51
309.70039382687702
  0
ARC
  8
_0-2_決定
  6
CONTINUOUS
 62
    7
 10
818.98198150255394
 20
675.95701874683698
 40
5.3792049429640318
 50
269.57867324439229
 51
284.86995814369794
  0
ARC
  8
_0-2_決定
  6
CONTINUOUS
 62
    7
 10
818.85874854378267
 20
675.84864190151563
 40
5.2713468445508793
 50
248.68250374355426
 51
270.90954881296551
  0
ARC
  8
_0-2_決定
  6
CONTINUOUS
 62
    7
 10
817.36154673398232
 20
672.34172950075845
 40
1.4650028700002187
 50
194.37734331524999
 51
253.37605125660826
  0
ARC
  8
_0-2_決定
  6
CONTINUOUS
 62
    7
 10
816.87201972933121
 20
671.89908975265189
 40
0.9329338243526091
 50
127.62860890913279
 51
175.15047175890649
  0
ARC
  8
_0-2_決定
  6
CONTINUOUS
 62
    7
 10
818.05492103810047
 20
670.43296849624744
 40
2.8165979873261175
 50
104.65292302567593
 51
128.47717932849881
  0
ARC
  8
_0-2_決定
  6
CONTINUOUS
 62
    7
 10
818.93031346632711
 20
667.53786614247247
 40
5.8401056599316288
 50
89.881170237526362
 51
105.77698278260776
  0
ARC
  8
_0-2_決定
  6
CONTINUOUS
 62
    7
 10
819.05856623959016
 20
668.79703449643046
 40
4.5823967702170068
 50
67.089967754441801
 51
91.452313649522083
  0
ARC
  8
_0-2_決定
  6
CONTINUOUS
 62
    7
 10
820.39337079967868
 20
671.71993099329654
 40
1.3735092308352181
 50
10.82795669626255
 51
70.916859898697496
  0
ARC
  8
_0-2_決定
  6
CONTINUOUS
 62
    7
 10
720.02809027576814
 20
664.39588588664719
 40
10.267721120709162
 50
154.73652164853135
 51
170.45807008875218
  0
ARC
  8
_0-2_決定
  6
CONTINUOUS
 62
    7
 10
713.0851255050552
 20
665.43229785129233
 40
3.2515643354814081
 50
168.18687086404034
 51
194.86818002037887
  0
ARC
  8
_0-2_決定
  6
CONTINUOUS
 62
    7
 10
710.51652112913416
 20
664.74423873177386
 40
0.5924364898430425
 50
194.2948363210507
 51
252.91080162433479
  0
ARC
  8
_0-2_決定
  6
CONTINUOUS
 62
    7
 10
710.62967461791891
 20
664.94007812612404
 40
0.8144544217392989
 50
249.34828775332562
 51
300.44989715424629
  0
ARC
  8
_0-2_決定
  6
CONTINUOUS
 62
    7
 10
709.51713094787237
 20
666.87536531522369
 40
3.0467098433385509
 50
300.04217516049664
 51
323.37933948256216
  0
ARC
  8
_0-2_決定
  6
CONTINUOUS
 62
    7
 10
705.15256300215196
 20
670.4250279862282
 40
8.6706218710443856
 50
321.75724276796893
 51
340.8308521452264
  0
ARC
  8
_0-2_決定
  6
CONTINUOUS
 62
    7
 10
704.05676505445285
 20
671.96003259780719
 40
10.267721120708245
 50
334.73652164852825
 51
350.45807008874908
  0
ARC
  8
_0-2_決定
  6
CONTINUOUS
 62
    7
 10
710.99972982516397
 20
670.92362063316182
 40
3.2515643354820281
 50
348.18687086404276
 51
14.868180020381301
  0
ARC
  8
_0-2_決定
  6
CONTINUOUS
 62
    7
 10
713.56833420108603
 20
671.61167975268029
 40
0.5924364898427821
 50
14.294836321064977
 51
72.910801624349077
  0
ARC
  8
_0-2_決定
  6
CONTINUOUS
 62
    7
 10
713.47193159615983
 20
671.49341600067885
 40
0.7360486212654142
 50
68.438632411673595
 51
121.95022540379819
  0
ARC
  8
_0-2_決定
  6
CONTINUOUS
 62
    7
 10
714.67346095852065
 20
669.52831375661503
 40
3.0393503716899692
 50
121.56584466332527
 51
144.39142545593322
  0
ARC
  8
_0-2_決定
  6
CONTINUOUS
 62
    7
 10
722.07936916222309
 20
663.89266773993222
 40
12.344728250202866
 50
143.13906796692925
 51
156.68792292507513
  0
ARC
  8
_0-2_決定
  6
CONTINUOUS
 62
    7
 10
915.37388199957547
 20
611.20077431764321
 40
8.1772454358209199
 50
2.6437863316279779
 51
90.220420709578704
  0
ARC
  8
_0-2_決定
  6
CONTINUOUS
 62
    7
 10
915.64166697226619
 20
610.85311352833344
 40
8.5300961895265139
 50
92.010399042171102
 51
175.12539391662469
  0
ARC
  8
_0-2_決定
  6
CONTINUOUS
 62
    7
 10
915.4965496756073
 20
611.938440402987
 40
8.3618997018983201
 50
182.47077075590747
 51
268.94386798117927
  0
ARC
  8
_0-2_決定
  6
CONTINUOUS
 62
    7
 10
915.08464591783672
 20
612.04468343318263
 40
8.470645431476969
 50
271.74388808092476
 51
356.84147318198609
  0
ARC
  8
_0-2_決定
  6
CONTINUOUS
 62
    7
 10
886.1119973560983
 20
669.10034774385758
 40
3.2327438938594972
 50
305.78706357790867
 51
357.83031967449989
  0
ARC
  8
_0-2_決定
  6
CONTINUOUS
 62
    7
 10
882.99499155959643
 20
672.6666747189845
 40
7.9608150049841697
 50
278.72382927774441
 51
308.97711853840673
  0
ARC
  8
_0-2_決定
  6
CONTINUOUS
 62
    7
 10
881.93853372899389
 20
676.33610131322848
 40
11.758142714453426
 50
270.01895511319253
 51
281.10093941343547
  0
ARC
  8
_0-2_決定
  6
CONTINUOUS
 62
    7
 10
881.85404157912126
 20
675.38667089207729
 40
10.809072990905772
 50
242.97382397201824
 51
270.46849317649117
  0
ARC
  8
_0-2_決定
  6
CONTINUOUS
 62
    7
 10
879.27256959781721
 20
670.23066112652828
 40
5.0432760080094443
 50
205.01656454330509
 51
242.48183382716826
  0
ARC
  8
_0-2_決定
  6
CONTINUOUS
 62
    7
 10
877.1579646309101
 20
668.99896632691764
 40
2.6156233251799845
 50
180.46016955918509
 51
200.14952337832827
  0
ARC
  8
_0-2_決定
  6
CONTINUOUS
 62
    7
 10
877.83097958094413
 20
668.91325490668896
 40
3.2891904031821957
 50
127.63673253486854
 51
178.87281548423735
  0
ARC
  8
_0-2_決定
  6
CONTINUOUS
 62
    7
 10
879.91566484769328
 20
666.59804056400753
 40
6.4000161567083627
 50
113.70749837923465
 51
129.75953992759437
  0
ARC
  8
_0-2_決定
  6
CONTINUOUS
 62
    7
 10
881.69988858592762
 20
662.63064411088919
 40
10.750051432292105
 50
88.707223340226903
 51
113.91265118905612
  0
ARC
  8
_0-2_決定
  6
CONTINUOUS
 62
    7
 10
882.0910064436863
 20
662.2404299895868
 40
11.138520309965623
 50
63.376735845876802
 51
90.76432222423243
  0
ARC
  8
_0-2_決定
  6
CONTINUOUS
 62
    7
 10
885.09991020666632
 20
668.40340010679802
 40
4.2812426519856297
 50
7.712583420436907
 51
62.414636692700682
  0
ARC
  8
_0-2_決定
  6
CONTINUOUS
 62
    7
 10
781.68519846207357
 20
680.10154920158789
 40
26.345865458391771
 50
147.75546727676701
 51
157.51345487655144
  0
ARC
  8
_0-2_決定
  6
CONTINUOUS
 62
    7
 10
767.02006607566523
 20
689.63875487006226
 40
8.8572938069095244
 50
132.79673060554325
 51
149.32124484241922
  0
ARC
  8
_0-2_決定
  6
CONTINUOUS
 62
    7
 10
761.4730511589579
 20
695.80655188106925
 40
0.5756033308532849
 50
83.077605774108193
 51
144.84737217505375
  0
ARC
  8
_0-2_決定
  6
CONTINUOUS
 62
    7
 10
761.06165807491425
 20
695.73443229591226
 40
0.80328351558854
 50
4.535921186590441
 51
53.237242347264001
  0
ARC
  8
_0-2_決定
  6
CONTINUOUS
 62
    7
 10
756.91174398115504
 20
695.21967411303058
 40
4.9843417646163317
 50
348.87516940615257
 51
6.6624813777907468
  0
ARC
  8
_0-2_決定
  6
CONTINUOUS
 62
    7
 10
739.53434653583167
 20
698.35796139272134
 40
22.642379860382693
 50
335.52680391821485
 51
349.5675327623826
  0
ARC
  8
_0-2_決定
  6
CONTINUOUS
 62
    7
 10
734.65247130905232
 20
700.09363502907854
 40
27.808200611911094
 50
326.72874108924043
 51
336.43891577350729
  0
ARC
  8
_0-2_決定
  6
CONTINUOUS
 62
    7
 10
751.30699091167855
 20
688.85717326436122
 40
7.7235898999423096
 50
310.88513491851188
 51
328.64214846294686
  0
ARC
  8
_0-2_決定
  6
CONTINUOUS
 62
    7
 10
755.81438191817892
 20
683.51290558846586
 40
0.7384604486399858
 50
264.40817476338469
 51
317.91434487024833
  0
ARC
  8
_0-2_決定
  6
CONTINUOUS
 62
    7
 10
756.40042150513011
 20
683.36195781223387
 40
0.8797800038952878
 50
176.35043267625178
 51
221.59038294067298
  0
ARC
  8
_0-2_決定
  6
CONTINUOUS
 62
    7
 10
763.20971594275511
 20
683.5097280645814
 40
7.6878380140018248
 50
166.2427834468009
 51
180.68394925561893
  0
ARC
  8
_0-2_決定
  6
CONTINUOUS
 62
    7
 10
782.52450124744155
 20
679.16884334723932
 40
27.483405237043161
 50
156.3859824219864
 51
167.02846564887378
  0
CIRCLE
  8
_0-2_決定
  6
CONTINUOUS
 62
    7
 10
879.00242566510997
 20
601.61796124222747
 40
7.3399999999999999
  0
ARC
  8
_0-2_決定
  6
CONTINUOUS
 62
    7
 10
789.55457441531985
 20
627.39860434288539
 40
8.7187945454419289
 50
315.96288467158956
 51
15.836878658384695
  0
ARC
  8
_0-2_決定
  6
CONTINUOUS
 62
    7
 10
787.46921067985966
 20
628.88975959919549
 40
11.260812103099624
 50
287.96486888962426
 51
317.88455394399301
  0
ARC
  8
_0-2_決定
  6
CONTINUOUS
 62
    7
 10
787.4380333272062
 20
628.77617012267194
 40
11.162564200233758
 50
236.77915346180225
 51
288.29692596653916
  0
ARC
  8
_0-2_決定
  6
CONTINUOUS
 62
    7
 10
786.18836215861177
 20
626.21524115863224
 40
8.3431941205522477
 50
199.881225745563
 51
234.32250044872103
  0
ARC
  8
_0-2_決定
  6
CONTINUOUS
 62
    7
 10
786.73027691490063
 20
625.7573141415694
 40
8.718794545442206
 50
135.96288467159002
 51
195.83687865838516
  0
ARC
  8
_0-2_決定
  6
CONTINUOUS
 62
    7
 10
788.81564065036002
 20
624.2661588852593
 40
11.26081210309933
 50
107.96486888962193
 51
137.88455394399068
  0
ARC
  8
_0-2_決定
  6
CONTINUOUS
 62
    7
 10
788.84681800301394
 20
624.3797483617825
 40
11.162564200233758
 50
56.779153461802245
 51
108.29692596653918
  0
ARC
  8
_0-2_決定
  6
CONTINUOUS
 62
    7
 10
790.09648917160825
 20
626.94067732582221
 40
8.3431941205522477
 50
19.881225745562983
 51
54.32250044872103
  0
ARC
  8
_0-2_決定
  6
CONTINUOUS
 62
    7
 10
812.57989554909159
 20
542.30796124222729
 40
3.0511448160183372
 50
346.15745792574324
 51
13.842542074256777
  0
ARC
  8
_0-2_決定
  6
CONTINUOUS
 62
    7
 10
810.86582372001453
 20
541.91365082718676
 40
4.8098523534760664
 50
13.51804200751319
 51
32.499698158133342
  0
ARC
  8
_0-2_決定
  6
CONTINUOUS
 62
    7
 10
807.83562531220923
 20
539.92389094667396
 40
8.4347411525510054
 50
32.83962121104279
 51
47.052726688815788
  0
ARC
  8
_0-2_決定
  6
CONTINUOUS
 62
    7
 10
803.07986390867188
 20
534.93973846119957
 40
15.323502833192041
 50
46.733784958963788
 51
68.71492641188442
  0
ARC
  8
_0-2_決定
  6
CONTINUOUS
 62
    7
 10
800.40318766796008
 20
529.1888047925039
 40
21.657611845750033
 50
67.639586006418241
 51
75.72776561335553
  0
ARC
  8
_0-2_決定
  6
CONTINUOUS
 62
    7
 10
800.46049467847843
 20
530.16825146841541
 40
20.695102806696205
 50
75.213015211996478
 51
95.206723343280956
  0
ARC
  8
_0-2_決定
  6
CONTINUOUS
 62
    7
 10
799.48933094797985
 20
541.14540679822255
 40
9.6751528312895569
 50
95.378544495902588
 51
122.13875619978499
  0
ARC
  8
_0-2_決定
  6
CONTINUOUS
 62
    7
 10
796.45329961605501
 20
546.35019413440909
 40
3.6582155660016258
 50
125.24141664602755
 51
163.68322777001737
  0
ARC
  8
_0-2_決定
  6
CONTINUOUS
 62
    7
 10
795.90495578112836
 20
546.64796124222698
 40
3.0511448160183372
 50
166.15745792574322
 51
193.84254207425678
  0
ARC
  8
_0-2_決定
  6
CONTINUOUS
 62
    7
 10
797.61902761020701
 20
547.04227165726797
 40
4.8098523534777362
 50
193.51804200750752
 51
212.49969815812767
  0
ARC
  8
_0-2_決定
  6
CONTINUOUS
 62
    7
 10
800.64922601800856
 20
549.03203153778031
 40
8.4347411525492451
 50
212.83962121105279
 51
227.0527266888258
  0
ARC
  8
_0-2_決定
  6
CONTINUOUS
 62
    7
 10
805.40498742154819
 20
554.01618402325516
 40
15.323502833192041
 50
226.73378495896378
 51
248.71492641188442
  0
ARC
  8
_0-2_決定
  6
CONTINUOUS
 62
    7
 10
808.08166366225976
 20
559.76711769194708
 40
21.657611845746686
 50
247.6395860064153
 51
255.72776561335257
  0
ARC
  8
_0-2_決定
  6
CONTINUOUS
 62
    7
 10
808.02435665174232
 20
558.78767101604035
 40
20.695102806697705
 50
255.21301521199456
 51
275.20672334327901
  0
ARC
  8
_0-2_決定
  6
CONTINUOUS
 62
    7
 10
808.9955203822401
 20
547.81051568623184
 40
9.6751528312895569
 50
275.37854449590259
 51
302.13875619978501
  0
ARC
  8
_0-2_決定
  6
CONTINUOUS
 62
    7
 10
812.03155171416461
 20
542.60572835004518
 40
3.6582155660019144
 50
305.24141664603286
 51
343.68322777002265
  0
ARC
  8
_0-2_決定
  6
CONTINUOUS
 62
    7
 10
831.95925961263379
 20
469.96112929470371
 40
4.5868247042316765
 50
272.28860565918035
 51
357.71139434081869
  0
ARC
  8
_0-2_決定
  6
CONTINUOUS
 62
    7
 10
832.32559171758589
 20
469.96112929470371
 40
4.5868247042317138
 50
182.28860565918177
 51
267.71139434082011
  0
ARC
  8
_0-2_決定
  6
CONTINUOUS
 62
    7
 10
832.32559171758589
 20
469.59479718975103
 40
4.5868247042315655
 50
92.288605659178074
 51
177.71139434081638
  0
ARC
  8
_0-2_決定
  6
CONTINUOUS
 62
    7
 10
831.95925961263379
 20
469.59479718975103
 40
4.58682470423153
 50
2.2886056591831667
 51
87.711394340821471
  0
ARC
  8
_0-2_決定
  6
CONTINUOUS
 62
    7
 10
853.40002296388525
 20
510.71505333713048
 40
9.5426100578860691
 50
344.20731390938732
 51
0.3777146446769708
  0
ARC
  8
_0-2_決定
  6
CONTINUOUS
 62
    7
 10
858.88088899962338
 20
508.98535355648448
 40
3.8018078742584294
 50
322.63288690481488
 51
346.81166862409151
  0
ARC
  8
_0-2_決定
  6
CONTINUOUS
 62
    7
 10
861.2985178999304
 20
507.13258907056229
 40
0.7559041282734833
 50
273.32998112185737
 51
323.02719909811026
  0
ARC
  8
_0-2_決定
  6
CONTINUOUS
 62
    7
 10
861.45075509793639
 20
507.17593774496265
 40
0.8052960728417093
 50
211.26751477123065
 51
262.26906309282765
  0
ARC
  8
_0-2_決定
  6
CONTINUOUS
 62
    7
 10
863.94104910886222
 20
508.7604706953536
 40
3.756819280592758
 50
191.71050118860029
 51
212.21062685160669
  0
ARC
  8
_0-2_決定
  6
CONTINUOUS
 62
    7
 10
871.27754985481488
 20
510.67430647269532
 40
11.335598118638419
 50
179.4760696764981
 51
193.65652756498059
  0
ARC
  8
_0-2_決定
  6
CONTINUOUS
 62
    7
 10
870.78472140780832
 20
510.94237400842701
 40
10.843542250105543
 50
165.16911754916455
 51
180.86876763717044
  0
ARC
  8
_0-2_決定
  6
CONTINUOUS
 62
    7
 10
863.03627492072133
 20
513.15103661442186
 40
2.7920127660915162
 50
138.58540418930119
 51
168.28449345654792
  0
ARC
  8
_0-2_決定
  6
CONTINUOUS
 62
    7
 10
861.35564282024598
 20
514.61414534192591
 40
0.5639707994415883
 50
91.342900282268332
 51
137.11259035370264
  0
ARC
  8
_0-2_決定
  6
CONTINUOUS
 62
    7
 10
861.21000370934496
 20
514.30518973312473
 40
0.8827602627384463
 50
33.932559252937182
 51
81.372553748159689
  0
ARC
  8
_0-2_決定
  6
CONTINUOUS
 62
    7
 10
858.83388783932787
 20
512.5286687458813
 40
3.8487265229280587
 50
15.511819766124226
 51
36.130164182247114
  0
ARC
  8
_0-2_決定
  6
CONTINUOUS
 62
    7
 10
853.5696933241868
 20
510.84814363921652
 40
9.3729950978027752
 50
359.57098102819702
 51
16.804622995613311
  0
ARC
  8
_0-2_決定
  6
CONTINUOUS
 62
    7
 10
881.32195233204686
 20
472.50311768962433
 40
10.823961379616463
 50
345.52705763643638
 51
1.4550294825535532
  0
ARC
  8
_0-2_決定
  6
CONTINUOUS
 62
    7
 10
889.18733212631628
 20
470.3594032045649
 40
2.6746810253898556
 50
318.2379708543815
 51
347.8829730180293
  0
ARC
  8
_0-2_決定
  6
CONTINUOUS
 62
    7
 10
890.72326215724047
 20
469.00411855954104
 40
0.6264484374502041
 50
271.75280953864541
 51
317.13510002214446
  0
ARC
  8
_0-2_決定
  6
CONTINUOUS
 62
    7
 10
890.83352633271147
 20
469.17196198447471
 40
0.799208169837119
 50
212.89054707006568
 51
263.45455977666074
  0
ARC
  8
_0-2_決定
  6
CONTINUOUS
 62
    7
 10
893.09437436644089
 20
470.70846681984307
 40
3.5325938436837707
 50
192.26603391534587
 51
213.90423343025597
  0
ARC
  8
_0-2_決定
  6
CONTINUOUS
 62
    7
 10
900.77804083020044
 20
472.56856081298224
 40
11.437534232686968
 50
178.9509499560358
 51
193.19396285838533
  0
ARC
  8
_0-2_決定
  6
CONTINUOUS
 62
    7
 10
899.24052904409234
 20
472.98470522249488
 40
9.9002642560613605
 50
164.45478710186714
 51
181.19656442516361
  0
ARC
  8
_0-2_決定
  6
CONTINUOUS
 62
    7
 10
892.15732870760644
 20
475.07154847813467
 40
2.5194016060677216
 50
136.74489054604888
 51
167.00763868738645
  0
ARC
  8
_0-2_決定
  6
CONTINUOUS
 62
    7
 10
890.75620574663139
 20
476.36580505201067
 40
0.6123133149135885
 50
91.289734807129676
 51
135.10744622015969
  0
ARC
  8
_0-2_決定
  6
CONTINUOUS
 62
    7
 10
890.64710170784906
 20
476.17716675552941
 40
0.8064498054086376
 50
33.133308360238821
 51
83.21179848636605
  0
ARC
  8
_0-2_決定
  6
CONTINUOUS
 62
    7
 10
888.48436964142877
 20
474.66271909619792
 40
3.4463793047072273
 50
12.999615891542838
 51
34.564444954911558
  0
ARC
  8
_0-2_決定
  6
CONTINUOUS
 62
    7
 10
881.7133472332589
 20
472.94866890780753
 40
10.430473414263346
 50
359.06225245351686
 51
13.807225848563514
  0
ARC
  8
_0-2_決定
  6
CONTINUOUS
 62
    7
 10
908.98821338222683
 20
572.29876787049852
 40
3.7550454642029512
 50
1.2084493885612066
 51
49.590169752995678
  0
ARC
  8
_0-2_決定
  6
CONTINUOUS
 62
    7
 10
907.1533006247455
 20
570.35655925405933
 40
6.4248636239031995
 50
48.358394616628068
 51
91.880900654085295
  0
ARC
  8
_0-2_決定
  6
CONTINUOUS
 62
    7
 10
906.8535883793586
 20
569.30558952807041
 40
7.4728997546151614
 50
89.318871254676409
 51
122.64537666468811
  0
ARC
  8
_0-2_決定
  6
CONTINUOUS
 62
    7
 10
905.21480088609815
 20
572.04234969705396
 40
4.285538732490255
 50
123.93446052165636
 51
175.50842130830208
  0
ARC
  8
_0-2_決定
  6
CONTINUOUS
 62
    7
 10
904.63549223703342
 20
572.45739324245847
 40
3.6939227008142037
 50
181.23215062976126
 51
228.80163632644835
  0
ARC
  8
_0-2_決定
  6
CONTINUOUS
 62
    7
 10
906.62138688919958
 20
574.54095281998207
 40
6.5708388399935158
 50
227.73881644179281
 51
272.80046104874032
  0
ARC
  8
_0-2_決定
  6
CONTINUOUS
 62
    7
 10
906.99958575654989
 20
574.63083702612516
 40
6.6531213502140609
 50
269.50772175780361
 51
319.81615007403059
  0
ARC
  8
_0-2_決定
  6
CONTINUOUS
 62
    7
 10
909.11629159427901
 20
572.4243569122018
 40
3.626428870569725
 50
324.8772090743168
 51
359.26695140167129
  0
ARC
  8
_0-2_決定
  6
CONTINUOUS
 62
    7
 10
750.11475379051035
 20
481.40563311682655
 40
1.4279400247092759
 50
271.11039739109276
 51
358.88960260891014
  0
ARC
  8
_0-2_決定
  6
CONTINUOUS
 62
    7
 10
750.28302709500599
 20
481.31276246785205
 40
1.3421859312400599
 50
177.2156724190167
 51
263.98691687097835
  0
ARC
  8
_0-2_決定
  6
CONTINUOUS
 62
    7
 10
750.25567858189117
 20
481.26470832544641
 40
1.3181272497728047
 50
94.928905385762874
 51
175.07109461426086
  0
ARC
  8
_0-2_決定
  6
CONTINUOUS
 62
    7
 10
750.13815882822269
 20
481.15631659919245
 40
1.4216510461316831
 50
8.9693742260636178
 51
89.828036483915
  0
ARC
  8
_0-2_決定
  6
CONTINUOUS
 62
    7
 10
859.74757198262228
 20
535.61120016500638
 40
1.3952496627976063
 50
319.1156436905984
 51
358.63491801728736
  0
ARC
  8
_0-2_決定
  6
CONTINUOUS
 62
    7
 10
858.49999249598625
 20
536.79861236723445
 40
3.1167184100068388
 50
294.29715180380902
 51
317.62388258951239
  0
ARC
  8
_0-2_決定
  6
CONTINUOUS
 62
    7
 10
856.70194632537959
 20
540.4787757220729
 40
7.2118218532541398
 50
280.06583245673056
 51
295.28638494056923
  0
ARC
  8
_0-2_決定
  6
CONTINUOUS
 62
    7
 10
855.78234780539913
 20
545.15582548502891
 40
11.977930772728428
 50
269.80903426258737
 51
280.48673538567454
  0
ARC
  8
_0-2_決定
  6
CONTINUOUS
 62
    7
 10
855.49290405521049
 20
542.29109222265151
 40
9.116546347174225
 50
241.78254521564349
 51
271.56839226057338
  0
ARC
  8
_0-2_決定
  6
CONTINUOUS
 62
    7
 10
852.11278921983762
 20
535.77728350432631
 40
1.7815488991537387
 50
186.42378391736949
 51
238.51860066430999
  0
ARC
  8
_0-2_決定
  6
CONTINUOUS
 62
    7
 10
851.83464570664239
 20
535.52845589320418
 40
1.4930410014238156
 50
140.50922555770111
 51
178.09987297419465
  0
ARC
  8
_0-2_決定
  6
CONTINUOUS
 62
    7
 10
853.25166088546575
 20
534.32647352910203
 40
3.3510996698464268
 50
117.5360433413142
 51
140.05706085531898
  0
ARC
  8
_0-2_決定
  6
CONTINUOUS
 62
    7
 10
854.92049592105911
 20
531.18826803836532
 40
6.9053839297712818
 50
102.18974044138602
 51
117.77647260240504
  0
ARC
  8
_0-2_決定
  6
CONTINUOUS
 62
    7
 10
855.67287939045605
 20
527.88865085144039
 40
10.289545422528395
 50
89.612739125543001
 51
102.40527278944793
  0
ARC
  8
_0-2_決定
  6
CONTINUOUS
 62
    7
 10
855.90669543652564
 20
529.60143298352932
 40
8.5781012776746053
 50
60.102681934538637
 51
91.097275451885707
  0
ARC
  8
_0-2_決定
  6
CONTINUOUS
 62
    7
 10
859.10781951383228
 20
535.28575445782565
 40
2.055482180819646
 50
8.1728396363391909
 51
58.479739737887847
  0
ARC
  8
_0-2_決定
  6
CONTINUOUS
 62
    7
 10
890.75209473589211
 20
558.91211474252918
 40
2.9910538053401625
 50
308.70477424178824
 51
1.2614388020078107
  0
ARC
  8
_0-2_決定
  6
CONTINUOUS
 62
    7
 10
891.92678530562171
 20
557.68713166448549
 40
1.3092638209326948
 50
270.68437948842927
 51
302.09470117968823
  0
ARC
  8
_0-2_決定
  6
CONTINUOUS
 62
    7
 10
891.99162348765083
 20
557.80596079857878
 40
1.4288468621509398
 50
228.37045024313016
 51
268.02673078415069
  0
ARC
  8
_0-2_決定
  6
CONTINUOUS
 62
    7
 10
892.97045736774862
 20
558.81342121203716
 40
2.8328162744508303
 50
176.67018354288641
 51
227.10892999692635
  0
ARC
  8
_0-2_決定
  6
CONTINUOUS
 62
    7
 10
893.13275259432862
 20
559.04380774192532
 40
2.9910538053407438
 50
128.70477424179344
 51
181.26143880201303
  0
ARC
  8
_0-2_決定
  6
CONTINUOUS
 62
    7
 10
891.95806202459812
 20
560.26879081997004
 40
1.3092638209319396
 50
90.684379488439021
 51
122.09470117969798
  0
ARC
  8
_0-2_決定
  6
CONTINUOUS
 62
    7
 10
891.89322384256855
 20
560.14996168587516
 40
1.4288468621516792
 50
48.370450243123912
 51
88.026730784144405
  0
ARC
  8
_0-2_決定
  6
CONTINUOUS
 62
    7
 10
890.9143899624712
 20
559.14250127241701
 40
2.8328162744511398
 50
356.67018354288388
 51
47.108929996923834
  0
ARC
  8
_0-2_決定
  6
CONTINUOUS
 62
    7
 10
926.95209473589125
 20
537.31211474252882
 40
2.9910538053407438
 50
308.70477424179342
 51
1.2614388020130101
  0
ARC
  8
_0-2_決定
  6
CONTINUOUS
 62
    7
 10
928.12678530562278
 20
536.08713166448433
 40
1.3092638209316427
 50
270.68437948839494
 51
302.0947011796539
  0
ARC
  8
_0-2_決定
  6
CONTINUOUS
 62
    7
 10
928.19162348765133
 20
536.20596079857955
 40
1.4288468621516792
 50
228.37045024312391
 51
268.02673078414443
  0
ARC
  8
_0-2_決定
  6
CONTINUOUS
 62
    7
 10
929.1704573677481
 20
537.21342121203747
 40
2.8328162744505514
 50
176.6701835428905
 51
227.10892999693044
  0
ARC
  8
_0-2_決定
  6
CONTINUOUS
 62
    7
 10
928.9456292017378
 20
537.47060714750205
 40
2.6048536100316113
 50
125.24533522098045
 51
182.03824856642899
  0
ARC
  8
_0-2_決定
  6
CONTINUOUS
 62
    7
 10
928.14916831738105
 20
538.30062092783714
 40
1.4773557103340054
 50
90.261576443040212
 51
118.57996981192784
  0
ARC
  8
_0-2_決定
  6
CONTINUOUS
 62
    7
 10
928.06325417363212
 20
538.02354899515876
 40
1.7561976372391945
 50
17.032404089252445
 51
87.416227298849449
  0
ARC
  8
_0-2_決定
  6
CONTINUOUS
 62
    7
 10
926.73783516718186
 20
537.42268736327503
 40
3.2049006017279034
 50
359.20038045570357
 51
20.364433607886564
  0
ARC
  8
_0-2_決定
  6
CONTINUOUS
 62
    7
 10
894.98842324914153
 20
494.09600191517626
 40
2.3569581156333035
 50
297.10819654692403
 51
357.12932412253986
  0
ARC
  8
_0-2_決定
  6
CONTINUOUS
 62
    7
 10
893.81777850789399
 20
495.74663344342383
 40
4.3693220473936227
 50
269.01180813172721
 51
300.91250237691565
  0
ARC
  8
_0-2_決定
  6
CONTINUOUS
 62
    7
 10
893.6862657881494
 20
495.64145221348241
 40
4.2638608055516993
 50
226.70723505641163
 51
270.75464526511746
  0
ARC
  8
_0-2_決定
  6
CONTINUOUS
 62
    7
 10
892.32809911899449
 20
494.06554372931652
 40
2.1874295146946801
 50
182.29467901770059
 51
224.29444749009195
  0
ARC
  8
_0-2_決定
  6
CONTINUOUS
 62
    7
 10
892.27290622472367
 20
493.88225281410598
 40
2.132631248019988
 50
113.50286621336726
 51
177.42781064384792
  0
ARC
  8
_0-2_決定
  6
CONTINUOUS
 62
    7
 10
893.62432171277703
 20
491.6316585189162
 40
4.7477718576669057
 50
88.574606853581344
 51
117.63097302894303
  0
ARC
  8
_0-2_決定
  6
CONTINUOUS
 62
    7
 10
893.86301542132355
 20
491.9072437640574
 40
4.4723435848870441
 50
48.910194882453631
 51
91.545104052408135
  0
ARC
  8
_0-2_決定
  6
CONTINUOUS
 62
    7
 10
895.41602301360115
 20
493.93991789467748
 40
1.9267762626798381
 50
1.1313534149558497
 51
43.983139854444197
  0
ARC
  8
_0-2_決定
  6
CONTINUOUS
 62
    7
 10
929.39843183454798
 20
503.118048304909
 40
7.7442235912885646
 50
312.82265611600093
 51
0.4432713816266483
  0
ARC
  8
_0-2_決定
  6
CONTINUOUS
 62
    7
 10
931.66592482499573
 20
501.14058068858043
 40
4.7632337821402473
 50
270.92022548562284
 51
308.98295590390063
  0
ARC
  8
_0-2_決定
  6
CONTINUOUS
 62
    7
 10
931.85241682006733
 20
501.3790106991658
 40
5.0022589062226066
 50
208.16398179060914
 51
268.74003892366727
  0
ARC
  8
_0-2_決定
  6
CONTINUOUS
 62
    7
 10
934.21115857143741
 20
503.03320364534244
 40
7.8700663140734637
 50
178.94607405283733
 51
210.6765987050085
  0
ARC
  8
_0-2_決定
  6
CONTINUOUS
 62
    7
 10
933.73394623909121
 20
503.19421106470486
 40
7.3915404360935213
 50
131.6423595598107
 51
180.12596115841268
  0
ARC
  8
_0-2_決定
  6
CONTINUOUS
 62
    7
 10
931.83834447899358
 20
504.96183975492471
 40
4.8170766013208688
 50
91.140986851610123
 51
128.76219453791336
  0
ARC
  8
_0-2_決定
  6
CONTINUOUS
 62
    7
 10
931.61353644543624
 20
504.70112692756601
 40
5.0784701017056069
 50
27.396485954326241
 51
88.545726065050786
  0
ARC
  8
_0-2_決定
  6
CONTINUOUS
 62
    7
 10
929.62805832840957
 20
503.25706677501643
 40
7.5147817066582379
 50
359.39685581663349
 51
30.207140350231434
  0
ARC
  8
_0-2_決定
  6
CONTINUOUS
 62
    7
 10
848.58397308002293
 20
517.62830828598658
 40
0.9597740268809664
 50
308.57473234017334
 51
356.99304454520586
  0
ARC
  8
_0-2_決定
  6
CONTINUOUS
 62
    7
 10
847.28140280388914
 20
519.36004484841737
 40
3.126439979753493
 50
284.84525106433625
 51
307.44843140683037
  0
ARC
  8
_0-2_決定
  6
CONTINUOUS
 62
    7
 10
845.52578464633507
 20
525.18961788511604
 40
9.213481351936343
 50
268.8596721525015
 51
286.11040574825853
  0
ARC
  8
_0-2_決定
  6
CONTINUOUS
 62
    7
 10
845.16545782367359
 20
526.11260561302856
 40
10.13618933029197
 50
254.65097305341018
 51
271.00037847361392
  0
ARC
  8
_0-2_決定
  6
CONTINUOUS
 62
    7
 10
843.11709089220642
 20
519.14777090807411
 40
2.8805954781558079
 50
228.87272661227422
 51
257.2719176856595
  0
ARC
  8
_0-2_決定
  6
CONTINUOUS
 62
    7
 10
841.79598755352663
 20
517.61095679015455
 40
0.8541993933153493
 50
182.2137408439981
 51
227.8200461121329
  0
ARC
  8
_0-2_決定
  6
CONTINUOUS
 62
    7
 10
841.7404021678451
 20
517.46963180940099
 40
0.8052960728412952
 50
121.26751477121131
 51
172.2690630928083
  0
ARC
  8
_0-2_決定
  6
CONTINUOUS
 62
    7
 10
843.324935118236
 20
514.97933779847472
 40
3.756819280592719
 50
101.71050118859067
 51
122.21062685159707
  0
ARC
  8
_0-2_決定
  6
CONTINUOUS
 62
    7
 10
845.23877089557891
 20
507.64283705252211
 40
11.335598118638483
 50
89.476069676500984
 51
103.65652756498349
  0
ARC
  8
_0-2_決定
  6
CONTINUOUS
 62
    7
 10
845.46188369080539
 20
508.98655377397887
 40
9.9921215673384971
 50
74.55792826651556
 51
90.685000048146577
  0
ARC
  8
_0-2_決定
  6
CONTINUOUS
 62
    7
 10
847.52558402736497
 20
515.94033056909666
 40
2.7433421154198987
 50
47.966618655167849
 51
77.43423692215984
  0
ARC
  8
_0-2_決定
  6
CONTINUOUS
 62
    7
 10
848.97516512043489
 20
517.56319399712334
 40
0.5674527267296126
 50
1.4912191100818863
 51
46.964271525833212
  0
ARC
  8
_0-2_決定
  6
CONTINUOUS
 62
    7
 10
701.5592616126338
 20
519.36112729470346
 40
4.5868247042318631
 50
272.28860565918177
 51
357.71139434082011
  0
ARC
  8
_0-2_決定
  6
CONTINUOUS
 62
    7
 10
701.92559371758625
 20
519.36112729470346
 40
4.5868247042318631
 50
182.28860565917989
 51
267.71139434081823
  0
ARC
  8
_0-2_決定
  6
CONTINUOUS
 62
    7
 10
701.92559371758625
 20
518.99479518975113
 40
4.5868247042317138
 50
92.288605659179936
 51
177.71139434081823
  0
ARC
  8
_0-2_決定
  6
CONTINUOUS
 62
    7
 10
701.5592616126338
 20
518.99479518975113
 40
4.5868247042317138
 50
2.2886056591817798
 51
87.711394340820092
  0
ARC
  8
_0-2_決定
  6
CONTINUOUS
 62
    7
 10
723.00002496388231
 20
560.11505333713046
 40
9.5426100578891067
 50
344.20731390938829
 51
0.377714644677909
  0
ARC
  8
_0-2_決定
  6
CONTINUOUS
 62
    7
 10
728.48089099962465
 20
558.38535355648537
 40
3.8018078742576367
 50
322.63288690479226
 51
346.81166862406894
  0
ARC
  8
_0-2_決定
  6
CONTINUOUS
 62
    7
 10
730.89851989993008
 20
556.53258907056227
 40
0.7559041282734833
 50
273.32998112185737
 51
323.02719909811026
  0
ARC
  8
_0-2_決定
  6
CONTINUOUS
 62
    7
 10
731.05075709793618
 20
556.57593774496206
 40
0.8052960728412952
 50
211.26751477121132
 51
262.26906309280827
  0
ARC
  8
_0-2_決定
  6
CONTINUOUS
 62
    7
 10
733.54105110886326
 20
558.16047069535352
 40
3.7568192805934242
 50
191.7105011885929
 51
212.2106268515993
  0
ARC
  8
_0-2_決定
  6
CONTINUOUS
 62
    7
 10
740.87755185481512
 20
560.07430647269587
 40
11.335598118638451
 50
179.47606967649955
 51
193.65652756498204
  0
ARC
  8
_0-2_決定
  6
CONTINUOUS
 62
    7
 10
740.36274451054942
 20
560.45282442093685
 40
10.823807389394258
 50
165.52694359749097
 51
181.45514352151517
  0
ARC
  8
_0-2_決定
  6
CONTINUOUS
 62
    7
 10
732.49751920390304
 20
562.59652127988966
 40
2.6746810253893605
 50
138.23797085437607
 51
167.8829730180239
  0
ARC
  8
_0-2_決定
  6
CONTINUOUS
 62
    7
 10
730.96158917297976
 20
563.95180592491386
 40
0.6264484374503566
 50
91.752809538676075
 51
137.13510002217515
  0
ARC
  8
_0-2_決定
  6
CONTINUOUS
 62
    7
 10
730.83699460114735
 20
563.6824931876248
 40
0.9016535741572171
 50
36.432359436074165
 51
83.28486945979985
  0
ARC
  8
_0-2_決定
  6
CONTINUOUS
 62
    7
 10
728.72883968910617
 20
562.09263833876798
 40
3.5420641244511319
 50
15.478975167848567
 51
36.871604795667523
  0
ARC
  8
_0-2_決定
  6
CONTINUOUS
 62
    7
 10
723.22881076471936
 20
560.33332950790646
 40
9.314912724509302
 50
359.04428962764825
 51
16.879212154373075
  0
ARC
  8
_0-2_決定
  6
CONTINUOUS
 62
    7
 10
758.39340803759205
 20
513.96177131033596
 40
9.9482963200544923
 50
59.098945672334736
 51
75.153723946398372
  0
ARC
  8
_0-2_決定
  6
CONTINUOUS
 62
    7
 10
761.95216164554881
 20
519.63446554031884
 40
3.2562134704581731
 50
34.910011249749338
 51
61.569389342451878
  0
ARC
  8
_0-2_決定
  6
CONTINUOUS
 62
    7
 10
764.08283164906948
 20
521.09959339237184
 40
0.6707150258828431
 50
349.55177208727451
 51
36.437461496534453
  0
ARC
  8
_0-2_決定
  6
CONTINUOUS
 62
    7
 10
764.02466729704793
 20
521.25639425098996
 40
0.7698714277667217
 50
286.43039372211888
 51
338.79771821708903
  0
ARC
  8
_0-2_決定
  6
CONTINUOUS
 62
    7
 10
763.15138698458009
 20
524.02140052153277
 40
3.6693939807812241
 50
266.73540580657345
 51
287.29759768286738
  0
ARC
  8
_0-2_決定
  6
CONTINUOUS
 62
    7
 10
763.19744604031962
 20
531.60143041029244
 40
11.24636093698777
 50
254.23780851818702
 51
268.70066026191699
  0
ARC
  8
_0-2_決定
  6
CONTINUOUS
 62
    7
 10
763.50514959692418
 20
532.4102726262737
 40
12.108615956293896
 50
237.85405890696103
 51
253.87622423496592
  0
ARC
  8
_0-2_決定
  6
CONTINUOUS
 62
    7
 10
757.89167535785077
 20
523.67204429756441
 40
1.7262973531142651
 50
202.98431435326145
 51
241.29087519453583
  0
ARC
  8
_0-2_決定
  6
CONTINUOUS
 62
    7
 10
756.79453374128218
 20
523.13826565526165
 40
0.5117183668295675
 50
152.06866330634008
 51
195.91332477868096
  0
ARC
  8
_0-2_決定
  6
CONTINUOUS
 62
    7
 10
757.12555391134492
 20
523.10655812584196
 40
0.8288241681045905
 50
111.45269206609014
 51
160.8855865897356
  0
ARC
  8
_0-2_決定
  6
CONTINUOUS
 62
    7
 10
757.94437704273719
 20
520.86586270094563
 40
3.2142670262673589
 50
87.895255988055808
 51
110.4294381034252
  0
ARC
  8
_0-2_決定
  6
CONTINUOUS
 62
    7
 10
758.03244535034969
 20
515.36087462920932
 40
8.717138167892827
 50
70.499025201009147
 51
89.802945776753134
  0
ARC
  8
_0-2_決定
  6
CONTINUOUS
 62
    7
 10
748.32129828634766
 20
651.39908662098946
 40
7.6243347146462721
 50
271.66197352263907
 51
358.33802647736098
  0
ARC
  8
_0-2_決定
  6
CONTINUOUS
 62
    7
 10
748.81664829696035
 20
651.2474711342378
 40
7.4745438627857572
 50
180.53284796001449
 51
267.89748692447694
  0
ARC
  8
_0-2_決定
  6
CONTINUOUS
 62
    7
 10
748.62114128142309
 20
651.09924564777941
 40
7.2791392168480273
 50
90.619600802763784
 51
179.38041511273462
  0
ARC
  8
_0-2_決定
  6
CONTINUOUS
 62
    7
 10
748.63769519487641
 20
651.073097370043
 40
7.3054830952508745
 50
0.8224437674631661
 51
90.747205438519146
  0
ARC
  8
_0-2_決定
  6
CONTINUOUS
 62
    7
 10
1033.5683658284074
 20
543.52977902321777
 40
5.7281713847233551
 50
321.67938402193238
 51
37.011055173532981
  0
ARC
  8
_0-2_決定
  6
CONTINUOUS
 62
    7
 10
1027.7728612112273
 20
547.23275536487995
 40
12.589959971984875
 50
300.07664908794538
 51
324.81373082035589
  0
ARC
  8
_0-2_決定
  6
CONTINUOUS
 62
    7
 10
1022.1706926990732
 20
555.8114602790522
 40
22.827756168698123
 50
277.48002348488967
 51
301.45367507080061
  0
ARC
  8
_0-2_決定
  6
CONTINUOUS
 62
    7
 10
1015.3921482537992
 20
555.17843205097142
 40
24.064258712906931
 50
267.45220043937479
 51
293.90219137226205
  0
ARC
  8
_0-2_決定
  6
CONTINUOUS
 62
    7
 10
1015.1797655626644
 20
543.26061990280346
 40
12.152937428051832
 50
241.72260688848525
 51
265.95464809807532
  0
ARC
  8
_0-2_決定
  6
CONTINUOUS
 62
    7
 10
1012.2016195995622
 20
537.28279746911085
 40
5.4816062803658525
 50
174.81730010468831
 51
239.53553162467068
  0
ARC
  8
_0-2_決定
  6
CONTINUOUS
 62
    7
 10
1011.3164795018122
 20
541.22614346123646
 40
5.7281713847231224
 50
141.67938402193235
 51
217.01105517353295
  0
ARC
  8
_0-2_決定
  6
CONTINUOUS
 62
    7
 10
1017.1119841189932
 20
537.52316711957462
 40
12.589959971985323
 50
120.07664908794762
 51
144.8137308203581
  0
ARC
  8
_0-2_決定
  6
CONTINUOUS
 62
    7
 10
1022.7141516311472
 20
528.94446691535813
 40
22.827751629003433
 50
97.480027512392951
 51
121.45367909830389
  0
ARC
  8
_0-2_決定
  6
CONTINUOUS
 62
    7
 10
1029.4148755402687
 20
529.82813678963453
 40
23.803596948480156
 50
86.947544956811882
 51
113.97538992496895
  0
ARC
  8
_0-2_決定
  6
CONTINUOUS
 62
    7
 10
1029.7592888893319
 20
541.86405714685156
 40
11.770160552906439
 50
60.794723005700085
 51
85.501676690022123
  0
ARC
  8
_0-2_決定
  6
CONTINUOUS
 62
    7
 10
1032.5458558553839
 20
547.36995082794897
 40
5.6102767042195634
 50
355.99348409760648
 51
58.197620889894594
  0
ARC
  8
_0-2_決定
  6
CONTINUOUS
 62
    7
 10
1084.381665765347
 20
602.42481192252797
 40
28.41464183330698
 50
283.34968110018167
 51
300.40464711745784
  0
ARC
  8
_0-2_決定
  6
CONTINUOUS
 62
    7
 10
1096.1514078307675
 20
582.19663240182172
 40
5.0124265715393657
 50
301.39318789634723
 51
322.39475791242234
  0
ARC
  8
_0-2_決定
  6
CONTINUOUS
 62
    7
 10
1099.3204885921184
 20
579.79680085658265
 40
1.0378662201850761
 50
320.59469484270068
 51
10.052518882347501
  0
ARC
  8
_0-2_決定
  6
CONTINUOUS
 62
    7
 10
1099.1781923264975
 20
579.60783794391773
 40
1.2216469247854904
 50
17.636121594397792
 51
59.271296838983034
  0
ARC
  8
_0-2_決定
  6
CONTINUOUS
 62
    7
 10
1097.9193051208833
 20
577.42885433655204
 40
3.7380823061326551
 50
59.75056860496457
 51
80.715094041462322
  0
ARC
  8
_0-2_決定
  6
CONTINUOUS
 62
    7
 10
1096.364464885299
 20
569.72247988448373
 40
11.598007278761921
 50
79.27690241513929
 51
91.195814203417356
  0
ARC
  8
_0-2_決定
  6
CONTINUOUS
 62
    7
 10
1096.7121266053389
 20
553.69002666062352
 40
27.634227348740833
 50
91.222765113145556
 51
105.0374395951654
  0
ARC
  8
_0-2_決定
  6
CONTINUOUS
 62
    7
 10
1095.9515479812073
 20
554.03931461529737
 40
27.107216866988985
 50
103.67629472941418
 51
121.06876747027566
  0
ARC
  8
_0-2_決定
  6
CONTINUOUS
 62
    7
 10
1084.8027537946871
 20
572.82823767379546
 40
5.2621229080123646
 50
122.6679320002133
 51
142.96046638624637
  0
ARC
  8
_0-2_決定
  6
CONTINUOUS
 62
    7
 10
1081.6352859309484
 20
575.19154486073921
 40
1.3103877181880974
 50
142.01879957679134
 51
189.38064552487248
  0
ARC
  8
_0-2_決定
  6
CONTINUOUS
 62
    7
 10
1081.4505167389925
 20
575.33367539358551
 40
1.1637900370079892
 50
197.79736300215168
 51
240.78145072285844
  0
ARC
  8
_0-2_決定
  6
CONTINUOUS
 62
    7
 10
1082.6915336816321
 20
577.49901438119934
 40
3.6595061635811774
 50
240.37246926112175
 51
261.68671512188843
  0
ARC
  8
_0-2_決定
  6
CONTINUOUS
 62
    7
 10
1083.9285262408148
 20
585.34468456442198
 40
11.601933852599338
 50
261.24410837891492
 51
272.93421596874987
  0
ARC
  8
_0-2_決定
  6
CONTINUOUS
 62
    7
 10
1083.2298655805025
 20
602.60757895122651
 40
28.878558537213408
 50
272.56532047782213
 51
285.48990542360843
  0
ARC
  8
_0-2_決定
  6
CONTINUOUS
 62
    7
 10
967.56628669698694
 20
628.6379918536843
 40
10.770384074145616
 50
158.54225598098208
 51
174.67274851150611
  0
ARC
  8
_0-2_決定
  6
CONTINUOUS
 62
    7
 10
958.68303719723883
 20
629.28705970371198
 40
1.87376323498631
 50
169.20649598294065
 51
224.31861294072363
  0
ARC
  8
_0-2_決定
  6
CONTINUOUS
 62
    7
 10
957.42468510971412
 20
628.78394876395441
 40
0.8101765575493804
 50
264.17241861064321
 51
311.58497458101414
  0
ARC
  8
_0-2_決定
  6
CONTINUOUS
 62
    7
 10
954.72023898726263
 20
632.35399643673759
 40
5.2868750822392627
 50
307.82498902235807
 51
325.21655029993218
  0
ARC
  8
_0-2_決定
  6
CONTINUOUS
 62
    7
 10
948.49889721055911
 20
636.85997435911361
 40
12.967991462622841
 50
324.54631117370673
 51
335.96392623240843
  0
ARC
  8
_0-2_決定
  6
CONTINUOUS
 62
    7
 10
952.10059030685227
 20
635.42772040454111
 40
9.0966190484239675
 50
334.96271724187909
 51
351.7215916449569
  0
ARC
  8
_0-2_決定
  6
CONTINUOUS
 62
    7
 10
958.43783396124331
 20
634.71375909980361
 40
2.7303874743781797
 50
347.39603744112554
 51
32.42946545233157
  0
ARC
  8
_0-2_決定
  6
CONTINUOUS
 62
    7
 10
960.4547552147676
 20
635.42075782955612
 40
0.8100043929963313
 50
69.197711004688955
 51
120.6004739028899
  0
ARC
  8
_0-2_決定
  6
CONTINUOUS
 62
    7
 10
961.65302104937018
 20
633.3228841919771
 40
3.2259058372364127
 50
119.95170255669277
 51
142.24730995851434
  0
ARC
  8
_0-2_決定
  6
CONTINUOUS
 62
    7
 10
967.31843838204327
 20
628.77848021339878
 40
10.48839857348111
 50
141.56769447020503
 51
158.76122732927811
  0
ARC
  8
_0-2_決定
  6
CONTINUOUS
 62
    7
 10
1162.8281723802891
 20
562.45785512228758
 40
8.1205589048564537
 50
2.25914042068238
 51
90.605051947645379
  0
ARC
  8
_0-2_決定
  6
CONTINUOUS
 62
    7
 10
1163.0014355193057
 20
562.0954061134571
 40
8.4865087477329268
 50
91.748990159803299
 51
175.38681747186592
  0
ARC
  8
_0-2_決定
  6
CONTINUOUS
 62
    7
 10
1162.6903981357311
 20
563.13352835236742
 40
8.1557330220846342
 50
182.49872745170518
 51
270.36546491662352
  0
ARC
  8
_0-2_決定
  6
CONTINUOUS
 62
    7
 10
1162.5379334452784
 20
563.40319034512675
 40
8.4277102495547211
 50
271.39033579895579
 51
355.74547183271852
  0
ARC
  8
_0-2_決定
  6
CONTINUOUS
 62
    7
 10
1031.3081662409395
 20
642.77129497497128
 40
29.279058427001946
 50
147.32572416767127
 51
157.07135827245909
  0
ARC
  8
_0-2_決定
  6
CONTINUOUS
 62
    7
 10
1011.1217706920216
 20
655.94280923152064
 40
5.1797482067520049
 50
127.02904644033012
 51
149.41999877272983
  0
ARC
  8
_0-2_決定
  6
CONTINUOUS
 62
    7
 10
1008.3552861546706
 20
659.68050179859938
 40
0.5314925738280665
 50
69.384303629806283
 51
131.59865039482131
  0
ARC
  8
_0-2_決定
  6
CONTINUOUS
 62
    7
 10
1008.3319211814897
 20
659.71216209430452
 40
0.5111538698115932
 50
2.8928586143430688
 51
65.680895340012853
  0
ARC
  8
_0-2_決定
  6
CONTINUOUS
 62
    7
 10
1004.5462344550797
 20
659.40106117451535
 40
4.3093783816705002
 50
345.71797718768039
 51
4.4838379047523054
  0
ARC
  8
_0-2_決定
  6
CONTINUOUS
 62
    7
 10
982.56337005825048
 20
664.04954794002856
 40
26.7753306433254
 50
335.57513493017439
 51
347.68328938492698
  0
ARC
  8
_0-2_決定
  6
CONTINUOUS
 62
    7
 10
981.23024701885481
 20
663.37916136578485
 40
27.736276489523902
 50
328.04087721785334
 51
337.97546780419071
  0
ARC
  8
_0-2_決定
  6
CONTINUOUS
 62
    7
 10
998.93540514381107
 20
652.12217471296071
 40
6.7586534485482606
 50
310.6967729259581
 51
329.55960915772999
  0
ARC
  8
_0-2_決定
  6
CONTINUOUS
 62
    7
 10
1002.8248964046479
 20
647.48121540712248
 40
0.7080755512163495
 50
263.31132124985714
 51
316.96128560672759
  0
ARC
  8
_0-2_決定
  6
CONTINUOUS
 62
    7
 10
1003.1983817231817
 20
647.38138582398847
 40
0.7563209571979281
 50
181.77498583242618
 51
232.92476572770869
  0
ARC
  8
_0-2_決定
  6
CONTINUOUS
 62
    7
 10
1007.5479477342196
 20
647.6701843268529
 40
5.1150621231543534
 50
166.11161338279709
 51
183.49952880170994
  0
ARC
  8
_0-2_決定
  6
CONTINUOUS
 62
    7
 10
1029.0875378963383
 20
642.99625449848463
 40
27.154211446712516
 50
155.68296684378603
 51
167.44713551037134
  0
CIRCLE
  8
_0-2_決定
  6
CONTINUOUS
 62
    7
 10
1125.9024216651101
 20
565.57796124222727
 40
7.3399999999999999
  0
ARC
  8
_0-2_決定
  6
CONTINUOUS
 62
    7
 10
1037.2670738706074
 20
591.25685018781246
 40
7.8890319810142193
 50
330.04717864843349
 51
18.637022746759872
  0
ARC
  8
_0-2_決定
  6
CONTINUOUS
 62
    7
 10
1034.5031517600282
 20
592.6908710858695
 40
11.000642840239582
 50
287.12527178999818
 51
330.76335847812987
  0
ARC
  8
_0-2_決定
  6
CONTINUOUS
 62
    7
 10
1034.1636156129862
 20
592.90788468081223
 40
11.311017184878038
 50
237.59731304586606
 51
288.44535236569413
  0
ARC
  8
_0-2_決定
  6
CONTINUOUS
 62
    7
 10
1032.5409361112409
 20
589.47191408812216
 40
7.5551856291118993
 50
197.67553621196114
 51
234.02167175271046
  0
ARC
  8
_0-2_決定
  6
CONTINUOUS
 62
    7
 10
1032.8177694596125
 20
589.69907229664216
 40
7.8890319810142193
 50
150.04717864843352
 51
198.63702274675987
  0
ARC
  8
_0-2_決定
  6
CONTINUOUS
 62
    7
 10
1035.5816915701914
 20
588.26505139858546
 40
11.000642840239435
 50
107.12527178999879
 51
150.76335847813053
  0
ARC
  8
_0-2_決定
  6
CONTINUOUS
 62
    7
 10
1035.8911830419224
 20
588.41593438396728
 40
10.95286756611511
 50
56.963320212094686
 51
108.90517982158025
  0
ARC
  8
_0-2_決定
  6
CONTINUOUS
 62
    7
 10
1037.1618099615578
 20
591.05839011494254
 40
8.0536787194667383
 50
19.735627031774886
 51
54.291604678037935
  0
ARC
  8
_0-2_決定
  6
CONTINUOUS
 62
    7
 10
1059.1576889780185
 20
506.35603962208961
 40
3.4730132922685133
 50
347.05382954538624
 51
37.244353669491559
  0
ARC
  8
_0-2_決定
  6
CONTINUOUS
 62
    7
 10
1054.9598744206894
 20
503.84019905715746
 40
8.3546868121222655
 50
33.55348547728758
 51
47.887587462210362
  0
ARC
  8
_0-2_決定
  6
CONTINUOUS
 62
    7
 10
1049.6931315460747
 20
498.01363150031079
 40
16.208823937414675
 50
47.88826449652084
 51
68.922105580772083
  0
ARC
  8
_0-2_決定
  6
CONTINUOUS
 62
    7
 10
1045.6024360957692
 20
489.50281028392737
 40
25.632527665401156
 50
67.231562602113172
 51
74.291148364065577
  0
ARC
  8
_0-2_決定
  6
CONTINUOUS
 62
    7
 10
1047.2604906784784
 20
494.16825146841546
 40
20.695102806696205
 50
75.213015211996478
 51
95.206723343280956
  0
ARC
  8
_0-2_決定
  6
CONTINUOUS
 62
    7
 10
1046.2893269479798
 20
505.14540679822176
 40
9.6751528312904291
 50
95.378544495900798
 51
122.13875619978322
  0
ARC
  8
_0-2_決定
  6
CONTINUOUS
 62
    7
 10
1043.2532956160546
 20
510.35019413440921
 40
3.6582155660016258
 50
125.24141664602755
 51
163.68322777001737
  0
ARC
  8
_0-2_決定
  6
CONTINUOUS
 62
    7
 10
1042.6950301925635
 20
510.6479612422271
 40
3.0415123074538783
 50
166.11274075160148
 51
193.88725924839849
  0
ARC
  8
_0-2_決定
  6
CONTINUOUS
 62
    7
 10
1044.3837856406594
 20
511.02730758800959
 40
4.7720969047611979
 50
193.44225052171979
 51
212.5754896439565
  0
ARC
  8
_0-2_決定
  6
CONTINUOUS
 62
    7
 10
1047.394272246521
 20
513.05703423642535
 40
8.402285106163248
 50
213.18607126338182
 51
227.54300188280052
  0
ARC
  8
_0-2_決定
  6
CONTINUOUS
 62
    7
 10
1052.2061582463227
 20
518.16245879649478
 40
15.417535395085087
 50
227.15730722614131
 51
249.32373260423486
  0
ARC
  8
_0-2_決定
  6
CONTINUOUS
 62
    7
 10
1055.1035192290014
 20
524.52490993014089
 40
22.398016526565915
 50
248.13608209532285
 51
256.15147139004762
  0
ARC
  8
_0-2_決定
  6
CONTINUOUS
 62
    7
 10
1055.0243526517422
 20
522.7876710160408
 40
20.695102806697911
 50
255.21301521199462
 51
275.20672334327907
  0
ARC
  8
_0-2_決定
  6
CONTINUOUS
 62
    7
 10
1055.9955163822403
 20
511.81051568623189
 40
9.6751528312895569
 50
275.37854449590259
 51
302.13875619978501
  0
ARC
  8
_0-2_決定
  6
CONTINUOUS
 62
    7
 10
1059.0315477141648
 20
506.6057283500453
 40
3.6582155660015001
 50
305.2414166460303
 51
343.6832277700201
  0
ARC
  8
_0-2_決定
  6
CONTINUOUS
 62
    7
 10
1098.9001259224128
 20
474.61355047602581
 40
10.843542250104255
 50
345.16911754917476
 51
0.8687676371806577
  0
ARC
  8
_0-2_決定
  6
CONTINUOUS
 62
    7
 10
1106.6485724094978
 20
472.40488787003386
 40
2.7920127660929421
 50
318.58540418929357
 51
348.2844934565403
  0
ARC
  8
_0-2_決定
  6
CONTINUOUS
 62
    7
 10
1108.3292045099747
 20
470.94177914252811
 40
0.5639707994407885
 50
271.34290028222347
 51
317.11259035365777
  0
ARC
  8
_0-2_決定
  6
CONTINUOUS
 62
    7
 10
1108.4507510979358
 20
471.17593974496259
 40
0.8052960728413476
 50
211.26751477126993
 51
262.26906309286693
  0
ARC
  8
_0-2_決定
  6
CONTINUOUS
 62
    7
 10
1110.9410451088638
 20
472.76047269535383
 40
3.7568192805943141
 50
191.71050118859401
 51
212.21062685160041
  0
ARC
  8
_0-2_決定
  6
CONTINUOUS
 62
    7
 10
1118.2775458548149
 20
474.67430847269554
 40
11.335598118638419
 50
179.4760696764981
 51
193.65652756498059
  0
ARC
  8
_0-2_決定
  6
CONTINUOUS
 62
    7
 10
1117.7847174078074
 20
474.94237600842695
 40
10.843542250104507
 50
165.16911754916387
 51
180.86876763716975
  0
ARC
  8
_0-2_決定
  6
CONTINUOUS
 62
    7
 10
1110.0362671490821
 20
477.15103761442151
 40
2.7920092760763726
 50
138.5853683793938
 51
168.28445764664053
  0
ARC
  8
_0-2_決定
  6
CONTINUOUS
 62
    7
 10
1108.3556388202462
 20
478.61414534192591
 40
0.5639707994415883
 50
91.342900282268332
 51
137.11259035370264
  0
ARC
  8
_0-2_決定
  6
CONTINUOUS
 62
    7
 10
1108.2340943287545
 20
478.3799857394925
 40
0.8052947999129693
 50
31.267653005851077
 51
82.269201327448044
  0
ARC
  8
_0-2_決定
  6
CONTINUOUS
 62
    7
 10
1105.743798221356
 20
476.7954537891012
 40
3.756819280594164
 50
11.71050118858834
 51
32.210626851594746
  0
ARC
  8
_0-2_決定
  6
CONTINUOUS
 62
    7
 10
1098.407297475406
 20
474.8816180117592
 40
11.335598118637273
 50
359.47606967649875
 51
13.656527564981259
  0
ARC
  8
_0-2_決定
  6
CONTINUOUS
 62
    7
 10
1155.7882093822268
 20
536.29876787049909
 40
3.7550454642027291
 50
1.2084493885540366
 51
49.590169752988501
  0
ARC
  8
_0-2_決定
  6
CONTINUOUS
 62
    7
 10
1153.9532966247459
 20
534.35655925405945
 40
6.4248636239029793
 50
48.358394616630989
 51
91.880900654088208
  0
ARC
  8
_0-2_決定
  6
CONTINUOUS
 62
    7
 10
1153.6852585736699
 20
534.12508758785293
 40
6.6531192121770699
 50
89.507730211784803
 51
139.81615852801181
  0
ARC
  8
_0-2_決定
  6
CONTINUOUS
 62
    7
 10
1151.5685537359416
 20
536.33156557225277
 40
3.6264288705701087
 50
144.87720907432274
 51
179.2669514016772
  0
ARC
  8
_0-2_決定
  6
CONTINUOUS
 62
    7
 10
1152.0590770162951
 20
536.49764933523898
 40
4.11839489607895
 50
181.66535469300399
 51
249.58367157648496
  0
ARC
  8
_0-2_決定
  6
CONTINUOUS
 62
    7
 10
1153.6604836417316
 20
539.29517276807189
 40
7.3176702594391223
 50
245.47009082976149
 51
270.64155479333482
  0
ARC
  8
_0-2_決定
  6
CONTINUOUS
 62
    7
 10
1153.8481512889903
 20
539.18874904480788
 40
7.2115629311636624
 50
269.1599334399524
 51
303.25206393804285
  0
ARC
  8
_0-2_決定
  6
CONTINUOUS
 62
    7
 10
1155.4046425404704
 20
536.53377869467226
 40
4.1407099163881727
 50
305.38543346509994
 51
357.84341551315504
  0
ARC
  8
_0-2_決定
  6
CONTINUOUS
 62
    7
 10
1106.6502016235772
 20
499.6274665912506
 40
1.493041001424267
 50
320.50922555770313
 51
358.09987297419667
  0
ARC
  8
_0-2_決定
  6
CONTINUOUS
 62
    7
 10
1105.233186444754
 20
500.82944895535348
 40
3.3510996698474189
 50
297.53604334130051
 51
320.05706085530534
  0
ARC
  8
_0-2_決定
  6
CONTINUOUS
 62
    7
 10
1103.5643514091607
 20
503.96765444608718
 40
6.9053839297695587
 50
282.18974044139122
 51
297.77647260241019
  0
ARC
  8
_0-2_決定
  6
CONTINUOUS
 62
    7
 10
1102.8119679397637
 20
507.26727163301632
 40
10.289545422530619
 50
269.61273912554168
 51
282.4052727894466
  0
ARC
  8
_0-2_決定
  6
CONTINUOUS
 62
    7
 10
1102.5781518936951
 20
505.55448950092426
 40
8.5781012776739693
 50
240.10268193453021
 51
271.09727545187729
  0
ARC
  8
_0-2_決定
  6
CONTINUOUS
 62
    7
 10
1099.3770278163875
 20
499.87016802662907
 40
2.0554821808193666
 50
188.17283963634429
 51
238.47973973789294
  0
ARC
  8
_0-2_決定
  6
CONTINUOUS
 62
    7
 10
1098.7372753475975
 20
499.54472231944806
 40
1.3952496627972519
 50
139.11564369058817
 51
178.6349180172771
  0
ARC
  8
_0-2_決定
  6
CONTINUOUS
 62
    7
 10
1099.9848548342338
 20
498.35731011722004
 40
3.116718410006698
 50
114.29715180381095
 51
137.6238825895143
  0
ARC
  8
_0-2_決定
  6
CONTINUOUS
 62
    7
 10
1101.7829010048404
 20
494.6771467623816
 40
7.2118218532541398
 50
100.06583245673055
 51
115.28638494056923
  0
ARC
  8
_0-2_決定
  6
CONTINUOUS
 62
    7
 10
1102.7024995248207
 20
490.00009699942808
 40
11.977930772725765
 50
89.80903426258854
 51
100.48673538567569
  0
ARC
  8
_0-2_決定
  6
CONTINUOUS
 62
    7
 10
1102.9919432750094
 20
492.86483026180179
 40
9.1165463471753014
 50
61.782545215645051
 51
91.568392260574967
  0
ARC
  8
_0-2_決定
  6
CONTINUOUS
 62
    7
 10
1106.3720581103828
 20
499.37863898012807
 40
1.7815488991534656
 50
6.4237839173750562
 51
58.518600664315521
  0
ARC
  8
_0-2_決定
  6
CONTINUOUS
 62
    7
 10
1137.5520927358918
 20
522.91211474252918
 40
2.9910538053404871
 50
308.70477424178944
 51
1.2614388020090173
  0
ARC
  8
_0-2_決定
  6
CONTINUOUS
 62
    7
 10
1138.7267833056221
 20
521.68713166448526
 40
1.3092638209325467
 50
270.68437948840722
 51
302.09470117966623
  0
ARC
  8
_0-2_決定
  6
CONTINUOUS
 62
    7
 10
1138.8494353525825
 20
521.73560353035873
 40
1.3618533371216528
 50
227.1016252991455
 51
265.49308279890982
  0
ARC
  8
_0-2_決定
  6
CONTINUOUS
 62
    7
 10
1139.9737923611549
 20
522.9698109217469
 40
3.0313816527392041
 50
179.84595158864414
 51
227.41280387267105
  0
ARC
  8
_0-2_決定
  6
CONTINUOUS
 62
    7
 10
1139.4233466578003
 20
522.99226749770946
 40
2.4809662408628519
 50
105.92981222293338
 51
180.33039248538731
  0
ARC
  8
_0-2_決定
  6
CONTINUOUS
 62
    7
 10
1138.6632521736319
 20
523.62354899515822
 40
1.7561976372396866
 50
17.032404089254708
 51
87.416227298851709
  0
ARC
  8
_0-2_決定
  6
CONTINUOUS
 62
    7
 10
1137.3378331671829
 20
523.02268736327483
 40
3.2049006017271422
 50
359.2003804557059
 51
20.364433607888913
  0
ARC
  8
_0-2_決定
  6
CONTINUOUS
 62
    7
 10
1174.1392141284821
 20
501.0853153369527
 40
2.6048536100316442
 50
305.24533522097897
 51
2.0382485664275105
  0
ARC
  8
_0-2_決定
  6
CONTINUOUS
 62
    7
 10
1174.9356750128388
 20
500.25530155661727
 40
1.4773557103338653
 50
270.26157644304158
 51
298.57996981192923
  0
ARC
  8
_0-2_決定
  6
CONTINUOUS
 62
    7
 10
1175.0215891565879
 20
500.53237348929571
 40
1.7561976372392434
 50
197.0324040892537
 51
267.41622729885069
  0
ARC
  8
_0-2_決定
  6
CONTINUOUS
 62
    7
 10
1176.347008163038
 20
501.13323512117944
 40
3.2049006017279034
 50
179.20038045570357
 51
200.36443360788658
  0
ARC
  8
_0-2_決定
  6
CONTINUOUS
 62
    7
 10
1176.1327485943284
 20
501.24380774192559
 40
2.991053805340778
 50
128.70477424179205
 51
181.26143880201164
  0
ARC
  8
_0-2_決定
  6
CONTINUOUS
 62
    7
 10
1174.9580580245972
 20
502.46879081997008
 40
1.3092638209316427
 50
90.684379488394924
 51
122.09470117965388
  0
ARC
  8
_0-2_決定
  6
CONTINUOUS
 62
    7
 10
1174.8932198425691
 20
502.34996168587514
 40
1.4288468621514261
 50
48.370450243137945
 51
88.026730784158431
  0
ARC
  8
_0-2_決定
  6
CONTINUOUS
 62
    7
 10
1173.9143859624714
 20
501.342501272417
 40
2.8328162744508925
 50
356.6701835428895
 51
47.108929996929476
  0
ARC
  8
_0-2_決定
  6
CONTINUOUS
 62
    7
 10
1142.7101298254315
 20
457.86887042876714
 40
1.6348213255417841
 50
319.99705841720163
 51
356.8123206848532
  0
ARC
  8
_0-2_決定
  6
CONTINUOUS
 62
    7
 10
1141.3761859062899
 20
458.88157724082248
 40
3.3086429446824543
 50
298.64764967036234
 51
321.41286887342238
  0
ARC
  8
_0-2_決定
  6
CONTINUOUS
 62
    7
 10
1140.5713763812469
 20
460.44151255380882
 40
5.0636320962726113
 50
269.67237112787916
 51
298.17717531294022
  0
ARC
  8
_0-2_決定
  6
CONTINUOUS
 62
    7
 10
1140.5922152079117
 20
459.8995799390454
 40
4.5218908600107017
 50
226.89819330443316
 51
269.36906537601465
  0
ARC
  8
_0-2_決定
  6
CONTINUOUS
 62
    7
 10
1138.7534849550975
 20
457.91456954933977
 40
1.8162080066674138
 50
184.31358281027889
 51
226.46222977190209
  0
ARC
  8
_0-2_決定
  6
CONTINUOUS
 62
    7
 10
1138.8643087961427
 20
457.73733419854977
 40
1.9223165357502314
 50
144.34116516977824
 51
178.78893718436419
  0
ARC
  8
_0-2_決定
  6
CONTINUOUS
 62
    7
 10
1140.3891166577509
 20
456.49158707370333
 40
3.8893986872719566
 50
87.741037460249231
 51
142.5248725255758
  0
ARC
  8
_0-2_決定
  6
CONTINUOUS
 62
    7
 10
1140.5852765791087
 20
455.67154080853015
 40
4.7066175400239647
 50
48.525254535971719
 51
90.521699418252126
  0
ARC
  8
_0-2_決定
  6
CONTINUOUS
 62
    7
 10
1142.2371299354318
 20
457.6833247161747
 40
2.107417784319273
 50
2.5738666274913782
 51
45.948715077497887
  0
ARC
  8
_0-2_決定
  6
CONTINUOUS
 62
    7
 10
1176.5508970911285
 20
466.96171341974974
 40
7.3915404360935213
 50
311.6423595598107
 51
0.1259611584126956
  0
ARC
  8
_0-2_決定
  6
CONTINUOUS
 62
    7
 10
1178.4464988512261
 20
465.19408472952989
 40
4.8170766013209718
 50
271.14098685160968
 51
308.76219453791293
  0
ARC
  8
_0-2_決定
  6
CONTINUOUS
 62
    7
 10
1178.6713068847837
 20
465.45479755688831
 40
5.078470101705193
 50
207.39648595432334
 51
268.54572606504786
  0
ARC
  8
_0-2_決定
  6
CONTINUOUS
 62
    7
 10
1180.6567850018107
 20
466.89885770943818
 40
7.5147817066582707
 50
179.39685581663448
 51
210.20714035023241
  0
ARC
  8
_0-2_決定
  6
CONTINUOUS
 62
    7
 10
1180.8864114956718
 20
467.03787617954532
 40
7.7442235912882751
 50
132.82265611599931
 51
180.44327138162501
  0
ARC
  8
_0-2_決定
  6
CONTINUOUS
 62
    7
 10
1178.6189185052249
 20
469.01534379587474
 40
4.7632337821396797
 50
90.920225485630922
 51
128.98295590390867
  0
ARC
  8
_0-2_決定
  6
CONTINUOUS
 62
    7
 10
1178.4324265101518
 20
468.77691378528851
 40
5.0022589062229015
 50
28.163981790603639
 51
88.7400389236618
  0
ARC
  8
_0-2_決定
  6
CONTINUOUS
 62
    7
 10
1176.0736847587832
 20
467.12272083911188
 40
7.870066314072492
 50
358.94607405284012
 51
30.676598705011333
  0
ARC
  8
_0-2_決定
  6
CONTINUOUS
 62
    7
 10
1095.5416251784122
 20
481.47328319948798
 40
0.8064498054085491
 50
303.13330836024898
 51
353.21179848637615
  0
ARC
  8
_0-2_決定
  6
CONTINUOUS
 62
    7
 10
1094.0271775190809
 20
483.63601526590884
 40
3.4463793047074986
 50
282.99961589153742
 51
304.56444495490615
  0
ARC
  8
_0-2_決定
  6
CONTINUOUS
 62
    7
 10
1092.3131273306897
 20
490.4070376740799
 40
10.430473414265059
 50
269.06225245351891
 51
283.80722584856551
  0
ARC
  8
_0-2_決定
  6
CONTINUOUS
 62
    7
 10
1091.9356796848429
 20
489.87606662121095
 40
9.9002642560629042
 50
254.45478710186399
 51
271.19656442516043
  0
ARC
  8
_0-2_決定
  6
CONTINUOUS
 62
    7
 10
1089.8488364292023
 20
482.79286628472335
 40
2.5194016060671776
 50
226.74489054604581
 51
257.00763868738341
  0
ARC
  8
_0-2_決定
  6
CONTINUOUS
 62
    7
 10
1088.5545798553267
 20
481.39174332374836
 40
0.6123133149133509
 50
181.28973480710042
 51
225.10744622013044
  0
ARC
  8
_0-2_決定
  6
CONTINUOUS
 62
    7
 10
1088.9125789997324
 20
481.32159461299295
 40
0.9717934198236606
 50
128.89295229986396
 51
176.67482458553371
  0
ARC
  8
_0-2_決定
  6
CONTINUOUS
 62
    7
 10
1090.1708624494604
 20
479.7681668443974
 40
2.9708956772107911
 50
104.99034469320132
 51
128.97011674325421
  0
ARC
  8
_0-2_決定
  6
CONTINUOUS
 62
    7
 10
1091.9075371740246
 20
473.66026567037721
 40
9.3206556364788629
 50
88.555969088909421
 51
105.59110626099965
  0
ARC
  8
_0-2_決定
  6
CONTINUOUS
 62
    7
 10
1092.3773061561953
 20
473.66026567037522
 40
9.3206556364807707
 50
74.408893739001797
 51
91.444030911092028
  0
ARC
  8
_0-2_決定
  6
CONTINUOUS
 62
    7
 10
1094.2657162569744
 20
480.0366386019752
 40
2.6734257122861322
 50
47.192126027731135
 51
76.662900100516467
  0
ARC
  8
_0-2_決定
  6
CONTINUOUS
 62
    7
 10
1095.4448623499934
 20
481.3660815294358
 40
0.8976379290832841
 50
0.7582982556528047
 51
44.743654429972182
  0
ARC
  8
_0-2_決定
  6
CONTINUOUS
 62
    7
 10
948.35925869589119
 20
483.36112829470324
 40
4.5868236617713638
 50
272.2885926374106
 51
357.71138131904888
  0
ARC
  8
_0-2_決定
  6
CONTINUOUS
 62
    7
 10
948.72558863432891
 20
483.36112829470352
 40
4.5868236617715494
 50
182.28861868095339
 51
267.71140736259173
  0
ARC
  8
_0-2_決定
  6
CONTINUOUS
 62
    7
 10
948.72558971758644
 20
482.99479518975119
 40
4.5868247042318249
 50
92.288605659182252
 51
177.71139434082056
  0
ARC
  8
_0-2_決定
  6
CONTINUOUS
 62
    7
 10
948.35925761263366
 20
482.99479518975147
 40
4.5868247042316401
 50
2.2886056591771489
 51
87.71139434081546
  0
ARC
  8
_0-2_決定
  6
CONTINUOUS
 62
    7
 10
968.50012792241159
 20
524.01354847602761
 40
10.843542250105543
 50
345.16911754916453
 51
0.8687676371704118
  0
ARC
  8
_0-2_決定
  6
CONTINUOUS
 62
    7
 10
976.24857440949813
 20
521.80488587003288
 40
2.7920127660920127
 50
318.58540418930625
 51
348.28449345655304
  0
ARC
  8
_0-2_決定
  6
CONTINUOUS
 62
    7
 10
977.92920650997416
 20
520.34177714252883
 40
0.5639707994414384
 50
271.3429002822345
 51
317.11259035366879
  0
ARC
  8
_0-2_決定
  6
CONTINUOUS
 62
    7
 10
978.05075309793642
 20
520.57593774496218
 40
0.8052960728412952
 50
211.26751477121132
 51
262.26906309280827
  0
ARC
  8
_0-2_決定
  6
CONTINUOUS
 62
    7
 10
980.54104710886327
 20
522.16047069535398
 40
3.7568192805934979
 50
191.71050118859574
 51
212.21062685160214
  0
ARC
  8
_0-2_決定
  6
CONTINUOUS
 62
    7
 10
987.87754785481502
 20
524.07430647269564
 40
11.335598118638419
 50
179.4760696764981
 51
193.65652756498059
  0
ARC
  8
_0-2_決定
  6
CONTINUOUS
 62
    7
 10
987.38471940780732
 20
524.34237400842881
 40
10.84354225010429
 50
165.16911754917342
 51
180.8687676371793
  0
ARC
  8
_0-2_決定
  6
CONTINUOUS
 62
    7
 10
979.63627292072124
 20
526.5510366144207
 40
2.7920127660919496
 50
138.58540418928339
 51
168.28449345653013
  0
ARC
  8
_0-2_決定
  6
CONTINUOUS
 62
    7
 10
977.955640820246
 20
528.01414534192645
 40
0.5639707994410885
 50
91.342900282291183
 51
137.11259035372549
  0
ARC
  8
_0-2_決定
  6
CONTINUOUS
 62
    7
 10
977.83409423228341
 20
527.77998473949253
 40
0.8052960728412952
 50
31.267514771211317
 51
82.269063092808281
  0
ARC
  8
_0-2_決定
  6
CONTINUOUS
 62
    7
 10
975.34380022135565
 20
526.19545178910107
 40
3.756819280594164
 50
11.71050118858834
 51
32.210626851594746
  0
ARC
  8
_0-2_決定
  6
CONTINUOUS
 62
    7
 10
968.00729947540708
 20
524.28161601175702
 40
11.335598118636359
 50
359.47606967650955
 51
13.656527564992043
  0
ARC
  8
_0-2_決定
  6
CONTINUOUS
 62
    7
 10
1005.6489610358659
 20
478.53476616394715
 40
9.2823468478545159
 50
60.054943106211681
 51
76.96585929659112
  0
ARC
  8
_0-2_決定
  6
CONTINUOUS
 62
    7
 10
1008.7409154590537
 20
483.67084188732434
 40
3.2905304273007321
 50
35.420873522757098
 51
62.065103068599321
  0
ARC
  8
_0-2_決定
  6
CONTINUOUS
 62
    7
 10
1010.7915427512464
 20
485.13978505945431
 40
0.7681204948618292
 50
347.83808566807591
 51
34.781779280006283
  0
ARC
  8
_0-2_決定
  6
CONTINUOUS
 62
    7
 10
1010.8385775806123
 20
485.23197454779023
 40
0.7482794064158176
 50
287.40642090511642
 51
340.15582862460917
  0
ARC
  8
_0-2_決定
  6
CONTINUOUS
 62
    7
 10
1009.9935780448742
 20
487.86872620411685
 40
3.5171091523758449
 50
266.55810103555308
 51
287.69193166224113
  0
ARC
  8
_0-2_決定
  6
CONTINUOUS
 62
    7
 10
1010.2045615839056
 20
497.02432240741786
 40
12.673393609824178
 50
255.0841269451339
 51
268.09118247401295
  0
ARC
  8
_0-2_決定
  6
CONTINUOUS
 62
    7
 10
1009.4914412926267
 20
494.39415117411841
 40
9.9482963200538652
 50
239.0989456723396
 51
255.1537239464032
  0
ARC
  8
_0-2_決定
  6
CONTINUOUS
 62
    7
 10
1005.9326876846711
 20
488.72145694413575
 40
3.2562134704582886
 50
214.91001124975119
 51
241.56938934245372
  0
ARC
  8
_0-2_決定
  6
CONTINUOUS
 62
    7
 10
1003.80201768115
 20
487.2563290920823
 40
0.670715025882475
 50
169.55177208727397
 51
216.43746149653387
  0
ARC
  8
_0-2_決定
  6
CONTINUOUS
 62
    7
 10
1003.9434170177577
 20
487.06532815547376
 40
0.8598428914158601
 50
109.07443019226599
 51
158.67896437959661
  0
ARC
  8
_0-2_決定
  6
CONTINUOUS
 62
    7
 10
1004.834290805603
 20
484.57401154307433
 40
3.5056178071059945
 50
88.232397340711486
 51
109.52892096034182
  0
ARC
  8
_0-2_決定
  6
CONTINUOUS
 62
    7
 10
1004.961900832378
 20
480.09703337892432
 40
7.98095162993042
 50
69.610828678616855
 51
90.139828010595863
  0
ARC
  8
_0-2_決定
  6
CONTINUOUS
 62
    7
 10
995.2847975399377
 20
615.23558743896274
 40
7.4620747591140919
 50
271.97851456952748
 51
358.02146951497804
  0
ARC
  8
_0-2_決定
  6
CONTINUOUS
 62
    7
 10
995.80578650881648
 20
615.45141762977494
 40
7.6779745323255764
 50
183.53535800832921
 51
268.03430710717885
  0
ARC
  8
_0-2_決定
  6
CONTINUOUS
 62
    7
 10
995.8045251876847
 20
614.71585771965294
 40
7.6665831339896737
 50
91.95918281513282
 51
178.04081718486719
  0
ARC
  8
_0-2_決定
  6
CONTINUOUS
 62
    7
 10
995.45854379502953
 20
615.09364369296009
 40
7.2847984772335668
 50
359.09009021706345
 51
89.340260576950811
  0
ARC
  8
_0-2_決定
  6
CONTINUOUS
 62
    7
 10
1313.4460924396512
 20
478.19275594083734
 40
3.7850637133435709
 50
347.56891041319761
 51
35.634127600498864
  0
ARC
  8
_0-2_決定
  6
CONTINUOUS
 62
    7
 10
1309.7310892569426
 20
475.99645487074326
 40
8.0929228271246973
 50
32.947548315706584
 51
47.655090649695168
  0
ARC
  8
_0-2_決定
  6
CONTINUOUS
 62
    7
 10
1304.9532054328608
 20
470.88924136482177
 40
15.086301449061605
 50
47.308830973132565
 51
69.476164534374064
  0
ARC
  8
_0-2_決定
  6
CONTINUOUS
 62
    7
 10
1301.6061794607931
 20
463.78953333335687
 40
22.917913556949195
 50
67.862318563231838
 51
75.505033056536035
  0
ARC
  8
_0-2_決定
  6
CONTINUOUS
 62
    7
 10
1301.9282432981536
 20
467.55617427092915
 40
19.200924959274452
 50
73.621905748706212
 51
94.498019746687547
  0
ARC
  8
_0-2_決定
  6
CONTINUOUS
 62
    7
 10
1301.1841146063898
 20
476.63934853602427
 40
10.087411551222674
 50
94.33050628421401
 51
121.30727154483229
  0
ARC
  8
_0-2_決定
  6
CONTINUOUS
 62
    7
 10
1297.994794367487
 20
482.26831901705282
 40
3.6263219331720906
 50
124.46943316762803
 51
162.18186749323027
  0
ARC
  8
_0-2_決定
  6
CONTINUOUS
 62
    7
 10
1298.2387277140922
 20
482.56316396751458
 40
3.7850498777539192
 50
167.56879331357464
 51
215.63422975044537
  0
ARC
  8
_0-2_決定
  6
CONTINUOUS
 62
    7
 10
1301.9537383247587
 20
484.75946861371114
 40
8.0929168686822202
 50
212.94758409222956
 51
227.65512642621815
  0
ARC
  8
_0-2_決定
  6
CONTINUOUS
 62
    7
 10
1306.7316298973603
 20
489.86668311963285
 40
15.086301449062381
 50
227.30883097312775
 51
249.47616453436927
  0
ARC
  8
_0-2_決定
  6
CONTINUOUS
 62
    7
 10
1310.0786558694249
 20
496.96639115110173
 40
22.91791355695257
 50
247.86231856324025
 51
255.50503305654445
  0
ARC
  8
_0-2_決定
  6
CONTINUOUS
 62
    7
 10
1309.7565920320658
 20
493.19975021352377
 40
19.200924959272811
 50
253.62190574870806
 51
274.49801974668935
  0
ARC
  8
_0-2_決定
  6
CONTINUOUS
 62
    7
 10
1310.5007207238302
 20
484.11657594843035
 40
10.087411551222674
 50
274.33050628421398
 51
301.30727154483225
  0
ARC
  8
_0-2_決定
  6
CONTINUOUS
 62
    7
 10
1313.6900409627333
 20
478.48760546740181
 40
3.6263219331718699
 50
304.4694331676211
 51
342.18186749322331
  0
ARC
  8
_0-2_決定
  6
CONTINUOUS
 62
    7
 10
1224.6000169638833
 20
496.11505333713069
 40
9.5426100578881066
 50
344.20731390938744
 51
0.3777146446770963
  0
ARC
  8
_0-2_決定
  6
CONTINUOUS
 62
    7
 10
1230.080882999624
 20
494.3853535564844
 40
3.8018078742578156
 50
322.6328869048105
 51
346.81166862408719
  0
ARC
  8
_0-2_決定
  6
CONTINUOUS
 62
    7
 10
1232.4985118999305
 20
492.53258907056278
 40
0.7559041282737706
 50
273.32998112181656
 51
323.0271990980695
  0
ARC
  8
_0-2_決定
  6
CONTINUOUS
 62
    7
 10
1232.6507490979363
 20
492.57593774496229
 40
0.8052960728412952
 50
211.26751477121132
 51
262.26906309280827
  0
ARC
  8
_0-2_決定
  6
CONTINUOUS
 62
    7
 10
1235.1410431088625
 20
494.16047069535352
 40
3.756819280592683
 50
191.71050118859745
 51
212.21062685160385
  0
ARC
  8
_0-2_決定
  6
CONTINUOUS
 62
    7
 10
1242.4775438548149
 20
496.07430647269553
 40
11.335598118638419
 50
179.4760696764981
 51
193.65652756498059
  0
ARC
  8
_0-2_決定
  6
CONTINUOUS
 62
    7
 10
1241.9847154078082
 20
496.3423740084292
 40
10.843542250105287
 50
165.16911754917547
 51
180.86876763718135
  0
ARC
  8
_0-2_決定
  6
CONTINUOUS
 62
    7
 10
1234.2362689207207
 20
498.55103661442087
 40
2.7920127660914544
 50
138.58540418927831
 51
168.28449345652504
  0
ARC
  8
_0-2_決定
  6
CONTINUOUS
 62
    7
 10
1232.5556368202458
 20
500.01414534192634
 40
0.5639707994410885
 50
91.342900282291183
 51
137.11259035372549
  0
ARC
  8
_0-2_決定
  6
CONTINUOUS
 62
    7
 10
1232.4099977093447
 20
499.70518973312437
 40
0.8827602627388195
 50
33.93255925295253
 51
81.372553748175022
  0
ARC
  8
_0-2_決定
  6
CONTINUOUS
 62
    7
 10
1230.0338818393273
 20
497.92866874588071
 40
3.8487265229289469
 50
15.511819766124397
 51
36.130164182247292
  0
ARC
  8
_0-2_決定
  6
CONTINUOUS
 62
    7
 10
1224.7696873241889
 20
496.24814363921644
 40
9.3729950978008976
 50
359.57098102819867
 51
16.804622995614963
  0
ARC
  8
_0-2_決定
  6
CONTINUOUS
 62
    7
 10
1258.8242694721112
 20
447.94112996365385
 40
12.216404119503036
 50
56.412975970976298
 51
72.280506059354551
  0
ARC
  8
_0-2_決定
  6
CONTINUOUS
 62
    7
 10
1264.9577247851603
 20
456.8781666555941
 40
1.388286450723645
 50
4.122246663251893
 51
63.25788838870438
  0
ARC
  8
_0-2_決定
  6
CONTINUOUS
 62
    7
 10
1265.5414263124624
 20
457.29059632898071
 40
0.8598428914159213
 50
289.07443019226207
 51
338.67896437959268
  0
ARC
  8
_0-2_決定
  6
CONTINUOUS
 62
    7
 10
1264.6505525246175
 20
459.78191294138128
 40
3.5056178071070159
 50
268.23239734069614
 51
289.52892096032645
  0
ARC
  8
_0-2_決定
  6
CONTINUOUS
 62
    7
 10
1264.5229424978427
 20
464.25889110552902
 40
7.9809516299291854
 50
249.61082867860947
 51
270.13982801058847
  0
ARC
  8
_0-2_決定
  6
CONTINUOUS
 62
    7
 10
1263.8358822943542
 20
465.82115832050818
 40
9.2823468478549636
 50
240.05494310621276
 51
256.96585929659221
  0
ARC
  8
_0-2_決定
  6
CONTINUOUS
 62
    7
 10
1260.7439278711656
 20
460.68508259713042
 40
3.2905304273000935
 50
215.42087352276164
 51
242.06510306860386
  0
ARC
  8
_0-2_決定
  6
CONTINUOUS
 62
    7
 10
1258.6933005789733
 20
459.21613942500045
 40
0.7681204948615144
 50
167.83808566809415
 51
214.78177928002455
  0
ARC
  8
_0-2_決定
  6
CONTINUOUS
 62
    7
 10
1258.6462657496077
 20
459.12394993666425
 40
0.7482794064158176
 50
107.40642090511646
 51
160.15582862460917
  0
ARC
  8
_0-2_決定
  6
CONTINUOUS
 62
    7
 10
1259.4912652853459
 20
456.48719828033734
 40
3.5171091523762286
 50
86.558101035552298
 51
107.69193166224035
  0
ARC
  8
_0-2_決定
  6
CONTINUOUS
 62
    7
 10
1259.2802817463141
 20
447.33160207703918
 40
12.673393609821698
 50
75.084126945132226
 51
88.091182474011305
  0
LINE
  8
_0-2_決定
  6
CONTINUOUS
 62
    7
 10
948.9424236651098
 20
1500.9779472422274
 11
948.9424236651098
 21
700.97795924222737
  0
LINE
  8
_0-2_決定
  6
CONTINUOUS
 62
    7
 10
948.9424236651098
 20
700.97795924222737
 11
1371.7424176651098
 21
457.37796324222728
  0
LINE
  8
_0-2_決定
  6
CONTINUOUS
 62
    7
 10
948.9424236651098
 20
700.97795924222737
 11
1184.74241966511
 21
844.57795724222728
  0
LINE
  8
_0-2_決定
  6
CONTINUOUS
 62
    7
 10
1183.5424196651097
 20
942.37795524222747
 11
1183.5424196651097
 21
847.97795724222715
  0
LINE
  8
_0-2_決定
  6
CONTINUOUS
 62
    7
 10
1183.5424196651097
 20
847.97795724222715
 11
1863.3424096651102
 21
457.37796324222728
  0
LINE
  8
_0-2_決定
  6
CONTINUOUS
 62
    7
 10
1976.3424076651104
 20
637.37795924222746
 11
1845.3424096651099
 21
561.77796124222732
  0
LINE
  8
_0-2_決定
  6
CONTINUOUS
 62
    7
 10
2272.9424036651103
 20
808.5779572422274
 11
2138.3424056651097
 21
730.97795924222737
  0
LINE
  8
_0-2_決定
  6
CONTINUOUS
 62
    7
 10
2018.54240766511
 20
457.37796324222728
 11
1181.9424196651098
 21
942.37795524222747
  0
LINE
  8
_0-2_決定
  6
CONTINUOUS
 62
    7
 10
1181.9424196651098
 20
942.37795524222747
 11
1317.3424176651101
 21
1021.3779532422272
  0
LINE
  8
_0-2_決定
  6
CONTINUOUS
 62
    7
 10
1986.5424076651102
 20
734.17795924222696
 11
1526.3424156651099
 21
999.77795524222699
  0
LINE
  8
_0-2_決定
  6
CONTINUOUS
 62
    7
 10
2272.5424036651102
 20
569.37796124222723
 11
2150.9424056651101
 21
639.57795924222728
  0
LINE
  8
_0-2_決定
  6
CONTINUOUS
 62
    7
 10
1844.1424096651103
 20
561.37796124222723
 11
1844.1424096651103
 21
466.17796324222724
  0
LINE
  8
_0-2_決定
  6
CONTINUOUS
 62
    7
 10
1443.3424156651099
 20
963.37795524222747
 11
1752.5424116651095
 21
1141.9779532422272
  0
ARC
  8
_0-2_決定
  6
CONTINUOUS
 62
    7
 10
1442.6446522276233
 20
1022.1920445537032
 40
18.793328387767733
 50
239.62764503763961
 51
261.23972245514796
  0
ARC
  8
_0-2_決定
  6
CONTINUOUS
 62
    7
 10
1443.7345489908078
 20
1027.1610422962774
 40
23.872501039033889
 50
260.47071419046881
 51
297.45880492449555
  0
ARC
  8
_0-2_決定
  6
CONTINUOUS
 62
    7
 10
1449.9260178425134
 20
1014.9325646374053
 40
10.167729215794459
 50
298.27438569977517
 51
326.88659586691426
  0
ARC
  8
_0-2_決定
  6
CONTINUOUS
 62
    7
 10
1453.430206795816
 20
1012.2408576477949
 40
5.7722134344835432
 50
330.26560672890145
 51
41.663371008819851
  0
ARC
  8
_0-2_決定
  6
CONTINUOUS
 62
    7
 10
1449.3443286153911
 20
1009.0502487825647
 40
10.950639071169316
 50
39.92333615039108
 51
60.465521665080693
  0
ARC
  8
_0-2_決定
  6
CONTINUOUS
 62
    7
 10
1445.3521154420396
 20
1001.531739962412
 40
19.46152937105294
 50
61.150813884050997
 51
81.875773088123495
  0
ARC
  8
_0-2_決定
  6
CONTINUOUS
 62
    7
 10
1444.1426633732926
 20
995.96592364114019
 40
25.145761716874297
 50
80.939810132096497
 51
115.94188749341781
  0
ARC
  8
_0-2_決定
  6
CONTINUOUS
 62
    7
 10
1438.3822343974912
 20
1009.3727793184418
 40
10.592021870981812
 50
119.64963079960971
 51
148.17677466203421
  0
ARC
  8
_0-2_決定
  6
CONTINUOUS
 62
    7
 10
1434.4754772536737
 20
1012.2055857413879
 40
5.7891980631218365
 50
151.61252453778039
 51
222.72195291925925
  0
ARC
  8
_0-2_決定
  6
CONTINUOUS
 62
    7
 10
1438.1275196881427
 20
1015.3104351323393
 40
10.580474612218358
 50
221.65669352801152
 51
241.89033229005429
  0
ARC
  8
_0-2_決定
  6
CONTINUOUS
 62
    7
 10
1443.9424156651098
 20
1021.5520116941227
 40
11.166565251895644
 50
241.08009603642455
 51
298.91990396357545
  0
ARC
  8
_0-2_決定
  6
CONTINUOUS
 62
    7
 10
1447.1417898059999
 20
1015.8370184625574
 40
4.6172230180512317
 50
298.4643868689484
 51
341.57853521546531
  0
ARC
  8
_0-2_決定
  6
CONTINUOUS
 62
    7
 10
1448.7457992970394
 20
1014.9887056824435
 40
2.8429939422481949
 50
347.59465131321537
 51
37.462984845662106
  0
ARC
  8
_0-2_決定
  6
CONTINUOUS
 62
    7
 10
1446.7277760402451
 20
1013.5314451756011
 40
5.3316392958579666
 50
36.702497714025803
 51
60.633078397025258
  0
ARC
  8
_0-2_決定
  6
CONTINUOUS
 62
    7
 10
1444.2932794420785
 20
1008.1677106720385
 40
11.211544626533286
 50
63.233760318483412
 51
90.873220650246608
  0
ARC
  8
_0-2_決定
  6
CONTINUOUS
 62
    7
 10
1443.887827887218
 20
1006.895286409421
 40
12.484870951851185
 50
88.923362470293995
 51
115.35028644028435
  0
ARC
  8
_0-2_決定
  6
CONTINUOUS
 62
    7
 10
1440.7430389929689
 20
1014.1188910218972
 40
4.6172209325123461
 50
118.4643651697604
 51
161.57851351627733
  0
ARC
  8
_0-2_決定
  6
CONTINUOUS
 62
    7
 10
1439.1390341841363
 20
1014.9672038020108
 40
2.8429962578110675
 50
167.59464094292849
 51
217.4629744753752
  0
ARC
  8
_0-2_決定
  6
CONTINUOUS
 62
    7
 10
1441.1570552899741
 20
1016.4244633088532
 40
5.3316392958577383
 50
216.70249771402857
 51
240.63307839702799
  0
ARC
  8
_0-2_決定
  6
CONTINUOUS
 62
    7
 10
1443.9424156651098
 20
1017.4966115160372
 40
3.4184816738097847
 50
245.82414998074796
 51
294.17585001925204
  0
ARC
  8
_0-2_決定
  6
CONTINUOUS
 62
    7
 10
1444.9139929880876
 20
1015.0779552422273
 40
0.8206984770224314
 50
301.46798261110831
 51
58.532017388891724
  0
ARC
  8
_0-2_決定
  6
CONTINUOUS
 62
    7
 10
1443.9424156651098
 20
1012.6592989684173
 40
3.4184816738097847
 50
65.82414998074799
 51
114.17585001925202
  0
ARC
  8
_0-2_決定
  6
CONTINUOUS
 62
    7
 10
1442.9708383421323
 20
1015.0779552422273
 40
0.8206984770224314
 50
121.4679826111083
 51
238.53201738889175
  0
LINE
  8
_0-2_決定
  6
CONTINUOUS
 62
    7
 10
1747.7424116651093
 20
1146.7779532422273
 11
1451.5424156651097
 21
975.57795524222729
  0
LINE
  8
_0-2_決定
  6
CONTINUOUS
 62
    7
 10
1346.1424176651099
 20
1036.5779532422275
 11
1552.1424156651101
 21
1152.9779512422274
  0
LINE
  8
_0-2_決定
  6
CONTINUOUS
 62
    7
 10
1441.3424156651099
 20
970.97795524222738
 11
1408.54241766511
 21
989.77795524222699
  0
LINE
  8
_0-2_決定
  6
CONTINUOUS
 62
    7
 10
1408.54241766511
 20
989.77795524222699
 11
1337.3424176651101
 21
1030.9779532422272
  0
LINE
  8
_0-2_決定
  6
CONTINUOUS
 62
    7
 10
1337.3424176651101
 20
1030.9779532422272
 11
1337.7424176651098
 21
1113.3779532422272
  0
LINE
  8
_0-2_決定
  6
CONTINUOUS
 62
    7
 10
1337.7424176651098
 20
1113.3779532422272
 11
1337.94241766511
 21
1151.3779512422275
  0
ARC
  8
_0-2_決定
  6
CONTINUOUS
 62
    7
 10
1334.005175794772
 20
1151.2233071443516
 40
3.9402776986594192
 50
2.2492654217591936
 51
25.472789704291404
  0
ARC
  8
_0-2_決定
  6
CONTINUOUS
 62
    7
 10
1329.8024678127672
 20
1149.1927927005875
 40
8.6077655562422262
 50
25.643301804901416
 51
56.587715054990454
  0
ARC
  8
_0-2_決定
  6
CONTINUOUS
 62
    7
 10
1332.6293950406753
 20
1153.3096586328743
 40
3.6158090516800545
 50
58.057238084461446
 51
86.304984086498976
  0
ARC
  8
_0-2_決定
  6
CONTINUOUS
 62
    7
 10
1332.8490838009661
 20
1155.2110169010357
 40
1.7069864197092846
 50
89.552438202974301
 51
181.1099333738548
  0
LINE
  8
_0-2_決定
  6
CONTINUOUS
 62
    7
 10
1331.1424176651099
 20
1155.1779512422272
 11
1331.1424176651099
 21
1141.3779532422272
  0
LINE
  8
_0-2_決定
  6
CONTINUOUS
 62
    7
 10
1331.1424176651099
 20
1141.3779532422272
 11
1333.54241766511
 21
1139.9779532422272
  0
LINE
  8
_0-2_決定
  6
CONTINUOUS
 62
    7
 10
1333.54241766511
 20
1139.9779532422272
 11
1333.7424176651098
 21
1153.7779512422271
  0
ARC
  8
_0-2_決定
  6
CONTINUOUS
 62
    7
 10
1334.2670422263107
 20
1153.7287021198256
 40
0.5269311209945064
 50
58.493025991819366
 51
174.6370763623448
  0
ARC
  8
_0-2_決定
  6
CONTINUOUS
 62
    7
 10
1333.4306159588164
 20
1152.3266643091606
 40
2.159482887790694
 50
12.062535485563043
 51
59.012820098376906
  0
LINE
  8
_0-2_決定
  6
CONTINUOUS
 62
    7
 10
1335.54241766511
 20
1152.7779512422271
 11
1335.1424176651099
 21
1114.7779532422273
  0
LINE
  8
_0-2_決定
  6
CONTINUOUS
 62
    7
 10
1335.1424176651099
 20
1114.7779532422273
 11
1334.94241766511
 21
1029.5779532422275
  0
LINE
  8
_0-2_決定
  6
CONTINUOUS
 62
    7
 10
1334.94241766511
 20
1029.5779532422275
 11
1408.54241766511
 21
986.97795524222727
  0
LINE
  8
_0-2_決定
  6
CONTINUOUS
 62
    7
 10
1408.54241766511
 20
986.97795524222727
 11
1441.3424156651099
 21
968.17795524222697
  0
ARC
  8
_0-2_決定
  6
CONTINUOUS
 62
    7
 10
1439.6859299484017
 20
966.34971238387266
 40
2.4670664520401435
 50
5.3083612552130717
 51
47.82174109895918
  0
ARC
  8
_0-2_決定
  6
CONTINUOUS
 62
    7
 10
1441.5012297811995
 20
966.59953642077448
 40
0.6415489731840777
 50
255.66754176601609
 51
358.07225352566542
  0
LINE
  8
_0-2_決定
  6
CONTINUOUS
 62
    7
 10
1441.3424156651099
 20
965.97795524222738
 11
1429.3424156651099
 21
972.97795524222738
  0
LINE
  8
_0-2_決定
  6
CONTINUOUS
 62
    7
 10
1429.3424156651099
 20
972.97795524222738
 11
1429.3424156651099
 21
970.1779552422272
  0
LINE
  8
_0-2_決定
  6
CONTINUOUS
 62
    7
 10
1429.3424156651099
 20
970.1779552422272
 11
1441.3424156651099
 21
963.17795524222697
  0
ARC
  8
_0-2_決定
  6
CONTINUOUS
 62
    7
 10
1442.2167119035862
 20
964.78488340750255
 40
1.8293747677744774
 50
241.45030648713092
 51
342.60425085121182
  0
ARC
  8
_0-2_決定
  6
CONTINUOUS
 62
    7
 10
1439.7254573426508
 20
965.48918844972241
 40
4.4178501973011404
 50
343.54739041176771
 51
1.151307677490679
  0
ARC
  8
_0-2_決定
  6
CONTINUOUS
 62
    7
 10
1437.1473346337416
 20
965.3768021148511
 40
6.9979726504226258
 50
1.6471646163238769
 51
53.167986259313714
  0
LINE
  8
_0-2_決定
  6
CONTINUOUS
 62
    7
 10
1332.3424176651101
 20
1156.7779512422271
 11
1550.1424156651103
 21
1280.5779512422271
  0
ARC
  8
_0-2_決定
  6
CONTINUOUS
 62
    7
 10
1382.9377649799312
 20
1126.1572491729546
 40
18.99662943516261
 50
157.85535939028568
 51
179.33431895223663
  0
ARC
  8
_0-2_決定
  6
CONTINUOUS
 62
    7
 10
1388.6583716370233
 20
1124.2603345128541
 40
25.013479699295459
 50
123.25337563767124
 51
158.77019546612831
  0
ARC
  8
_0-2_決定
  6
CONTINUOUS
 62
    7
 10
1380.2142877607339
 20
1136.3186380610427
 40
10.30922304466748
 50
92.512172502330372
 51
120.75540411207203
  0
ARC
  8
_0-2_決定
  6
CONTINUOUS
 62
    7
 10
1379.6914632802941
 20
1140.8958088728032
 40
5.722584268427906
 50
17.724064263745301
 51
89.28957080051913
  0
ARC
  8
_0-2_決定
  6
CONTINUOUS
 62
    7
 10
1374.845461886659
 20
1139.0607580435048
 40
10.900624926724971
 50
358.51335680962575
 51
19.15738961726931
  0
ARC
  8
_0-2_決定
  6
CONTINUOUS
 62
    7
 10
1366.9304343431656
 20
1139.0043499066151
 40
18.813345581122679
 50
338.06963955319566
 51
359.31049549876991
  0
ARC
  8
_0-2_決定
  6
CONTINUOUS
 62
    7
 10
1361.6811701000588
 20
1140.6860232868967
 40
24.314134262042231
 50
302.49238023843986
 51
339.01346916043985
  0
ARC
  8
_0-2_決定
  6
CONTINUOUS
 62
    7
 10
1369.4809496242851
 20
1129.0342394378345
 40
10.301303370113981
 50
271.78829339837142
 51
300.71430016655768
  0
ARC
  8
_0-2_決定
  6
CONTINUOUS
 62
    7
 10
1369.9539757869879
 20
1124.4500177537157
 40
5.7140748024253156
 50
197.43492191509216
 51
268.48012853873848
  0
ARC
  8
_0-2_決定
  6
CONTINUOUS
 62
    7
 10
1374.4853787547095
 20
1126.1368703329349
 40
10.545717116723727
 50
178.69006189986251
 51
198.80226262524755
  0
ARC
  8
_0-2_決定
  6
CONTINUOUS
 62
    7
 10
1382.143001672031
 20
1127.9299952321428
 40
10.403539342925272
 50
150.34161977012499
 51
178.63428277474776
  0
ARC
  8
_0-2_決定
  6
CONTINUOUS
 62
    7
 10
1383.9445755834504
 20
1127.4076159110948
 40
12.235404111637333
 50
123.77552552211289
 51
152.39089449771026
  0
ARC
  8
_0-2_決定
  6
CONTINUOUS
 62
    7
 10
1379.4523089617403
 20
1133.6501815520742
 40
4.5566422124430597
 50
77.450141254663066
 51
120.45944700304106
  0
ARC
  8
_0-2_決定
  6
CONTINUOUS
 62
    7
 10
1379.5385399181237
 20
1135.412589966242
 40
2.8334027079660693
 50
19.920021702035935
 51
71.397064653074167
  0
ARC
  8
_0-2_決定
  6
CONTINUOUS
 62
    7
 10
1377.3625884208648
 20
1134.526282270705
 40
5.1819525760303753
 50
358.3597325212674
 51
20.936358110939882
  0
ARC
  8
_0-2_決定
  6
CONTINUOUS
 62
    7
 10
1371.0628537913367
 20
1134.7215324888627
 40
11.484704324916473
 50
301.96234506592612
 51
358.28566955069505
  0
ARC
  8
_0-2_決定
  6
CONTINUOUS
 62
    7
 10
1374.7713735929526
 20
1128.5387659757605
 40
4.2779945436390774
 50
259.09990923780657
 51
303.65851859194049
  0
ARC
  8
_0-2_決定
  6
CONTINUOUS
 62
    7
 10
1374.8033577341407
 20
1127.0557195821405
 40
2.8448961453919432
 50
201.82740746610006
 51
252.80671730565524
  0
ARC
  8
_0-2_決定
  6
CONTINUOUS
 62
    7
 10
1376.8751583553012
 20
1128.0363711733653
 40
5.1346930263618438
 50
178.41994774578799
 51
203.39009634468582
  0
ARC
  8
_0-2_決定
  6
CONTINUOUS
 62
    7
 10
1378.7962722176007
 20
1130.3215380866075
 40
2.8544121069943733
 50
120.61960433124298
 51
178.86752134169512
  0
ARC
  8
_0-2_決定
  6
CONTINUOUS
 62
    7
 10
1377.7444759778955
 20
1132.0810407114054
 40
0.8045731554657462
 50
352.63863323480456
 51
119.98123171321704
  0
ARC
  8
_0-2_決定
  6
CONTINUOUS
 62
    7
 10
1375.553889567251
 20
1132.1807867501502
 40
2.9954034158405332
 50
306.66183102811465
 51
356.11724963996113
  0
ARC
  8
_0-2_決定
  6
CONTINUOUS
 62
    7
 10
1376.6861047605635
 20
1130.7739472610683
 40
1.1927911444346389
 50
252.24759623781176
 51
303.38299085570111
  0
ARC
  8
_0-2_決定
  6
CONTINUOUS
 62
    7
 10
1376.651474137989
 20
1130.2744957553275
 40
0.7165643957993459
 50
171.69862849193234
 51
242.6635936790546
  0
LINE
  8
_0-2_決定
  6
CONTINUOUS
 62
    7
 10
1552.1424156651101
 20
1274.3779512422275
 11
1346.9424176651103
 21
1157.7779512422271
  0
LINE
  8
_0-2_決定
  6
CONTINUOUS
 62
    7
 10
1647.5424136651095
 20
1204.1779512422272
 11
1556.3424136651099
 21
1150.7779512422271
  0
LINE
  8
_0-2_決定
  6
CONTINUOUS
 62
    7
 10
1758.3424116651099
 20
1152.9779512422274
 11
2273.7424036651096
 21
1450.5779472422273
  0
LINE
  8
_0-2_決定
  6
CONTINUOUS
 62
    7
 10
1664.9424136651101
 20
1214.7779512422271
 11
2162.3424056651093
 21
1501.7779472422271
  0
LINE
  8
_0-2_決定
  6
CONTINUOUS
 62
    7
 10
1570.3424136651097
 20
1287.7779492422274
 11
1940.5424096651097
 21
1500.9779472422274
  0
LINE
  8
_0-2_決定
  6
CONTINUOUS
 62
    7
 10
1993.1424076651097
 20
1504.3779472422273
 11
1646.3424136651099
 21
1303.9779492422269
  0
LINE
  8
_0-2_決定
  6
CONTINUOUS
 62
    7
 10
1646.3424136651099
 20
1303.9779492422269
 11
1646.3424136651099
 21
1302.7779492422274
  0
ARC
  8
_0-2_決定
  6
CONTINUOUS
 62
    7
 10
1676.2295352317046
 20
1309.7960729216861
 40
30.700066702152395
 50
193.21483143256489
 51
208.86019061827582
  0
ARC
  8
_0-2_決定
  6
CONTINUOUS
 62
    7
 10
1628.5507372389486
 20
1277.5869572479457
 40
27.106095461267401
 50
24.570351371419299
 51
39.910462753086257
  0
ARC
  8
_0-2_決定
  6
CONTINUOUS
 62
    7
 10
1646.7380984007987
 20
1285.8667044544468
 40
7.1228447418735419
 50
7.3501474688239981
 51
24.831485228852809
  0
ARC
  8
_0-2_決定
  6
CONTINUOUS
 62
    7
 10
1650.3962258988809
 20
1286.3420612297118
 40
3.433964685063045
 50
329.08775933384277
 51
7.2924747520872737
  0
LINE
  8
_0-2_決定
  6
CONTINUOUS
 62
    7
 10
1653.3424136651097
 20
1284.5779492422275
 11
1653.3424136651097
 21
1284.3779492422273
  0
LINE
  8
_0-2_決定
  6
CONTINUOUS
 62
    7
 10
1653.3424136651097
 20
1284.3779492422273
 11
2032.3424076651104
 21
1503.1779472422272
  0
LINE
  8
_0-2_決定
  6
CONTINUOUS
 62
    7
 10
1650.7424136651105
 20
1283.9779512422274
 11
1650.7424136651105
 21
1289.1779492422274
  0
LINE
  8
_0-2_決定
  6
CONTINUOUS
 62
    7
 10
1650.7424136651105
 20
1289.1779492422274
 11
1646.1424136651101
 21
1291.9779492422272
  0
LINE
  8
_0-2_決定
  6
CONTINUOUS
 62
    7
 10
1646.1424136651101
 20
1291.9779492422272
 11
1646.1424136651101
 21
1303.9779492422269
  0
ARC
  8
_0-2_決定
  6
CONTINUOUS
 62
    7
 10
1675.9099172418075
 20
1309.493061625052
 40
30.274093442808585
 50
190.49633723616333
 51
208.64991442465339
  0
ARC
  8
_0-2_決定
  6
CONTINUOUS
 62
    7
 10
1628.2250066891902
 20
1277.0674927311313
 40
27.689877750226021
 50
25.476290496015398
 51
40.302513968679577
  0
ARC
  8
_0-2_決定
  6
CONTINUOUS
 62
    7
 10
1646.5143160383427
 20
1285.7644626009005
 40
7.4380824252103661
 50
8.9213488348182644
 51
25.596559751002484
  0
ARC
  8
_0-2_決定
  6
CONTINUOUS
 62
    7
 10
1650.4216746196762
 20
1286.3806991494716
 40
3.4824305938439886
 50
316.37282794517807
 51
8.8747196373999504
  0
ARC
  8
_0-2_決定
  6
CONTINUOUS
 62
    7
 10
1651.5101584958825
 20
1284.9942233556283
 40
1.7561787717244461
 50
282.23775603881717
 51
324.64198237276281
  0
ARC
  8
_0-2_決定
  6
CONTINUOUS
 62
    7
 10
1651.7844610058387
 20
1284.3967140542704
 40
1.1230427209459883
 50
201.89348964306976
 51
275.00374046025365
  0
LINE
  8
_0-2_決定
  6
CONTINUOUS
 62
    7
 10
2271.5424036651098
 20
842.97795724222715
 11
1764.1424116651103
 21
1135.7779532422273
  0
ARC
  8
_0-2_決定
  6
CONTINUOUS
 62
    7
 10
1768.9548902846536
 20
1144.9114754910524
 40
10.323816112918012
 50
227.51648647840315
 51
242.21512740776524
  0
ARC
  8
_0-2_決定
  6
CONTINUOUS
 62
    7
 10
1775.5429710076573
 20
1152.1538858070094
 40
20.114360592673343
 50
206.50302016964017
 51
227.61003620918609
  0
ARC
  8
_0-2_決定
  6
CONTINUOUS
 62
    7
 10
1742.3797313983061
 20
1133.5835838062251
 40
17.943210352325568
 50
32.324078042161453
 51
42.81310601549233
  0
ARC
  8
_0-2_決定
  6
CONTINUOUS
 62
    7
 10
1732.1356422509496
 20
1124.4729285297553
 40
31.650923089330615
 50
42.308707328859192
 51
59.620285559799086
  0
LINE
  8
_0-2_決定
  6
CONTINUOUS
 62
    7
 10
1748.1424116651101
 20
1151.7779512422271
 11
1652.5424136651095
 21
1207.1779512422272
  0
ARC
  8
_0-2_決定
  6
CONTINUOUS
 62
    7
 10
1654.1232241357461
 20
1210.0518248893177
 40
3.2799560185336358
 50
186.19368336078753
 51
241.18645169115712
  0
ARC
  8
_0-2_決定
  6
CONTINUOUS
 62
    7
 10
1666.9030809185347
 20
1211.6853547818791
 40
16.163315834459983
 50
178.96274636898565
 51
187.06282863936644
  0
LINE
  8
_0-2_決定
  6
CONTINUOUS
 62
    7
 10
1650.7424136651105
 20
1211.9779512422274
 11
1650.7424136651105
 21
1288.9779492422269
  0
LINE
  8
_0-2_決定
  6
CONTINUOUS
 62
    7
 10
1650.7424136651105
 20
1288.9779492422269
 11
1646.3424136651099
 21
1291.9779492422272
  0
LINE
  8
_0-2_決定
  6
CONTINUOUS
 62
    7
 10
1646.3424136651099
 20
1291.9779492422272
 11
1646.1424136651101
 21
1213.3779512422275
  0
ARC
  8
_0-2_決定
  6
CONTINUOUS
 62
    7
 10
1662.5572697368068
 20
1211.7847074817387
 40
16.491995802050671
 50
174.45617507247894
 51
192.2767462543805
  0
ARC
  8
_0-2_決定
  6
CONTINUOUS
 62
    7
 10
1654.3657606524353
 20
1210.2970652588888
 40
8.1765670604376002
 50
194.29645683759398
 51
228.4495534426251
  0
LINE
  8
_0-2_決定
  6
CONTINUOUS
 62
    7
 10
1648.9424136651098
 20
1204.1779512422272
 11
1747.7424116651093
 21
1146.7779532422273
  0
ARC
  8
_0-2_決定
  6
CONTINUOUS
 62
    7
 10
1740.1646248145566
 20
1134.4410173991082
 40
14.47835762611367
 50
22.484187692626975
 51
58.440267291561959
  0
ARC
  8
_0-2_決定
  6
CONTINUOUS
 62
    7
 10
1763.9948732251389
 20
1144.2490273838857
 40
11.291413861312133
 50
202.22585656216984
 51
230.16883180772567
  0
ARC
  8
_0-2_決定
  6
CONTINUOUS
 62
    7
 10
1772.9569573523831
 20
1154.2400096280173
 40
24.709019781520965
 50
229.0492327695541
 51
237.33929389969052
  0
ARC
  8
_0-2_決定
  6
CONTINUOUS
 62
    7
 10
1817.1746298319163
 20
1223.9783300477898
 40
107.2838182020616
 50
237.55781739818093
 51
239.88257121026561
  0
LINE
  8
_0-2_決定
  6
CONTINUOUS
 62
    7
 10
1763.3424116651099
 20
1131.1779532422274
 11
2272.1424036651106
 21
837.37795724222701
  0
LINE
  8
_0-2_決定
  6
CONTINUOUS
 62
    7
 10
1546.1424156651101
 20
1504.3779472422273
 11
1546.1424156651101
 21
1294.5779492422275
  0
ARC
  8
_0-2_決定
  6
CONTINUOUS
 62
    7
 10
1576.7953802344828
 20
1293.1888377243183
 40
30.684423861307842
 50
177.40528162420199
 51
188.68023665281061
  0
ARC
  8
_0-2_決定
  6
CONTINUOUS
 62
    7
 10
1557.3827351912728
 20
1290.3692523090238
 40
11.069516581734053
 50
189.41764749494135
 51
221.89108216492647
  0
ARC
  8
_0-2_決定
  6
CONTINUOUS
 62
    7
 10
1535.4625161391755
 20
1273.3826374541106
 40
16.709569046869138
 50
3.4148729831493045
 51
35.046471768173532
  0
LINE
  8
_0-2_決定
  6
CONTINUOUS
 62
    7
 10
1552.1424156651101
 20
1274.3779512422275
 11
1552.1424156651101
 21
1191.5779512422273
  0
LINE
  8
_0-2_決定
  6
CONTINUOUS
 62
    7
 10
1552.1424156651101
 20
1191.5779512422273
 11
1552.3424156651099
 21
1191.5779512422273
  0
ARC
  8
_0-2_決定
  6
CONTINUOUS
 62
    7
 10
5744.5304208804819
 20
1128.4475511873218
 40
4192.6633204304298
 50
179.13724477730261
 51
179.65657283393611
  0
LINE
  8
_0-2_決定
  6
CONTINUOUS
 62
    7
 10
1551.9424156651098
 20
1153.5779512422273
 11
1556.3424136651099
 21
1150.5779512422273
  0
ARC
  8
_0-2_決定
  6
CONTINUOUS
 62
    7
 10
2255.3782010064697
 20
1167.6685083771506
 40
699.2446775822732
 50
178.04048955119893
 51
181.4005316677121
  0
LINE
  8
_0-2_決定
  6
CONTINUOUS
 62
    7
 10
1556.5424136651097
 20
1191.5779512422273
 11
1556.5424136651097
 21
1272.3779512422275
  0
ARC
  8
_0-2_決定
  6
CONTINUOUS
 62
    7
 10
1540.0072065337672
 20
1273.0052323620896
 40
16.54710115034441
 50
357.82746390332994
 51
8.7342976418686256
  0
ARC
  8
_0-2_決定
  6
CONTINUOUS
 62
    7
 10
1527.9621493924676
 20
1271.6520514276392
 40
28.662173541662344
 50
7.7515716799718017
 51
25.91380327333432
  0
ARC
  8
_0-2_決定
  6
CONTINUOUS
 62
    7
 10
1567.5344885008565
 20
1293.7655702520601
 40
16.797135665123108
 50
178.59321551492314
 51
214.80525823487631
  0
LINE
  8
_0-2_決定
  6
CONTINUOUS
 62
    7
 10
1550.74241566511
 20
1294.1779492422274
 11
1550.54241566511
 21
1504.5779472422271
  0
LINE
  8
_0-2_決定
  6
CONTINUOUS
 62
    7
 10
2272.3424036651104
 20
1452.5779472422273
 11
1753.1424116651101
 21
1152.7779512422271
  0
ARC
  8
_0-2_決定
  6
CONTINUOUS
 62
    7
 10
1730.7663717913379
 20
1130.4528187524579
 40
31.608522602589236
 50
26.949487926948649
 51
44.934749429729862
  0
ARC
  8
_0-2_決定
  6
CONTINUOUS
 62
    7
 10
1796.2911772187222
 20
1158.1204720540393
 40
39.660472723130788
 50
199.65882247404488
 51
206.05870128567344
  0
ARC
  8
_0-2_決定
  6
CONTINUOUS
 62
    7
 10
1873.2619971468262
 20
1192.2889789324336
 40
123.85596708444014
 50
204.61636623931636
 51
206.62762564989362
  0
LINE
  8
_0-2_決定
  6
CONTINUOUS
 62
    7
 10
1762.5424116651095
 20
1136.7779532422273
 11
2272.3424036651104
 21
1431.1779472422272
  0
LINE
  8
_0-2_決定
  6
CONTINUOUS
 62
    7
 10
2272.3424036651104
 20
1431.1779472422272
 11
2272.3424036651104
 21
1452.5779472422273
  0
LINE
  8
_0-2_決定
  6
CONTINUOUS
 62
    7
 10
1896.54240966511
 20
456.97796324222736
 11
1962.1424076651097
 21
485.77796124222715
  0
LINE
  8
_0-2_決定
  6
CONTINUOUS
 62
    7
 10
1823.54240966511
 20
482.97796124222714
 11
1905.1424096651101
 21
519.77796124222721
  0
LINE
  8
_0-2_決定
  6
CONTINUOUS
 62
    7
 10
1765.3424116651099
 20
514.37796124222723
 11
1847.9424096651098
 21
553.97796124222714
  0
LINE
  8
_0-2_決定
  6
CONTINUOUS
 62
    7
 10
1708.5424116651097
 20
547.97796124222714
 11
1790.3424116651099
 21
588.377961242227
  0
LINE
  8
_0-2_決定
  6
CONTINUOUS
 62
    7
 10
1651.5424136651097
 20
581.77796124222732
 11
1732.5424116651095
 21
622.97795924222726
  0
LINE
  8
_0-2_決定
  6
CONTINUOUS
 62
    7
 10
1592.1424136651099
 20
613.97795924222714
 11
1674.1424136651096
 21
657.7779592422271
  0
LINE
  8
_0-2_決定
  6
CONTINUOUS
 62
    7
 10
1534.5424156651097
 20
648.17795924222708
 11
1615.5424136651095
 21
692.7779592422271
  0
LINE
  8
_0-2_決定
  6
CONTINUOUS
 62
    7
 10
1474.3424156651099
 20
680.57795924222717
 11
1557.7424136651102
 21
722.7779592422271
  0
LINE
  8
_0-2_決定
  6
CONTINUOUS
 62
    7
 10
1415.94241766511
 20
715.37795924222735
 11
1498.3424156651099
 21
757.17795724222719
  0
LINE
  8
_0-2_決定
  6
CONTINUOUS
 62
    7
 10
1357.3424176651101
 20
750.17795724222742
 11
1438.1424156651101
 21
793.5779572422274
  0
LINE
  8
_0-2_決定
  6
CONTINUOUS
 62
    7
 10
1293.7424176651098
 20
787.17795724222719
 11
1375.94241766511
 21
829.7779572422271
  0
LINE
  8
_0-2_決定
  6
CONTINUOUS
 62
    7
 10
1232.74241966511
 20
822.57795724222751
 11
1315.54241766511
 21
864.17795724222742
  0
LINE
  8
_0-2_決定
  6
CONTINUOUS
 62
    7
 10
1258.3424196651099
 20
896.1779552422272
 11
1185.3424196651099
 21
855.77795724222733
  0
LINE
  8
_0-2_決定
  6
CONTINUOUS
 62
    7
 10
1187.1424196651101
 20
935.97795524222738
 11
1223.74241966511
 21
827.77795724222733
  0
LINE
  8
_0-2_決定
  6
CONTINUOUS
 62
    7
 10
1245.9424196651098
 20
902.57795524222729
 11
1283.3424196651099
 21
792.57795724222751
  0
LINE
  8
_0-2_決定
  6
CONTINUOUS
 62
    7
 10
1299.1424176651099
 20
873.97795724222703
 11
1348.3424176651101
 21
755.37795724222724
  0
LINE
  8
_0-2_決定
  6
CONTINUOUS
 62
    7
 10
1359.5424176651102
 20
839.7779572422271
 11
1407.1424176651101
 21
720.57795924222717
  0
LINE
  8
_0-2_決定
  6
CONTINUOUS
 62
    7
 10
1421.9424156651098
 20
803.17795724222742
 11
1465.54241566511
 21
685.77795924222698
  0
LINE
  8
_0-2_決定
  6
CONTINUOUS
 62
    7
 10
1482.1424156651101
 20
766.77795724222733
 11
1525.74241566511
 21
653.37795924222746
  0
LINE
  8
_0-2_決定
  6
CONTINUOUS
 62
    7
 10
1541.5424156651097
 20
732.57795924222728
 11
1583.5424136651095
 21
619.17795924222696
  0
LINE
  8
_0-2_決定
  6
CONTINUOUS
 62
    7
 10
1599.5424136651095
 20
702.37795924222746
 11
1642.9424136651101
 21
586.97796124222714
  0
LINE
  8
_0-2_決定
  6
CONTINUOUS
 62
    7
 10
1658.3424136651097
 20
667.17795924222719
 11
1699.9424116651103
 21
553.17796124222718
  0
LINE
  8
_0-2_決定
  6
CONTINUOUS
 62
    7
 10
1716.5424116651097
 20
632.37795924222746
 11
1756.7424116651096
 21
519.37796124222723
  0
LINE
  8
_0-2_決定
  6
CONTINUOUS
 62
    7
 10
1774.7424116651098
 20
597.77796124222732
 11
1815.1424116651101
 21
487.97796124222714
  0
LINE
  8
_0-2_決定
  6
CONTINUOUS
 62
    7
 10
1832.3424096651104
 20
563.17796124222718
 11
1870.3424096651099
 21
457.37796324222728
  0
LINE
  8
_0-2_決定
  6
CONTINUOUS
 62
    7
 10
1892.74240966511
 20
527.97796124222714
 11
1917.5424096651102
 21
456.97796324222736
  0
LINE
  8
_0-2_決定
  6
CONTINUOUS
 62
    7
 10
1964.3424076651104
 20
487.37796124222712
 11
1971.1424076651099
 21
457.17796324222718
  0
LINE
  8
_0-0_文字
  6
CONTINUOUS
 62
    7
 10
1876.9424096651096
 20
1113.5779532422273
 11
1944.1424096651103
 21
1230.5779512422273
  0
LINE
  8
_0-0_文字
  6
CONTINUOUS
 62
    7
 10
1944.1424096651103
 20
1230.5779512422273
 11
1962.74240766511
 21
1230.5779512422273
  0
LINE
  8
_0-0_文字
  6
CONTINUOUS
 62
    7
 10
1679.5424136651093
 20
808.57795724222774
 11
1746.5424116651097
 21
925.37795524222724
  0
LINE
  8
_0-0_文字
  6
CONTINUOUS
 62
    7
 10
1746.5424116651097
 20
925.37795524222724
 11
1765.3424116651099
 21
925.37795524222724
  0
LINE
  8
_0-0_文字
  6
CONTINUOUS
 62
    7
 10
1995.1424076651097
 20
706.57795924222705
 11
2061.5424076651102
 21
822.17795724222719
  0
LINE
  8
_0-0_文字
  6
CONTINUOUS
 62
    7
 10
2061.5424076651102
 20
822.17795724222719
 11
2080.3424076651108
 21
822.17795724222719
  0
LINE
  8
_0-0_文字
  6
CONTINUOUS
 62
    7
 10
1471.9424156651098
 20
1107.3779532422272
 11
1616.5424136651097
 21
1357.9779492422269
  0
LINE
  8
_0-0_文字
  6
CONTINUOUS
 62
    7
 10
1616.5424136651097
 20
1357.9779492422269
 11
1635.9424136651103
 21
1357.9779492422269
  0
ARC
  8
_0-1_レイヤ___3
  6
CONTINUOUS
 62
    7
 10
2045.923990080538
 20
615.66951935760471
 40
131.0658154789954
 50
104.22262425620103
 51
119.82281572057931
  0
ARC
  8
_0-1_レイヤ___3
  6
CONTINUOUS
 62
    7
 10
2062.0714651760823
 20
559.34593296906883
 40
189.63895006491447
 50
70.727996038389946
 51
104.77081215824394
  0
ARC
  8
_0-1_レイヤ___3
  6
CONTINUOUS
 62
    7
 10
2079.6142628733314
 20
616.45288206789951
 40
129.96223686081819
 50
60.33185525215324
 51
69.718984843654525
  0
ARC
  8
_0-1_レイヤ___3
  6
CONTINUOUS
 62
    7
 10
2097.9530264221198
 20
648.68028949376139
 40
92.882382107631472
 50
46.556639055819709
 51
60.321303921995465
  0
ARC
  8
_0-1_レイヤ___3
  6
CONTINUOUS
 62
    7
 10
2120.5675630373898
 20
673.50273669650755
 40
59.312892636079951
 50
24.540948181736667
 51
45.929261152814355
  0
ARC
  8
_0-1_レイヤ___3
  6
CONTINUOUS
 62
    7
 10
2136.3716929558359
 20
682.23712684542784
 40
41.331747496768898
 50
327.8418303914238
 51
22.625881791846826
  0
ARC
  8
_0-1_レイヤ___3
  6
CONTINUOUS
 62
    7
 10
2120.8557903206406
 20
691.19620685213226
 40
59.239609119493551
 50
311.77599250044233
 51
328.49360563266379
  0
ARC
  8
_0-1_レイヤ___3
  6
CONTINUOUS
 62
    7
 10
2101.2404518352323
 20
711.50422644943978
 40
87.459453043543945
 50
299.22553074164807
 51
312.4957384424207
  0
LINE
  8
_0-1_レイヤ___3
  6
CONTINUOUS
 62
    7
 10
2143.9424056651105
 20
635.17795924222719
 11
2143.5424056651095
 21
634.97795924222737
  0
ARC
  8
_0-1_レイヤ___3
  6
CONTINUOUS
 62
    7
 10
2078.3022430900664
 20
748.78284368550817
 40
131.1786207274896
 50
284.245544588516
 51
299.82406424034519
  0
ARC
  8
_0-1_レイヤ___3
  6
CONTINUOUS
 62
    7
 10
2062.2464368873843
 20
804.76886232071115
 40
189.40246445076252
 50
250.71160607146822
 51
284.78558028178958
  0
ARC
  8
_0-1_レイヤ___3
  6
CONTINUOUS
 62
    7
 10
2045.0780264173845
 20
749.08139651048054
 40
131.18801291150785
 50
240.43195777535553
 51
249.75502295806993
  0
ARC
  8
_0-1_レイヤ___3
  6
CONTINUOUS
 62
    7
 10
2026.2881829627258
 20
715.23200149694753
 40
92.475540365662866
 50
226.42323670133177
 51
240.20868197847921
  0
ARC
  8
_0-1_レイヤ___3
  6
CONTINUOUS
 62
    7
 10
2003.8612878289637
 20
690.77827709076109
 40
59.303697192073805
 50
204.4654720441371
 51
225.83447346980702
  0
ARC
  8
_0-1_レイヤ___3
  6
CONTINUOUS
 62
    7
 10
1988.2031348690343
 20
682.10461645477608
 40
41.483296126799623
 50
147.9502392055181
 51
202.51747297775421
  0
ARC
  8
_0-1_レイヤ___3
  6
CONTINUOUS
 62
    7
 10
2003.5757181625941
 20
673.31680582348577
 40
59.180455554403594
 50
131.9399134119754
 51
148.63678151705466
  0
ARC
  8
_0-1_レイヤ___3
  6
CONTINUOUS
 62
    7
 10
2023.0213841264485
 20
653.18261330902658
 40
87.159552748360653
 50
119.31856090195535
 51
132.60247349133098
  0
ARC
  8
_0-1_レイヤ___3
  6
CONTINUOUS
 62
    7
 10
2026.2881829627281
 20
649.72391698750698
 40
92.475540365664287
 50
119.79131802152197
 51
133.57676329866939
  0
ARC
  8
_0-1_レイヤ___3
  6
CONTINUOUS
 62
    7
 10
2003.8612878289637
 20
674.17764139369319
 40
59.303697192073805
 50
134.16552653019298
 51
155.5345279558629
  0
ARC
  8
_0-1_レイヤ___3
  6
CONTINUOUS
 62
    7
 10
1988.2031348690339
 20
682.85130202967844
 40
41.483296126799011
 50
157.48252702224585
 51
212.04976079448195
  0
ARC
  8
_0-1_レイヤ___3
  6
CONTINUOUS
 62
    7
 10
2003.5757181625945
 20
691.63911266096898
 40
59.180455554404347
 50
211.36321848294472
 51
228.06008658802401
  0
ARC
  8
_0-1_レイヤ___3
  6
CONTINUOUS
 62
    7
 10
2023.0213841264508
 20
711.77330517542805
 40
87.159552748362103
 50
227.39752650866774
 51
240.68143909804337
  0
ARC
  8
_0-1_レイヤ___3
  6
CONTINUOUS
 62
    7
 10
2046.037448957281
 20
749.99518134930804
 40
131.76271201003075
 50
240.09350659967572
 51
255.65970741259628
  0
ARC
  8
_0-1_レイヤ___3
  6
CONTINUOUS
 62
    7
 10
2061.7297039940104
 20
804.3009281720631
 40
188.27121296741493
 50
255.1262643184152
 51
289.3988134691291
  0
ARC
  8
_0-1_レイヤ___3
  6
CONTINUOUS
 62
    7
 10
2078.9463829034539
 20
748.19631673060962
 40
129.65544052221676
 50
290.45741808909838
 51
299.8818416432689
  0
ARC
  8
_0-1_レイヤ___3
  6
CONTINUOUS
 62
    7
 10
2045.9239900805403
 20
616.4695193576049
 40
131.0658154789962
 50
104.22262425620187
 51
119.82281572058015
  0
ARC
  8
_0-1_レイヤ___3
  6
CONTINUOUS
 62
    7
 10
2062.0714651760809
 20
560.14593296906867
 40
189.63895006491455
 50
70.727996038389364
 51
104.77081215824336
  0
ARC
  8
_0-1_レイヤ___3
  6
CONTINUOUS
 62
    7
 10
2079.6142628733351
 20
617.25288206789912
 40
129.96223686081672
 50
60.331855252154625
 51
69.718984843655917
  0
ARC
  8
_0-1_レイヤ___3
  6
CONTINUOUS
 62
    7
 10
2097.9530264221221
 20
649.48028949376157
 40
92.882382107630093
 50
46.556639055820881
 51
60.32130392199663
  0
ARC
  8
_0-1_レイヤ___3
  6
CONTINUOUS
 62
    7
 10
2120.5675630373898
 20
674.30273669650796
 40
59.312892636079951
 50
24.540948181736667
 51
45.929261152814355
  0
ARC
  8
_0-1_レイヤ___3
  6
CONTINUOUS
 62
    7
 10
2136.3716929558359
 20
683.03712684542825
 40
41.331747496768898
 50
327.8418303914238
 51
22.625881791846826
  0
ARC
  8
_0-1_レイヤ___3
  6
CONTINUOUS
 62
    7
 10
2120.8557903206392
 20
691.99620685213267
 40
59.239609119494297
 50
311.77599250044295
 51
328.49360563266441
  0
ARC
  8
_0-1_レイヤ___3
  6
CONTINUOUS
 62
    7
 10
2101.2404518352323
 20
712.30422644944019
 40
87.459453043543945
 50
299.22553074164807
 51
312.4957384424207
  0
ARC
  8
_0-1_レイヤ___3
  6
CONTINUOUS
 62
    7
 10
2125.8019671643242
 20
679.8953307843675
 40
47.049106247254322
 50
12.349535474148846
 51
37.870774027049137
  0
ARC
  8
_0-1_レイヤ___3
  6
CONTINUOUS
 62
    7
 10
2133.9415973354903
 20
682.86508235437452
 40
38.480156512832075
 50
327.40859106433362
 51
10.621814366717468
  0
ARC
  8
_0-1_レイヤ___3
  6
CONTINUOUS
 62
    7
 10
2118.446804698508
 20
691.28241586542777
 40
56.083011401423889
 50
311.43711062052358
 51
328.69012308553829
  0
ARC
  8
_0-1_レイヤ___3
  6
CONTINUOUS
 62
    7
 10
2099.513188954862
 20
711.10314203354983
 40
83.479431811890748
 50
299.12373692917697
 51
312.17625264103401
  0
LINE
  8
_0-1_レイヤ___3
  6
CONTINUOUS
 62
    7
 10
2140.1424056651099
 20
638.17795924222708
 11
2139.9424056651101
 21
637.97795924222726
  0
ARC
  8
_0-1_レイヤ___3
  6
CONTINUOUS
 62
    7
 10
2077.3784605348665
 20
747.43876933150295
 40
126.07900767241398
 50
283.68298695162974
 51
299.7507646101451
  0
ARC
  8
_0-1_レイヤ___3
  6
CONTINUOUS
 62
    7
 10
2062.1889745936437
 20
801.16715649684329
 40
181.88715991468982
 50
252.41673249634448
 51
284.32844046432621
  0
ARC
  8
_0-1_レイヤ___3
  6
CONTINUOUS
 62
    7
 10
2047.6871738147281
 20
750.63081199283511
 40
129.33909902987523
 50
240.57369991760464
 51
251.7777789166052
  0
ARC
  8
_0-1_レイヤ___3
  6
CONTINUOUS
 62
    7
 10
2027.3454394335238
 20
714.06285819312052
 40
87.495221597240814
 50
226.6124744069476
 51
240.41093586989984
  0
ARC
  8
_0-1_レイヤ___3
  6
CONTINUOUS
 62
    7
 10
2006.4085355118054
 20
690.96112635927147
 40
56.328255701115239
 50
204.08063987828888
 51
225.94732684397999
  0
ARC
  8
_0-1_レイヤ___3
  6
CONTINUOUS
 62
    7
 10
1991.7919802056826
 20
682.94048083219514
 40
39.734387320200547
 50
146.48858562028528
 51
202.12098223029076
  0
ARC
  8
_0-1_レイヤ___3
  6
CONTINUOUS
 62
    7
 10
2002.9126055510199
 20
676.7427316119597
 40
52.43730586852449
 50
143.16718331437232
 51
147.55092166179045
  0
ARC
  8
_0-1_レイヤ___3
  6
CONTINUOUS
 62
    7
 10
2069.5216957471857
 20
718.3675811443934
 40
59.661976105482346
 50
282.84204591972457
 51
299.76709417450559
  0
ARC
  8
_0-1_レイヤ___3
  6
CONTINUOUS
 62
    7
 10
2062.8704614937806
 20
743.08808018232162
 40
85.248212590021154
 50
251.51530857411433
 51
283.50770439110659
  0
ARC
  8
_0-1_レイヤ___3
  6
CONTINUOUS
 62
    7
 10
2055.3075799763451
 20
717.09493219687351
 40
58.208078604716292
 50
240.61061080900834
 51
250.46353540670179
  0
ARC
  8
_0-1_レイヤ___3
  6
CONTINUOUS
 62
    7
 10
2045.2376231986489
 20
698.621048027911
 40
37.17108785162943
 50
218.38888830369589
 51
240.16064241184679
  0
ARC
  8
_0-1_レイヤ___3
  6
CONTINUOUS
 62
    7
 10
2032.5242324777655
 20
687.70002225565463
 40
20.435070514195381
 50
172.97873300642286
 51
216.52378234665804
  0
ARC
  8
_0-1_レイヤ___3
  6
CONTINUOUS
 62
    7
 10
2031.7910758212179
 20
686.77305316467277
 40
19.846420541692154
 50
142.70651258365547
 51
170.06269475560174
  0
ARC
  8
_0-1_レイヤ___3
  6
CONTINUOUS
 62
    7
 10
2039.7657128744645
 20
681.30791630264321
 40
29.505868509525538
 50
128.19166931754668
 51
143.64654024988482
  0
ARC
  8
_0-1_レイヤ___3
  6
CONTINUOUS
 62
    7
 10
2047.5256570707897
 20
672.03105386755874
 40
41.596501346407429
 50
119.65862441655487
 51
128.69178007253799
  0
ARC
  8
_0-1_レイヤ___3
  6
CONTINUOUS
 62
    7
 10
2056.5631185830325
 20
656.38833061883724
 40
59.661982436320507
 50
102.84204354876702
 51
119.76709180354804
  0
ARC
  8
_0-1_レイヤ___3
  6
CONTINUOUS
 62
    7
 10
2063.214352836439
 20
631.66784179041827
 40
85.248208964650459
 50
71.515308468219004
 51
103.50770428521119
  0
ARC
  8
_0-1_レイヤ___3
  6
CONTINUOUS
 62
    7
 10
2070.7772333538769
 20
657.66098628758436
 40
58.20807860471259
 50
60.610610809008499
 51
70.463535406701951
  0
ARC
  8
_0-1_レイヤ___3
  6
CONTINUOUS
 62
    7
 10
2080.6906264965155
 20
675.88903282986792
 40
37.462237060561399
 50
38.515900759428398
 51
60.140017126619895
  0
ARC
  8
_0-1_レイヤ___3
  6
CONTINUOUS
 62
    7
 10
2093.1844279393508
 20
686.65689432351564
 40
20.991063019204251
 50
2.0231808724398883
 51
36.755435460247092
  0
ARC
  8
_0-1_レイヤ___3
  6
CONTINUOUS
 62
    7
 10
2095.3359761298766
 20
687.56132621258848
 40
18.827138333058503
 50
321.95277942489633
 51
359.50282644056608
  0
ARC
  8
_0-1_レイヤ___3
  6
CONTINUOUS
 62
    7
 10
2086.5547641393696
 20
693.36068451461392
 40
29.328750149197234
 50
308.02742400681439
 51
323.60366239897888
  0
ARC
  8
_0-1_レイヤ___3
  6
CONTINUOUS
 62
    7
 10
2078.6682847446955
 20
702.98681322154016
 40
41.770734678129273
 50
299.35074848242868
 51
308.41456682987604
  0
ARC
  8
_0-1_レイヤ___3
  6
CONTINUOUS
 62
    7
 10
2042.9858951376586
 20
689.95019624549536
 40
27.866922692884234
 50
213.47892566790972
 51
231.24755747981123
  0
ARC
  8
_0-1_レイヤ___3
  6
CONTINUOUS
 62
    7
 10
2053.1211814002445
 20
701.63113189590399
 40
43.324691199339718
 50
230.46420274350285
 51
238.27998267365825
  0
ARC
  8
_0-1_レイヤ___3
  6
CONTINUOUS
 62
    7
 10
2048.5512455256594
 20
695.33988638118763
 40
35.575176270524615
 50
239.21345656803345
 51
254.02849696452327
  0
ARC
  8
_0-1_レイヤ___3
  6
CONTINUOUS
 62
    7
 10
2058.6366381102571
 20
726.64741798752834
 40
68.457828046828396
 50
253.12327532591189
 51
263.29392811437009
  0
ARC
  8
_0-1_レイヤ___3
  6
CONTINUOUS
 62
    7
 10
2062.1475718598522
 20
750.39405516196234
 40
92.45474621533964
 50
262.85152265848166
 51
283.87740968383474
  0
ARC
  8
_0-1_レイヤ___3
  6
CONTINUOUS
 62
    7
 10
2070.296575927815
 20
713.50400989582022
 40
54.695002218037942
 50
284.85876109068738
 51
297.01742318387369
  0
ARC
  8
_0-1_レイヤ___3
  6
CONTINUOUS
 62
    7
 10
2092.8432756385969
 20
683.44073657733475
 40
15.891128210157611
 50
351.08447212714384
 51
35.363698913896734
  0
ARC
  8
_0-1_レイヤ___3
  6
CONTINUOUS
 62
    7
 10
2085.3076241649255
 20
678.7920109434956
 40
24.733506686910019
 50
34.042334479609337
 51
51.683843812873768
  0
ARC
  8
_0-1_レイヤ___3
  6
CONTINUOUS
 62
    7
 10
2076.9308365580791
 20
668.8074239720404
 40
37.762972247766477
 50
51.104254659493307
 51
60.81991986515964
  0
ARC
  8
_0-1_レイヤ___3
  6
CONTINUOUS
 62
    7
 10
2068.7169916772236
 20
655.49181163809294
 40
53.397753979526208
 50
60.090978513693933
 51
78.719331893952798
  0
ARC
  8
_0-1_レイヤ___3
  6
CONTINUOUS
 62
    7
 10
2063.1632574751166
 20
633.57305850972125
 40
75.988283857712403
 50
77.845555541099017
 51
111.57380589163841
  0
ARC
  8
_0-1_レイヤ___3
  6
CONTINUOUS
 62
    7
 10
2054.637225487033
 20
659.65368648981098
 40
48.628104301117183
 50
113.53136135822045
 51
119.97383477585417
  0
ARC
  8
_0-1_レイヤ___3
  6
CONTINUOUS
 62
    7
 10
2047.1582825780324
 20
672.18645409855412
 40
34.035728664964012
 50
119.6081387157186
 51
141.87809246784934
  0
ARC
  8
_0-1_レイヤ___3
  6
CONTINUOUS
 62
    7
 10
2034.2387790220153
 20
683.11884665787886
 40
17.134396332185883
 50
143.96788970674103
 51
183.81784282548955
  0
ARC
  8
_0-1_レイヤ___3
  6
CONTINUOUS
 62
    7
 10
2079.720006451983
 20
693.46618984793531
 40
32.570922197189276
 50
298.26186494866272
 51
319.64995072685872
  0
ARC
  8
_0-1_レイヤ___3
  6
CONTINUOUS
 62
    7
 10
2050.6404638802051
 20
675.15829178411309
 40
24.626727273201379
 50
120.49742774418722
 51
139.11371444034631
  0
ARC
  8
_0-1_レイヤ___3
  6
CONTINUOUS
 62
    7
 10
2042.9210702402547
 20
682.09538781431979
 40
14.251332006359586
 50
139.88448413179691
 51
173.46246894612565
  0
ARC
  8
_0-1_レイヤ___3
  6
CONTINUOUS
 62
    7
 10
2040.5525899602378
 20
682.94272585087492
 40
11.815641555304147
 50
176.23807720474301
 51
214.21988303392004
  0
ARC
  8
_0-1_レイヤ___3
  6
CONTINUOUS
 62
    7
 10
2046.0164144818218
 20
686.17836202420676
 40
18.157569298388211
 50
212.96645173339385
 51
232.57799973652891
  0
ARC
  8
_0-1_レイヤ___3
  6
CONTINUOUS
 62
    7
 10
2052.1188341281022
 20
693.53807613645336
 40
27.713365076217485
 50
231.80460683780663
 51
240.66682353130767
  0
ARC
  8
_0-1_レイヤ___3
  6
CONTINUOUS
 62
    7
 10
2058.7043585813212
 20
704.62171917503588
 40
40.603286553543221
 50
240.22735651801804
 51
261.95572971866693
  0
ARC
  8
_0-1_レイヤ___3
  6
CONTINUOUS
 62
    7
 10
2061.9971204642652
 20
719.42600332524853
 40
55.735360263184191
 50
260.73368076541345
 51
288.65204424576615
  0
ARC
  8
_0-1_レイヤ___3
  6
CONTINUOUS
 62
    7
 10
2067.2391151199622
 20
701.33719542602398
 40
36.929183750294506
 50
289.9220353659872
 51
300.06935737866939
  0
ARC
  8
_0-1_レイヤ___3
  6
CONTINUOUS
 62
    7
 10
2073.8224903250871
 20
691.16434058412074
 40
24.834066146472953
 50
298.68425955676423
 51
317.53525876380525
  0
ARC
  8
_0-1_レイヤ___3
  6
CONTINUOUS
 62
    7
 10
2081.5476725961457
 20
683.83375839402584
 40
14.187412534908448
 50
318.31134861157227
 51
351.58669575554046
  0
ARC
  8
_0-1_レイヤ___3
  6
CONTINUOUS
 62
    7
 10
2084.0466204991417
 20
682.8998885413472
 40
11.59216726585489
 50
354.34669888211585
 51
30.813719940749237
  0
ARC
  8
_0-1_レイヤ___3
  6
CONTINUOUS
 62
    7
 10
2078.944733474098
 20
680.26394328717117
 40
17.327643850492414
 50
29.657696041728158
 51
50.001392399010612
  0
ARC
  8
_0-1_レイヤ___3
  6
CONTINUOUS
 62
    7
 10
2072.4076483747231
 20
672.92288688342524
 40
27.154709603174329
 50
49.391183473519959
 51
60.589317933651174
  0
ARC
  8
_0-1_レイヤ___3
  6
CONTINUOUS
 62
    7
 10
2080.9063145609753
 20
686.38087498824007
 40
10.776565096324944
 50
335.88534523778537
 51
30.176977463299302
  0
ARC
  8
_0-1_レイヤ___3
  6
CONTINUOUS
 62
    7
 10
2076.2707341997225
 20
683.74705987445111
 40
16.107951989876238
 50
29.987364311817938
 51
51.298656483475412
  0
ARC
  8
_0-1_レイヤ___3
  6
CONTINUOUS
 62
    7
 10
2070.0286569124778
 20
676.61432985796091
 40
25.580685575870458
 50
50.376717348646537
 51
59.159982986647059
  0
ARC
  8
_0-1_レイヤ___3
  6
CONTINUOUS
 62
    7
 10
2065.0632149613493
 20
666.10306401212199
 40
37.16821261543258
 50
60.894749756204448
 51
83.047325254779892
  0
ARC
  8
_0-1_レイヤ___3
  6
CONTINUOUS
 62
    7
 10
2062.4261207970803
 20
653.72743581224427
 40
49.784646923798547
 50
81.758655019226836
 51
110.83058186952249
  0
ARC
  8
_0-1_レイヤ___3
  6
CONTINUOUS
 62
    7
 10
2056.4959748708061
 20
672.33054426887088
 40
30.307711755279286
 50
112.85918903096066
 51
119.99936985274212
  0
ARC
  8
_0-1_レイヤ___3
  6
CONTINUOUS
 62
    7
 10
2052.219368405385
 20
679.42093703574665
 40
22.029520529622371
 50
119.58701364112702
 51
139.6025561479
  0
ARC
  8
_0-1_レイヤ___3
  6
CONTINUOUS
 62
    7
 10
2044.6043961375181
 20
686.23974475709724
 40
11.813847640575963
 50
140.85307215379854
 51
194.01878008615043
  0
ARC
  8
_0-1_レイヤ___3
  6
CONTINUOUS
 62
    7
 10
2062.1511268794752
 20
709.82485579791364
 40
41.103348656427023
 50
234.94415358176869
 51
239.58539387402789
  0
ARC
  8
_0-1_レイヤ___3
  6
CONTINUOUS
 62
    7
 10
2058.0698263161485
 20
703.81671376160534
 40
33.859220345118729
 50
240.39429339919522
 51
256.32044062091848
  0
ARC
  8
_0-1_レイヤ___3
  6
CONTINUOUS
 62
    7
 10
2062.0752279086064
 20
718.55223338985547
 40
49.125674792047064
 50
255.84579698020229
 51
291.02762731504009
  0
ARC
  8
_0-1_レイヤ___3
  6
CONTINUOUS
 62
    7
 10
2067.6280236464218
 20
701.78360270905819
 40
31.492307081418339
 50
292.54490610384022
 51
299.51427827919684
  0
ARC
  8
_0-1_レイヤ___3
  6
CONTINUOUS
 62
    7
 10
2083.8800907048962
 20
674.04027620244028
 40
0.8112990216610004
 50
114.59649239989538
 51
155.40350760002318
  0
ARC
  8
_0-1_レイヤ___3
  6
CONTINUOUS
 62
    7
 10
2060.5286848560863
 20
697.94878250055581
 40
20.831204019374937
 50
240.72569689042496
 51
260.58884607286325
  0
ARC
  8
_0-1_レイヤ___3
  6
CONTINUOUS
 62
    7
 10
2062.1749801165247
 20
705.35787012305468
 40
28.412763062408985
 50
259.75675293103131
 51
295.80293295502059
  0
ARC
  8
_0-1_レイヤ___3
  6
CONTINUOUS
 62
    7
 10
2068.5512395845494
 20
690.08971511650066
 40
11.925871212626266
 50
300.15674528330987
 51
326.9056532879253
  0
ARC
  8
_0-1_レイヤ___3
  6
CONTINUOUS
 62
    7
 10
2072.8971616136814
 20
686.88317033461294
 40
6.5416529521524449
 50
329.65163517681282
 51
36.105103822664752
  0
ARC
  8
_0-1_レイヤ___3
  6
CONTINUOUS
 62
    7
 10
2068.9310837757171
 20
684.00918795908433
 40
11.439552294005422
 50
36.029543407117025
 51
60.625265076321291
  0
ARC
  8
_0-1_レイヤ___3
  6
CONTINUOUS
 62
    7
 10
2063.9980811064765
 20
674.66741438012093
 40
22.001817321451639
 50
61.363701932009789
 51
80.993450532736645
  0
ARC
  8
_0-1_レイヤ___3
  6
CONTINUOUS
 62
    7
 10
2062.6485882877819
 20
668.64635236301979
 40
28.162606211082842
 50
80.199429596885594
 51
115.91063886058343
  0
ARC
  8
_0-1_レイヤ___3
  6
CONTINUOUS
 62
    7
 10
2056.3335757456707
 20
683.66620336795245
 40
11.925871212626735
 50
120.15674528330365
 51
146.90565328791908
  0
ARC
  8
_0-1_レイヤ___3
  6
CONTINUOUS
 62
    7
 10
2051.9876318194133
 20
686.87274704886818
 40
6.5416346118883064
 50
149.65152995263776
 51
216.10520904683042
  0
ARC
  8
_0-1_レイヤ___3
  6
CONTINUOUS
 62
    7
 10
2055.9537315545031
 20
689.74673052537241
 40
11.439552294007413
 50
216.02954340712591
 51
240.62526507633018
  0
ARC
  8
_0-1_レイヤ___3
  6
CONTINUOUS
 62
    7
 10
2061.7393154072556
 20
695.43003820545073
 40
10.538820936597235
 50
239.1963309605066
 51
267.95045107810404
  0
ARC
  8
_0-1_レイヤ___3
  6
CONTINUOUS
 62
    7
 10
2062.2237330211424
 20
698.03535722526499
 40
13.165603181536047
 50
266.2488935031767
 51
297.69384985978058
  0
ARC
  8
_0-1_レイヤ___3
  6
CONTINUOUS
 62
    7
 10
2065.8764162589969
 20
691.03037494694058
 40
5.2655565237198987
 50
297.92561914107563
 51
338.70355250021822
  0
ARC
  8
_0-1_レイヤ___3
  6
CONTINUOUS
 62
    7
 10
2067.942839032085
 20
689.88532857588689
 40
2.941429196139091
 50
344.87752802220263
 51
34.655830769332773
  0
ARC
  8
_0-1_レイヤ___3
  6
CONTINUOUS
 62
    7
 10
2065.6879722484509
 20
688.40083861494634
 40
5.6407231025570219
 50
34.035150198609394
 51
61.927772241349381
  0
ARC
  8
_0-1_レイヤ___3
  6
CONTINUOUS
 62
    7
 10
2062.3424076651099
 20
682.37741799385788
 40
12.53043924836938
 50
61.39072543230013
 51
118.60927456769988
  0
ARC
  8
_0-1_レイヤ___3
  6
CONTINUOUS
 62
    7
 10
2058.808399071223
 20
688.72554353751298
 40
5.2655565237204405
 50
117.92561914106899
 51
158.70355250021157
  0
ARC
  8
_0-1_レイヤ___3
  6
CONTINUOUS
 62
    7
 10
2056.7419762981349
 20
689.87058990856724
 40
2.9414291961394232
 50
164.87752802220149
 51
214.65583076933163
  0
ARC
  8
_0-1_レイヤ___3
  6
CONTINUOUS
 62
    7
 10
2058.9968430817685
 20
691.35507986950893
 40
5.6407231025575033
 50
214.03515019862186
 51
241.92777224136182
  0
ARC
  8
_0-1_レイヤ___3
  6
CONTINUOUS
 62
    7
 10
2062.4424076651098
 20
691.39986892449338
 40
2.6808361822665256
 50
235.97691289121886
 51
304.02308710878117
  0
ARC
  8
_0-1_レイヤ___3
  6
CONTINUOUS
 62
    7
 10
2063.5502365325174
 20
689.97795924222714
 40
0.890953532592468
 50
296.11473662589816
 51
63.885263374101875
  0
ARC
  8
_0-1_レイヤ___3
  6
CONTINUOUS
 62
    7
 10
2062.4424076651098
 20
688.32349826113841
 40
2.8765219810887905
 50
58.569557004861807
 51
121.43044299513824
  0
ARC
  8
_0-1_レイヤ___3
  6
CONTINUOUS
 62
    7
 10
2061.3345787977023
 20
689.97795924222714
 40
0.890953532592468
 50
116.11473662589815
 51
243.8852633741019
  0
TEXT
  8
_0-0_文字
 62
    7
 10
1635.9424136651103
 20
1334.9779492422272
 40
45.999999999999943
 41
1.0000000000000011
 50
0
  1
FL鋼板
  0
TEXT
  8
_0-0_文字
 62
    7
 10
1962.74240766511
 20
1207.5779512422273
 40
45.999999999999943
 41
1.0000000000000011
 50
0
  1
リベットルーフ
  0
TEXT
  8
_0-0_文字
 62
    7
 10
2080.3424076651108
 20
799.17795724222731
 40
45.999999999999943
 41
1.0000000000000011
 50
0
  1
IHディスク
  0
TEXT
  8
_0-0_文字
 62
    7
 10
1765.3424116651099
 20
902.37795524222736
 40
45.999999999999943
 41
1.0000000000000011
 50
0
  1
断熱材
  0
ENDSEC
  0
EOF
