  0
SECTION
  2
HEADER
  9
$ACADVER
  1
AC1009
  9
$INSBASE
 10
0
 20
0
 30
0
  9
$EXTMIN
 10
0
 20
0
  9
$EXTMAX
 10
2970
 20
2100
  9
$LIMMIN
 10
0
 20
0
  9
$LIMMAX
 10
2970
 20
2100
  9
$LTSCALE
 40
10
  0
ENDSEC
  0
SECTION
  2
TABLES
  0
TABLE
  2
LTYPE
 70
     9
  0
LTYPE
  2
CONTINUOUS
 70
    64
  3
実線
 72
    65
 73
     0
 40
0.0
  0
LTYPE
  2
DASHED1
 70
    64
  3
--  --  --  --  --  --  --  --  
 72
    65
 73
     2
 40
2.5
 49
1.25
 49
-1.25
  0
LTYPE
  2
DASHED2
 70
    64
  3
----    ----    ----    ----    
 72
    65
 73
     2
 40
5.0
 49
2.5
 49
-2.5
  0
LTYPE
  2
DASHED3
 70
    64
  3
------  ------  ------  ------  
 72
    65
 73
     2
 40
5.0
 49
3.75
 49
-1.25
  0
LTYPE
  2
CENTER1
 70
    64
  3
----- - ----- - ----- - ----- - 
 72
    65
 73
     4
 40
10.0
 49
6.25
 49
-1.25
 49
1.25
 49
-1.25
  0
LTYPE
  2
CENTER2
 70
    64
  3
----------  --  ----------  --  
 72
    65
 73
     4
 40
20.0
 49
12.5
 49
-2.5
 49
2.5
 49
-2.5
  0
LTYPE
  2
PHANTOM1
 70
    64
  3
--- - - --- - - --- - - --- - - 
 72
    65
 73
     6
 40
10.0
 49
3.25
 49
-1.25
 49
1.25
 49
-1.25
 49
1.25
 49
-1.25
  0
LTYPE
  2
PHANTOM2
 70
    64
  3
--------  -  -  --------  -  -  
 72
    65
 73
     6
 40
20.0
 49
10.0
 49
-2.5
 49
1.25
 49
-2.5
 49
1.25
 49
-2.5
  0
LTYPE
  2
DOT
 70
    64
  3
-   -   -   -   -   -   -   -   
 72
    65
 73
     2
 40
2.5
 49
0.625
 49
-1.875
  0
LTYPE
  2
DUMMY
 70
    64
  3
ダミー
 72
    65
 73
     0
 40
0.0
  0
LTYPE
  2
RAND1
 70
    64
  3
ランダム線1
 72
    65
 73
     4
 40
10.0
 49
1.0
 49
-2.0
 49
3.0
 49
-4.0
  0
LTYPE
  2
RAND2
 70
    64
  3
ランダム線2
 72
    65
 73
     4
 40
14.0
 49
2.0
 49
-3.0
 49
4.0
 49
-5.0
  0
LTYPE
  2
RAND3
 70
    64
  3
ランダム線3
 72
    65
 73
     4
 40
18.0
 49
3.0
 49
-4.0
 49
5.0
 49
-6.0
  0
LTYPE
  2
RAND4
 70
    64
  3
ランダム線4
 72
    65
 73
     4
 40
22.0
 49
4.0
 49
-5.0
 49
6.0
 49
-7.0
  0
LTYPE
  2
RAND5
 70
    64
  3
ランダム線5
 72
    65
 73
     4
 40
26.0
 49
5.0
 49
-6.0
 49
7.0
 49
-8.0
  0
LTYPE
  2
LONG1
 70
    64
  3
----------  --  ----------  --  
 72
    65
 73
     4
 40
40.0
 49
32.5
 49
-2.5
 49
2.5
 49
-2.5
  0
LTYPE
  2
LONG2
 70
    64
  3
--------  -  -  --------  -  -  
 72
    65
 73
     6
 40
40.0
 49
30.0
 49
-2.5
 49
1.25
 49
-2.5
 49
1.25
 49
-2.5
  0
LTYPE
  2
LONG3
 70
    64
  3
+++++++++++++++..+++++++++++++++
 72
    65
 73
     2
 40
40.0
 49
37.5
 49
-2.5
  0
LTYPE
  2
LONG4
 70
    64
  3
+++++++++++++++..+++++++++++++++
 72
    65
 73
     2
 40
80.0
 49
75.0
 49
-5.0
  0
LTYPE
  2
LONG5
 70
    64
  3
----------  --  ----------  --  
 72
    65
 73
     4
 40
60.0
 49
37.5
 49
-7.5
 49
7.5
 49
-7.5
  0
LTYPE
  2
dashed
 70
   64
  3
-------   -------------   ------
 72
   65
 73
    2
 40
7.5
 49
6
 49
-1.5
  0
LTYPE
  2
dashed_spaced
 70
   64
  3
----        --------        ----
 72
   65
 73
    2
 40
12
 49
6
 49
-6
  0
LTYPE
  2
long_dashed_dotted
 70
   64
  3
------------- --- --------------
 72
   65
 73
    4
 40
15.25
 49
12
 49
-1.5
 49
0.25
 49
-1.5
  0
LTYPE
  2
long_dashed_double-dotted
 70
   64
  3
----------- --- --- ------------
 72
   65
 73
    6
 40
17
 49
12
 49
-1.5
 49
0.25
 49
-1.5
 49
0.25
 49
-1.5
  0
LTYPE
  2
long_dashed_triplicate-dotted
 70
   64
  3
--------- --- --- --- ----------
 72
   65
 73
    8
 40
18.75
 49
12
 49
-1.5
 49
0.25
 49
-1.5
 49
0.25
 49
-1.5
 49
0.25
 49
-1.5
  0
LTYPE
  2
dotted
 70
   64
  3
   -       -       -       -    
 72
   65
 73
    2
 40
1.75
 49
0.25
 49
-1.5
  0
LTYPE
  2
chain
 70
   64
  3
-------------- -- --------------
 72
   65
 73
    4
 40
18.5
 49
12
 49
-1.5
 49
3.5
 49
-1.5
  0
LTYPE
  2
chain_double_dash
 70
   64
  3
------------ -- -- -------------
 72
   65
 73
    6
 40
23.5
 49
12
 49
-1.5
 49
3.5
 49
-1.5
 49
3.5
 49
-1.5
  0
LTYPE
  2
dashed_dotted
 70
   64
  3
-----------     -     ----------
 72
   65
 73
    4
 40
9.25
 49
6
 49
-1.5
 49
0.25
 49
-1.5
  0
LTYPE
  2
double-dashed_dotted
 70
   64
  3
------   -----------   -   -----
 72
   65
 73
    6
 40
16.75
 49
6
 49
-1.5
 49
6
 49
-1.5
 49
0.25
 49
-1.5
  0
LTYPE
  2
dashed_double-dotted
 70
   64
  3
---------    -    -    ---------
 72
   65
 73
    6
 40
11
 49
6
 49
-1.5
 49
0.25
 49
-1.5
 49
0.25
 49
-1.5
  0
LTYPE
  2
double-dashed_double-dotted
 70
   64
  3
-----   ---------   -   -   ----
 72
   65
 73
    8
 40
18.5
 49
6
 49
-1.5
 49
6
 49
-1.5
 49
0.25
 49
-1.5
 49
0.25
 49
-1.5
  0
LTYPE
  2
dashed_triplicate-dotted
 70
   64
  3
-------    -    -    -    ------
 72
   65
 73
    8
 40
12.75
 49
6
 49
-1.5
 49
0.25
 49
-1.5
 49
0.25
 49
-1.5
 49
0.25
 49
-1.5
  0
LTYPE
  2
double-dashed_triplicate-dotted
 70
   64
  3
-----  ---------  -  -  -  -----
 72
   65
 73
   10
 40
20.25
 49
6
 49
-1.5
 49
6
 49
-1.5
 49
0.25
 49
-1.5
 49
0.25
 49
-1.5
 49
0.25
 49
-1.5
  0
LTYPE
  2
undefined
 70
   64
  3
--------------------------------
 72
   65
 73
    0
 40
0
  0
LTYPE
  2
AIGENLINE001
 70
   64
  3
----        --------        ----
 72
   65
 73
    2
 40
4.5800000000000001
 49
2.29
 49
-2.29
  0
LTYPE
  2
AIGENLINE002
 70
   64
  3
------     -----------     -----
 72
   65
 73
    2
 40
6.8700000000000001
 49
4.5800000000000001
 49
-2.29
  0
ENDTAB
  0
TABLE
  2
STYLE
  5
3
100
AcDbSymbolTable
 70
     1
  0
STYLE
  5
10
100
AcDbSymbolTableRecord
100
AcDbTextStyleTableRecord
  2
STANDARD
 70
     0
 40
0.0
 41
1.0
 50
0.0
 71
     0
 42
0.2
  3
txt
  4
bigfont.shx
  0
STYLE
  5
26
100
AcDbSymbolTableRecord
100
AcDbTextStyleTableRecord
  2
TATEGAKI
 70
    68
 40
0.0
 41
1.0
 50
0.0
 71
     0
 42
1.0
  3
txt
  4
bigfont.shx
  0
ENDTAB
  0
TABLE
  2
LAYER
 70
    4
  0
LAYER
  2
_0-0_文字
 70
   64
 62
    7
  6
CONTINUOUS
  0
LAYER
  2
_0-1_レイヤ___3
 70
   64
 62
    7
  6
CONTINUOUS
  0
LAYER
  2
_0-2_決定
 70
   64
 62
    7
  6
CONTINUOUS
  0
LAYER
  2
ADD_LINE
 70
   64
 62
    7
  6
CONTINUOUS
  0
ENDTAB
  0
ENDSEC
  0
SECTION
  2
BLOCKS
  0
ENDSEC
  0
SECTION
  2
ENTITIES
  0
ARC
  8
_0-1_レイヤ___3
  6
CONTINUOUS
 62
    7
 10
-7457.1225270732621
 20
10245.265671888299
 40
100.75331131322194
 50
212.54457606520913
 51
215.40440375223901
  0
ARC
  8
_0-1_レイヤ___3
  6
CONTINUOUS
 62
    7
 10
-7368.9514147695209
 20
10307.718363524889
 40
208.80176608438552
 50
215.35576722286694
 51
221.36723647424384
  0
ARC
  8
_0-1_レイヤ___3
  6
CONTINUOUS
 62
    7
 10
-7295.4624294196119
 20
10370.285434729602
 40
305.30820552446175
 50
221.06477429997616
 51
231.22765018658944
  0
ARC
  8
_0-1_レイヤ___3
  6
CONTINUOUS
 62
    7
 10
-7258.362933726452
 20
10413.75814627555
 40
362.43800051855288
 50
230.95883511048854
 51
251.35346403312775
  0
ARC
  8
_0-1_レイヤ___3
  6
CONTINUOUS
 62
    7
 10
-7236.372632740311
 20
10469.15351598549
 40
421.96811857702386
 50
250.92920805381576
 51
264.01576111916944
  0
ARC
  8
_0-1_レイヤ___3
  6
CONTINUOUS
 62
    7
 10
-7225.624236278828
 20
10543.900922169672
 40
497.43720610569824
 50
263.68207230856342
 51
270.12317171358148
  0
ARC
  8
_0-1_レイヤ___3
  6
CONTINUOUS
 62
    7
 10
-6992.0793464044109
 20
10245.524901377814
 40
100.97057184263099
 50
324.50269853745323
 51
327.35954730735853
  0
ARC
  8
_0-1_レイヤ___3
  6
CONTINUOUS
 62
    7
 10
-7080.3419905560786
 20
10307.947173220191
 40
209.07582118488784
 50
318.61534655888227
 51
324.62063211809948
  0
ARC
  8
_0-1_レイヤ___3
  6
CONTINUOUS
 62
    7
 10
-7153.8774882642865
 20
10370.555279866292
 40
305.64394410371006
 50
308.76992808749981
 51
318.92296844706647
  0
ARC
  8
_0-1_レイヤ___3
  6
CONTINUOUS
 62
    7
 10
-7190.9073149430596
 20
10414.013847156648
 40
362.71881065871321
 50
288.65165821912348
 51
309.03173518611686
  0
ARC
  8
_0-1_レイヤ___3
  6
CONTINUOUS
 62
    7
 10
-7212.7783179116759
 20
10469.116770693032
 40
421.93378546990601
 50
275.98762352174964
 51
289.07257752973072
  0
ARC
  8
_0-1_レイヤ___3
  6
CONTINUOUS
 62
    7
 10
-7223.4878580387031
 20
10543.581941679005
 40
497.11822129585721
 50
269.87702048518202
 51
276.31995190691799
  0
ARC
  8
_0-1_レイヤ___3
  6
CONTINUOUS
 62
    7
 10
-5185.0304285955899
 20
10245.524901377814
 40
100.97057184263099
 50
212.64045269264147
 51
215.49730146254677
  0
ARC
  8
_0-1_レイヤ___3
  6
CONTINUOUS
 62
    7
 10
-5096.767783943922
 20
10307.947182752343
 40
209.07582711155425
 50
215.37936993240487
 51
221.38465549162211
  0
ARC
  8
_0-1_レイヤ___3
  6
CONTINUOUS
 62
    7
 10
-5023.232286235715
 20
10370.555274237853
 40
305.6439400285019
 50
221.07703081915608
 51
231.23007117872271
  0
ARC
  8
_0-1_レイヤ___3
  6
CONTINUOUS
 62
    7
 10
-4986.2024600569393
 20
10414.01384715665
 40
362.71881065871611
 50
230.96826481388334
 51
251.34834178087678
  0
ARC
  8
_0-1_レイヤ___3
  6
CONTINUOUS
 62
    7
 10
-4964.331457088324
 20
10469.116770693026
 40
421.93378546990107
 50
250.92742247026916
 51
264.01237647825019
  0
ARC
  8
_0-1_レイヤ___3
  6
CONTINUOUS
 62
    7
 10
-4953.6219169612968
 20
10543.581941679005
 40
497.11822129585721
 50
263.68004809308201
 51
270.12297951481798
  0
ARC
  8
_0-1_レイヤ___3
  6
CONTINUOUS
 62
    7
 10
-4719.9458454184714
 20
10245.502223718258
 40
100.93010227782503
 50
324.50212566871829
 51
327.36012017609352
  0
ARC
  8
_0-1_レイヤ___3
  6
CONTINUOUS
 62
    7
 10
-4808.1795151263923
 20
10307.897670728831
 40
208.99619450303933
 50
318.61419937969004
 51
324.6217751962829
  0
ARC
  8
_0-1_レイヤ___3
  6
CONTINUOUS
 62
    7
 10
-4881.720450069015
 20
10370.546924357084
 40
305.59543296261558
 50
308.76110452106741
 51
318.91711841601511
  0
ARC
  8
_0-1_レイヤ___3
  6
CONTINUOUS
 62
    7
 10
-4918.8186128357247
 20
10414.07234736759
 40
362.76505117262622
 50
288.64440299195792
 51
309.02607158712721
  0
ARC
  8
_0-1_レイヤ___3
  6
CONTINUOUS
 62
    7
 10
-4940.7607794280339
 20
10469.392114969156
 40
422.20788163462777
 50
275.98405340598731
 51
289.06580929539717
  0
ARC
  8
_0-1_レイヤ___3
  6
CONTINUOUS
 62
    7
 10
-4951.4884073483645
 20
10543.953934779165
 40
497.49021243480115
 50
269.87717178965931
 51
276.31758418819595
  0
ARC
  8
_0-1_レイヤ___3
  6
CONTINUOUS
 62
    7
 10
-5820.122552073216
 20
10136.864055111702
 40
100.75331131325974
 50
144.59559624777546
 51
147.45542393480537
  0
ARC
  8
_0-1_レイヤ___3
  6
CONTINUOUS
 62
    7
 10
-5731.9514397695193
 20
10074.411363475112
 40
208.80176608438552
 50
138.63276352575616
 51
144.64423277713306
  0
ARC
  8
_0-1_レイヤ___3
  6
CONTINUOUS
 62
    7
 10
-5658.4624539196111
 20
10011.84428664744
 40
305.30820959523527
 50
128.77234907943739
 51
138.93522496605067
  0
ARC
  8
_0-1_レイヤ___3
  6
CONTINUOUS
 62
    7
 10
-5621.3629577264519
 20
9968.3715807244553
 40
362.43800051855004
 50
108.64653596687252
 51
129.04116488951172
  0
ARC
  8
_0-1_レイヤ___3
  6
CONTINUOUS
 62
    7
 10
-5599.37265674031
 20
9912.9762110145002
 40
421.96811857703369
 50
95.984238880830276
 51
109.07079194618395
  0
ARC
  8
_0-1_レイヤ___3
  6
CONTINUOUS
 62
    7
 10
-5588.6242602788279
 20
9838.228804830349
 40
497.437206105678
 50
89.876828286418629
 51
96.317927691436736
  0
ARC
  8
_0-1_レイヤ___3
  6
CONTINUOUS
 62
    7
 10
-5354.9872379267836
 20
10136.864055111679
 40
100.75331131327245
 50
32.544576065205391
 51
35.404403752235282
  0
ARC
  8
_0-1_レイヤ___3
  6
CONTINUOUS
 62
    7
 10
-5443.1583502304802
 20
10074.411363475123
 40
208.80176608437881
 50
35.3557672228646
 51
41.367236474241516
  0
ARC
  8
_0-1_レイヤ___3
  6
CONTINUOUS
 62
    7
 10
-5516.6473355803882
 20
10011.8442922704
 40
305.30820552446175
 50
41.064774299976172
 51
51.227650186589457
  0
ARC
  8
_0-1_レイヤ___3
  6
CONTINUOUS
 62
    7
 10
-5553.7468312735482
 20
9968.3715807244516
 40
362.43800051855288
 50
50.958835110488543
 51
71.35346403312775
  0
ARC
  8
_0-1_レイヤ___3
  6
CONTINUOUS
 62
    7
 10
-5575.737132259691
 20
9912.9762110145057
 40
421.96811857702875
 50
70.929208053815913
 51
84.015761119169582
  0
ARC
  8
_0-1_レイヤ___3
  6
CONTINUOUS
 62
    7
 10
-5586.4855287211731
 20
9838.2288048303399
 40
497.43720610568812
 50
83.682072308563349
 51
90.123171713581442
  0
ARC
  8
_0-1_レイヤ___3
  6
CONTINUOUS
 62
    7
 10
-2913.022595073262
 20
10245.265671888321
 40
100.75331131323469
 50
212.54457606521987
 51
215.40440375224975
  0
ARC
  8
_0-1_レイヤ___3
  6
CONTINUOUS
 62
    7
 10
-2824.851482769519
 20
10307.718363524882
 40
208.80176608438217
 50
215.35576722286575
 51
221.36723647424267
  0
ARC
  8
_0-1_レイヤ___3
  6
CONTINUOUS
 62
    7
 10
-2751.3624974196114
 20
10370.285434729598
 40
305.30820552445948
 50
221.06477429997577
 51
231.22765018658905
  0
ARC
  8
_0-1_レイヤ___3
  6
CONTINUOUS
 62
    7
 10
-2714.2630012264522
 20
10413.758149055178
 40
362.43800299241127
 50
230.95883532587561
 51
251.3534642485148
  0
ARC
  8
_0-1_レイヤ___3
  6
CONTINUOUS
 62
    7
 10
-2692.2727002403099
 20
10469.153511626333
 40
421.96811429374725
 50
250.92920792458665
 51
264.0157609899403
  0
ARC
  8
_0-1_レイヤ___3
  6
CONTINUOUS
 62
    7
 10
-2681.5243042788275
 20
10543.900922169658
 40
497.43720610568312
 50
263.68207230856331
 51
270.12317171358143
  0
ARC
  8
_0-1_レイヤ___3
  6
CONTINUOUS
 62
    7
 10
-2447.8872809267382
 20
10245.26567188831
 40
100.75331131322829
 50
324.59559624775562
 51
327.45542393478553
  0
ARC
  8
_0-1_レイヤ___3
  6
CONTINUOUS
 62
    7
 10
-2536.0583932304803
 20
10307.718363524889
 40
208.80176608438552
 50
318.63276352575616
 51
324.64423277713308
  0
ARC
  8
_0-1_レイヤ___3
  6
CONTINUOUS
 62
    7
 10
-2609.5473785803892
 20
10370.285434729598
 40
305.30820552445948
 50
308.77234981341098
 51
318.93522570002426
  0
ARC
  8
_0-1_レイヤ___3
  6
CONTINUOUS
 62
    7
 10
-2646.646874773548
 20
10413.758149055178
 40
362.43800299241127
 50
288.6465357514852
 51
309.04116467412439
  0
ARC
  8
_0-1_レイヤ___3
  6
CONTINUOUS
 62
    7
 10
-2668.6371757596903
 20
10469.153511626329
 40
421.96811429374492
 50
275.98423901005975
 51
289.07079207541341
  0
ARC
  8
_0-1_レイヤ___3
  6
CONTINUOUS
 62
    7
 10
-2679.3855722211724
 20
10543.900931055636
 40
497.43721499271589
 50
269.87682823102801
 51
276.31792763604608
  0
ARC
  8
_0-1_レイヤ___3
  6
CONTINUOUS
 62
    7
 10
-3548.0304525955444
 20
10136.604825622173
 40
100.97057184267514
 50
144.50269853746238
 51
147.35954730736768
  0
ARC
  8
_0-1_レイヤ___3
  6
CONTINUOUS
 62
    7
 10
-3459.7678084439217
 20
10074.182553779816
 40
209.07582118488446
 50
138.6153465588834
 51
144.62063211810062
  0
ARC
  8
_0-1_レイヤ___3
  6
CONTINUOUS
 62
    7
 10
-3386.2323107357138
 20
10011.574447133704
 40
305.6439441037146
 50
128.76992808749898
 51
138.92296844706561
  0
ARC
  8
_0-1_レイヤ___3
  6
CONTINUOUS
 62
    7
 10
-3349.2024840569402
 20
9968.1158798433553
 40
362.71881065871321
 50
108.65165821912348
 51
129.03173518611692
  0
ARC
  8
_0-1_レイヤ___3
  6
CONTINUOUS
 62
    7
 10
-3327.3314810883239
 20
9913.0129563069768
 40
421.93378546990107
 50
95.987623521749811
 51
109.07257752973085
  0
ARC
  8
_0-1_レイヤ___3
  6
CONTINUOUS
 62
    7
 10
-3316.6219409612968
 20
9838.547785320985
 40
497.11822129586727
 50
89.877020485181959
 51
96.319951906917922
  0
ARC
  8
_0-1_レイヤ___3
  6
CONTINUOUS
 62
    7
 10
-3082.9458704185172
 20
10136.627503281728
 40
100.93010227786918
 50
32.639879823897374
 51
35.497874331272577
  0
ARC
  8
_0-1_レイヤ___3
  6
CONTINUOUS
 62
    7
 10
-3171.1795401263917
 20
10074.232056271177
 40
208.99619450303595
 50
35.378224803715909
 51
41.385800620308785
  0
ARC
  8
_0-1_レイヤ___3
  6
CONTINUOUS
 62
    7
 10
-3244.7204745690146
 20
10011.582808269704
 40
305.59542888809187
 50
41.082880850402226
 51
51.23889474534996
  0
ARC
  8
_0-1_レイヤ___3
  6
CONTINUOUS
 62
    7
 10
-3281.8186368357237
 20
9968.0573796324115
 40
362.76505117262764
 50
50.973928412872894
 51
71.355597008042196
  0
ARC
  8
_0-1_レイヤ___3
  6
CONTINUOUS
 62
    7
 10
-3303.7608034280352
 20
9912.73761203084
 40
422.20788163463277
 50
70.934190704602969
 51
84.015946594012817
  0
ARC
  8
_0-1_レイヤ___3
  6
CONTINUOUS
 62
    7
 10
-3314.4884313483644
 20
9838.1757922208526
 40
497.49021243478586
 50
83.682415811803978
 51
90.1228282103406
  0
ARC
  8
_0-1_レイヤ___3
  6
CONTINUOUS
 62
    7
 10
-6834.9576104027974
 20
10144.758611797955
 40
85.687131946339932
 50
144.22233369227075
 51
147.28839169837414
  0
ARC
  8
_0-1_レイヤ___3
  6
CONTINUOUS
 62
    7
 10
-6772.3665018165402
 20
10100.105046321711
 40
162.57352260626021
 50
139.79746805851795
 51
144.35142471935831
  0
ARC
  8
_0-1_レイヤ___3
  6
CONTINUOUS
 62
    7
 10
-6716.1446876625705
 20
10053.353651080004
 40
235.69226502681684
 50
128.64561282955955
 51
139.93931535075046
  0
ARC
  8
_0-1_レイヤ___3
  6
CONTINUOUS
 62
    7
 10
-6684.3717736842755
 20
10016.65063554152
 40
284.20673230090733
 50
110.99190648966825
 51
129.02750531113131
  0
ARC
  8
_0-1_レイヤ___3
  6
CONTINUOUS
 62
    7
 10
-6666.7549979676569
 20
9975.7474653034878
 40
328.71106488204566
 50
95.239897903240603
 51
111.30471079897622
  0
ARC
  8
_0-1_レイヤ___3
  6
CONTINUOUS
 62
    7
 10
-6657.2413299848804
 20
9909.5217699453515
 40
395.54368721071808
 50
89.900565237320635
 51
95.736139417888069
  0
ARC
  8
_0-1_レイヤ___3
  6
CONTINUOUS
 62
    7
 10
-6478.1521475972031
 20
10144.758611797977
 40
85.68713194632798
 50
32.711608301614113
 51
35.777666307717489
  0
ARC
  8
_0-1_レイヤ___3
  6
CONTINUOUS
 62
    7
 10
-6540.7432561834594
 20
10100.105046321711
 40
162.57352260626021
 50
35.648575280641708
 51
40.202531941482064
  0
ARC
  8
_0-1_レイヤ___3
  6
CONTINUOUS
 62
    7
 10
-6596.9650698374298
 20
10053.353656136811
 40
235.69226138958246
 50
40.060683786625717
 51
51.354386307816618
  0
ARC
  8
_0-1_レイヤ___3
  6
CONTINUOUS
 62
    7
 10
-6628.7379833157238
 20
10016.650635541526
 40
284.20673230090097
 50
50.972494688867947
 51
69.008093510331008
  0
ARC
  8
_0-1_レイヤ___3
  6
CONTINUOUS
 62
    7
 10
-6646.3547595323425
 20
9975.7474617603402
 40
328.71106836472558
 50
68.695289344213663
 51
84.760102239949276
  0
ARC
  8
_0-1_レイヤ___3
  6
CONTINUOUS
 62
    7
 10
-6655.8684275151199
 20
9909.5217797552341
 40
395.54367739998446
 50
84.263860512151453
 51
90.099434692718887
  0
ARC
  8
_0-1_レイヤ___3
  6
CONTINUOUS
 62
    7
 10
-6333.9576174028389
 20
10237.371115202044
 40
85.687131946304817
 50
212.71160830164183
 51
215.77766630774522
  0
ARC
  8
_0-1_レイヤ___3
  6
CONTINUOUS
 62
    7
 10
-6271.3665088165408
 20
10282.024680678278
 40
162.57352260625143
 50
215.64857528063774
 51
220.20253194147807
  0
ARC
  8
_0-1_レイヤ___3
  6
CONTINUOUS
 62
    7
 10
-6215.1446951625703
 20
10328.77607086319
 40
235.69226138958246
 50
220.0606837866257
 51
231.35438630781661
  0
ARC
  8
_0-1_レイヤ___3
  6
CONTINUOUS
 62
    7
 10
-6183.3717816842764
 20
10365.479091458477
 40
284.20673230090415
 50
230.9724946888683
 51
249.00809351033138
  0
ARC
  8
_0-1_レイヤ___3
  6
CONTINUOUS
 62
    7
 10
-6165.7550054676576
 20
10406.382265239659
 40
328.71106836472171
 50
248.69528934421351
 51
264.76010223994911
  0
ARC
  8
_0-1_レイヤ___3
  6
CONTINUOUS
 62
    7
 10
-6156.2413374848802
 20
10472.607947244769
 40
395.54367739998446
 50
264.26386051215144
 51
270.09943469271889
  0
ARC
  8
_0-1_レイヤ___3
  6
CONTINUOUS
 62
    7
 10
-5977.1521550971602
 20
10237.371096519395
 40
85.687121429300191
 50
324.22234402269203
 51
327.28840202879542
  0
ARC
  8
_0-1_レイヤ___3
  6
CONTINUOUS
 62
    7
 10
-6039.743263183459
 20
10282.024680678278
 40
162.57352260625143
 50
319.79746805852193
 51
324.35142471936229
  0
ARC
  8
_0-1_レイヤ___3
  6
CONTINUOUS
 62
    7
 10
-6095.9650773374287
 20
10328.776075920003
 40
235.69226502682088
 50
308.64561282955856
 51
319.9393153507495
  0
ARC
  8
_0-1_レイヤ___3
  6
CONTINUOUS
 62
    7
 10
-6127.7379913157238
 20
10365.479091458477
 40
284.20673230090415
 50
290.99190648966862
 51
309.02750531113168
  0
ARC
  8
_0-1_レイヤ___3
  6
CONTINUOUS
 62
    7
 10
-6145.3547670323424
 20
10406.382261696517
 40
328.71106488204964
 50
275.23989790324043
 51
291.30471079897609
  0
ARC
  8
_0-1_レイヤ___3
  6
CONTINUOUS
 62
    7
 10
-6154.8684350151198
 20
10472.60795705465
 40
395.54368721071808
 50
269.90056523732062
 51
275.73613941788807
  0
ARC
  8
_0-1_レイヤ___3
  6
CONTINUOUS
 62
    7
 10
-4562.8576439027975
 20
10144.758630480626
 40
85.687121429323383
 50
144.22234402271977
 51
147.28840202882316
  0
ARC
  8
_0-1_レイヤ___3
  6
CONTINUOUS
 62
    7
 10
-4500.2665358165405
 20
10100.105046321711
 40
162.57352260626021
 50
139.79746805851795
 51
144.35142471935831
  0
ARC
  8
_0-1_レイヤ___3
  6
CONTINUOUS
 62
    7
 10
-4444.0447216625707
 20
10053.353651079999
 40
235.69226502682088
 50
128.64561282955856
 51
139.93931535074947
  0
ARC
  8
_0-1_レイヤ___3
  6
CONTINUOUS
 62
    7
 10
-4412.2718076842757
 20
10016.650635541522
 40
284.20673230090415
 50
110.99190648966862
 51
129.0275053111317
  0
ARC
  8
_0-1_レイヤ___3
  6
CONTINUOUS
 62
    7
 10
-4394.6550319676571
 20
9975.747465303486
 40
328.71106488204964
 50
95.239897903240447
 51
111.30471079897607
  0
ARC
  8
_0-1_レイヤ___3
  6
CONTINUOUS
 62
    7
 10
-4385.1413639848806
 20
9909.5217699453642
 40
395.54368721070705
 50
89.90056523732072
 51
95.73613941788814
  0
ARC
  8
_0-1_レイヤ___3
  6
CONTINUOUS
 62
    7
 10
-4206.1892611875182
 20
10144.733370282671
 40
85.731971558135825
 50
32.712410299046745
 51
35.776864310284864
  0
ARC
  8
_0-1_レイヤ___3
  6
CONTINUOUS
 62
    7
 10
-4268.8078522340775
 20
10100.054739876003
 40
162.65530541513274
 50
35.649720744070684
 51
40.201386478045109
  0
ARC
  8
_0-1_レイヤ___3
  6
CONTINUOUS
 62
    7
 10
-4325.0235368896301
 20
10053.33922448892
 40
235.74627358302268
 50
40.05422816298821
 51
51.343586766425858
  0
ARC
  8
_0-1_レイヤ___3
  6
CONTINUOUS
 62
    7
 10
-4357.5478157618109
 20
10015.621078401622
 40
285.52275923749096
 50
50.974792361685537
 51
70.765150450440316
  0
ARC
  8
_0-1_レイヤ___3
  6
CONTINUOUS
 62
    7
 10
-4375.8269770371544
 20
9970.1725065434257
 40
334.4639357459223
 50
70.373519651520297
 51
85.910519893971738
  0
ARC
  8
_0-1_レイヤ___3
  6
CONTINUOUS
 62
    7
 10
-4383.9992004674614
 20
9903.8985793447791
 40
401.16654099226736
 50
85.421325868018101
 51
90.065086140256781
  0
ARC
  8
_0-1_レイヤ___3
  6
CONTINUOUS
 62
    7
 10
-4061.8622254001116
 20
10237.436075383321
 40
85.802528749285102
 50
212.71367058105758
 51
215.7756040283295
  0
ARC
  8
_0-1_レイヤ___3
  6
CONTINUOUS
 62
    7
 10
-3999.1870760191214
 20
10282.286544738772
 40
162.87201205520844
 50
215.68663731110288
 51
220.23440846731762
  0
ARC
  8
_0-1_レイヤ___3
  6
CONTINUOUS
 62
    7
 10
-3942.9175568337532
 20
10329.089688295313
 40
236.06034213028335
 50
220.0850184249372
 51
231.36454602664637
  0
ARC
  8
_0-1_レイヤ___3
  6
CONTINUOUS
 62
    7
 10
-3910.3895361090076
 20
10366.825234270487
 40
285.8521394627619
 50
230.99411895665307
 51
250.76855345956992
  0
ARC
  8
_0-1_レイヤ___3
  6
CONTINUOUS
 62
    7
 10
-3892.1624755039556
 20
10412.175246068236
 40
334.68285969358692
 50
250.37954526170159
 51
265.90970154733179
  0
ARC
  8
_0-1_レイヤ___3
  6
CONTINUOUS
 62
    7
 10
-3884.0090733106636
 20
10478.2707129091
 40
401.2061044525978
 50
265.42155495706544
 51
270.06485705120957
  0
ARC
  8
_0-1_レイヤ___3
  6
CONTINUOUS
 62
    7
 10
-3705.1521885971601
 20
10237.371115202024
 40
85.687131946292851
 50
324.22233369226649
 51
327.28839169836988
  0
ARC
  8
_0-1_レイヤ___3
  6
CONTINUOUS
 62
    7
 10
-3767.7432971834596
 20
10282.024680678292
 40
162.57352260626021
 50
319.79746805851795
 51
324.35142471935831
  0
ARC
  8
_0-1_レイヤ___3
  6
CONTINUOUS
 62
    7
 10
-3823.9651113374293
 20
10328.776075920003
 40
235.69226502682088
 50
308.64561282955856
 51
319.9393153507495
  0
ARC
  8
_0-1_レイヤ___3
  6
CONTINUOUS
 62
    7
 10
-3855.7380253157235
 20
10365.479091458477
 40
284.20673230090415
 50
290.99190648966862
 51
309.02750531113168
  0
ARC
  8
_0-1_レイヤ___3
  6
CONTINUOUS
 62
    7
 10
-3873.354801032342
 20
10406.382261696512
 40
328.71106488204566
 50
275.2398979032406
 51
291.3047107989762
  0
ARC
  8
_0-1_レイヤ___3
  6
CONTINUOUS
 62
    7
 10
-3882.8684690151194
 20
10472.60795705465
 40
395.54368721071808
 50
269.90056523732062
 51
275.73613941788807
  0
ARC
  8
_0-1_レイヤ___3
  6
CONTINUOUS
 62
    7
 10
-2290.8576774027965
 20
10144.758611797966
 40
85.687131946333949
 50
144.22233369227664
 51
147.28839169838002
  0
ARC
  8
_0-1_レイヤ___3
  6
CONTINUOUS
 62
    7
 10
-2228.2665688165407
 20
10100.105046321725
 40
162.57352260625143
 50
139.79746805852193
 51
144.35142471936226
  0
ARC
  8
_0-1_レイヤ___3
  6
CONTINUOUS
 62
    7
 10
-2172.0447551625703
 20
10053.353656136807
 40
235.69226138958453
 50
128.64561369218288
 51
139.93931621337379
  0
ARC
  8
_0-1_レイヤ___3
  6
CONTINUOUS
 62
    7
 10
-2140.2718416842758
 20
10016.650635541526
 40
284.20673230090256
 50
110.99190648966881
 51
129.02750531113188
  0
ARC
  8
_0-1_レイヤ___3
  6
CONTINUOUS
 62
    7
 10
-2122.6550654676571
 20
9975.747461760342
 40
328.71106836472364
 50
95.239897760050809
 51
111.30471065578642
  0
ARC
  8
_0-1_レイヤ___3
  6
CONTINUOUS
 62
    7
 10
-2113.1413974848801
 20
9909.5217797552341
 40
395.54367739998446
 50
89.900565307281127
 51
95.736139487848547
  0
ARC
  8
_0-1_レイヤ___3
  6
CONTINUOUS
 62
    7
 10
-1934.0522155972035
 20
10144.758611797955
 40
85.687131946339932
 50
32.711608301625859
 51
35.777666307729241
  0
ARC
  8
_0-1_レイヤ___3
  6
CONTINUOUS
 62
    7
 10
-1996.6433241834598
 20
10100.105046321725
 40
162.57352260625143
 50
35.648575280637729
 51
40.202531941478085
  0
ARC
  8
_0-1_レイヤ___3
  6
CONTINUOUS
 62
    7
 10
-2052.8651378374298
 20
10053.353656136811
 40
235.69226138958246
 50
40.060683786625717
 51
51.354386307816618
  0
ARC
  8
_0-1_レイヤ___3
  6
CONTINUOUS
 62
    7
 10
-2084.6380513157237
 20
10016.650635541526
 40
284.20673230090256
 50
50.972494688868125
 51
69.008093510331193
  0
ARC
  8
_0-1_レイヤ___3
  6
CONTINUOUS
 62
    7
 10
-2102.2548275323425
 20
9975.747461760342
 40
328.71106836472364
 50
68.695289344213577
 51
84.760102239949205
  0
ARC
  8
_0-1_レイヤ___3
  6
CONTINUOUS
 62
    7
 10
-2111.7684955151199
 20
9909.5217797552286
 40
395.54367739998997
 50
84.263860512151496
 51
90.09943469271893
  0
ARC
  8
_0-1_レイヤ___3
  6
CONTINUOUS
 62
    7
 10
-1789.8576854028386
 20
10237.371115202044
 40
85.687131946304817
 50
212.71160830164183
 51
215.77766630774522
  0
ARC
  8
_0-1_レイヤ___3
  6
CONTINUOUS
 62
    7
 10
-1727.2665768165405
 20
10282.024680678269
 40
162.57352260624702
 50
215.64857528063575
 51
220.20253194147608
  0
ARC
  8
_0-1_レイヤ___3
  6
CONTINUOUS
 62
    7
 10
-1671.0447626625705
 20
10328.776075920005
 40
235.69226502682301
 50
220.06068464925102
 51
231.35438717044192
  0
ARC
  8
_0-1_レイヤ___3
  6
CONTINUOUS
 62
    7
 10
-1639.2718491842761
 20
10365.479088307937
 40
284.20672953857877
 50
230.9724943672266
 51
249.00809318868966
  0
ARC
  8
_0-1_レイヤ___3
  6
CONTINUOUS
 62
    7
 10
-1621.6550734676571
 20
10406.382265239659
 40
328.71106836472364
 50
248.69528934421356
 51
264.76010223994922
  0
ARC
  8
_0-1_レイヤ___3
  6
CONTINUOUS
 62
    7
 10
-1612.1414054848799
 20
10472.607947244769
 40
395.54367739998446
 50
264.26386051215144
 51
270.09943469271889
  0
ARC
  8
_0-1_レイヤ___3
  6
CONTINUOUS
 62
    7
 10
-1433.0522225971606
 20
10237.371115202033
 40
85.68713194629882
 50
324.22233369226063
 51
327.28839169836402
  0
ARC
  8
_0-1_レイヤ___3
  6
CONTINUOUS
 62
    7
 10
-1495.6433311834594
 20
10282.024680678278
 40
162.57352260625143
 50
319.79746805852193
 51
324.35142471936229
  0
ARC
  8
_0-1_レイヤ___3
  6
CONTINUOUS
 62
    7
 10
-1551.8651453374298
 20
10328.77607592001
 40
235.69226502682505
 50
308.64561282955759
 51
319.93931535074847
  0
ARC
  8
_0-1_レイヤ___3
  6
CONTINUOUS
 62
    7
 10
-1583.6380588157244
 20
10365.479088307933
 40
284.20672953857724
 50
290.99190681131051
 51
309.02750563277357
  0
ARC
  8
_0-1_レイヤ___3
  6
CONTINUOUS
 62
    7
 10
-1601.2548345323426
 20
10406.382265239659
 40
328.71106836472171
 50
275.23989776005089
 51
291.30471065578649
  0
ARC
  8
_0-1_レイヤ___3
  6
CONTINUOUS
 62
    7
 10
-1610.7685030151197
 20
10472.60795705465
 40
395.54368721071808
 50
269.90056523732062
 51
275.73613941788807
  0
ARC
  8
_0-1_レイヤ___3
  6
CONTINUOUS
 62
    7
 10
-640.93049659558972
 20
10245.524901377827
 40
100.9705718426374
 50
212.64045269264682
 51
215.49730146255212
  0
ARC
  8
_0-1_レイヤ___3
  6
CONTINUOUS
 62
    7
 10
-552.66785194392128
 20
10307.947182752345
 40
209.0758271115559
 50
215.37936993240547
 51
221.38465549162268
  0
ARC
  8
_0-1_レイヤ___3
  6
CONTINUOUS
 62
    7
 10
-479.13235423571393
 20
10370.555274237853
 40
305.6439400285019
 50
221.07703081915608
 51
231.23007117872271
  0
ARC
  8
_0-1_レイヤ___3
  6
CONTINUOUS
 62
    7
 10
-442.10252755693944
 20
10414.013849938307
 40
362.7188131343749
 50
230.96826502924114
 51
251.34834199623455
  0
ARC
  8
_0-1_レイヤ___3
  6
CONTINUOUS
 62
    7
 10
-420.23152458832328
 20
10469.11676633332
 40
421.93378118613771
 50
250.92742234098728
 51
264.01237634896836
  0
ARC
  8
_0-1_レイヤ___3
  6
CONTINUOUS
 62
    7
 10
-409.52198446129643
 20
10543.581950562448
 40
497.11823018035136
 50
263.68004814851218
 51
270.12297957024816
  0
ARC
  8
_0-1_レイヤ___3
  6
CONTINUOUS
 62
    7
 10
-175.84591341847215
 20
10245.502223718271
 40
100.93010227783145
 50
324.50212566871295
 51
327.36012017608812
  0
ARC
  8
_0-1_レイヤ___3
  6
CONTINUOUS
 62
    7
 10
-264.07958312639153
 20
10307.897670728826
 40
208.9961945030376
 50
318.6141993796906
 51
324.62177519628352
  0
ARC
  8
_0-1_レイヤ___3
  6
CONTINUOUS
 62
    7
 10
-337.62051756901485
 20
10370.546918730302
 40
305.59542888809415
 50
308.76110525464964
 51
318.91711914959734
  0
ARC
  8
_0-1_レイヤ___3
  6
CONTINUOUS
 62
    7
 10
-374.71868033572463
 20
10414.072350149027
 40
362.76505364824902
 50
288.6444027766882
 51
309.02607137185748
  0
ARC
  8
_0-1_レイヤ___3
  6
CONTINUOUS
 62
    7
 10
-396.6608469280348
 20
10469.392110608376
 40
422.20787734973584
 50
275.98405353516426
 51
289.06580942457413
  0
ARC
  8
_0-1_レイヤ___3
  6
CONTINUOUS
 62
    7
 10
-407.38847434836458
 20
10543.953934779156
 40
497.49021243479353
 50
269.87717178965937
 51
276.31758418819595
  0
ARC
  8
_0-1_レイヤ___3
  6
CONTINUOUS
 62
    7
 10
-1276.0226190732164
 20
10136.86405511169
 40
100.7533113132661
 50
144.59559624777009
 51
147.4554239348
  0
ARC
  8
_0-1_レイヤ___3
  6
CONTINUOUS
 62
    7
 10
-1187.8515067695196
 20
10074.411363475117
 40
208.80176608438217
 50
138.63276352575733
 51
144.64423277713425
  0
ARC
  8
_0-1_レイヤ___3
  6
CONTINUOUS
 62
    7
 10
-1114.3625214196113
 20
10011.8442922704
 40
305.30820552446175
 50
128.77234981341056
 51
138.93522570002384
  0
ARC
  8
_0-1_レイヤ___3
  6
CONTINUOUS
 62
    7
 10
-1077.2630257264518
 20
9968.3715807244535
 40
362.43800051855146
 50
108.64653596687239
 51
129.04116488951158
  0
ARC
  8
_0-1_レイヤ___3
  6
CONTINUOUS
 62
    7
 10
-1055.2727247403093
 20
9912.976211014502
 40
421.96811857703125
 50
95.984238880830361
 51
109.07079194618402
  0
ARC
  8
_0-1_レイヤ___3
  6
CONTINUOUS
 62
    7
 10
-1044.5243282788269
 20
9838.2288048303435
 40
497.43720610568312
 50
89.876828286418601
 51
96.317927691436694
  0
ARC
  8
_0-1_レイヤ___3
  6
CONTINUOUS
 62
    7
 10
-810.8873059267836
 20
10136.864055111695
 40
100.75331131326293
 50
32.544576065197333
 51
35.404403752227225
  0
ARC
  8
_0-1_レイヤ___3
  6
CONTINUOUS
 62
    7
 10
-899.05841773048019
 20
10074.411372997445
 40
208.80176016648454
 50
35.355765171199238
 51
41.367234422576153
  0
ARC
  8
_0-1_レイヤ___3
  6
CONTINUOUS
 62
    7
 10
-972.5474030803889
 20
10011.84428664744
 40
305.30820959523527
 50
41.064775033949324
 51
51.22765092056261
  0
ARC
  8
_0-1_レイヤ___3
  6
CONTINUOUS
 62
    7
 10
-1009.6468992735483
 20
9968.3715807244535
 40
362.43800051855209
 50
50.958835110488486
 51
71.353464033127693
  0
ARC
  8
_0-1_レイヤ___3
  6
CONTINUOUS
 62
    7
 10
-1031.6372002596906
 20
9912.9762110145039
 40
421.96811857702994
 50
70.929208053815955
 51
84.015761119169611
  0
ARC
  8
_0-1_レイヤ___3
  6
CONTINUOUS
 62
    7
 10
-1042.385596721173
 20
9838.2288048303435
 40
497.43720610568312
 50
83.682072308563306
 51
90.123171713581399
  0
ARC
  8
_0-1_レイヤ___3
  6
CONTINUOUS
 62
    7
 10
-18.757711402796531
 20
10144.758611797961
 40
85.687131946336947
 50
144.22233369227371
 51
147.2883916983771
  0
ARC
  8
_0-1_レイヤ___3
  6
CONTINUOUS
 62
    7
 10
43.83339718345951
 20
10100.105046321722
 40
162.57352260625362
 50
139.79746805852093
 51
144.35142471936129
  0
ARC
  8
_0-1_レイヤ___3
  6
CONTINUOUS
 62
    7
 10
100.05521083742991
 20
10053.353656136809
 40
235.69226138958345
 50
128.64561369218313
 51
139.93931621337404
  0
ARC
  8
_0-1_レイヤ___3
  6
CONTINUOUS
 62
    7
 10
131.82812431572415
 20
10016.650635541526
 40
284.20673230090256
 50
110.99190648966881
 51
129.02750531113188
  0
ARC
  8
_0-1_レイヤ___3
  6
CONTINUOUS
 62
    7
 10
149.4449005323429
 20
9975.7474617603439
 40
328.71106836472256
 50
95.239897760050852
 51
111.30471065578647
  0
ARC
  8
_0-1_レイヤ___3
  6
CONTINUOUS
 62
    7
 10
158.95856851511979
 20
9909.5217797552305
 40
395.54367739998719
 50
89.900565307281099
 51
95.736139487848533
  0
ARC
  8
_0-1_レイヤ___3
  6
CONTINUOUS
 62
    7
 10
337.95232440006856
 20
10144.693651616688
 40
85.802528749315769
 50
32.713670581037185
 51
35.77560402830909
  0
ARC
  8
_0-1_レイヤ___3
  6
CONTINUOUS
 62
    7
 10
275.27717551912218
 20
10099.843194853276
 40
162.87200430350629
 50
35.686633815836018
 51
40.234404972050754
  0
ARC
  8
_0-1_レイヤ___3
  6
CONTINUOUS
 62
    7
 10
219.00765633375315
 20
10053.040033641475
 40
236.0603457731514
 50
40.085019287030654
 51
51.364546888739845
  0
ARC
  8
_0-1_レイヤ___3
  6
CONTINUOUS
 62
    7
 10
186.47963510900809
 20
10015.304492729518
 40
285.85213946276093
 50
50.994118956652962
 51
70.768553459569802
  0
ARC
  8
_0-1_レイヤ___3
  6
CONTINUOUS
 62
    7
 10
168.25257500395566
 20
9969.954484598471
 40
334.68285607188528
 50
70.379545131548312
 51
85.909701417178496
  0
ARC
  8
_0-1_レイヤ___3
  6
CONTINUOUS
 62
    7
 10
160.0991728106635
 20
9903.859001758221
 40
401.20611678583725
 50
85.421555026476128
 51
90.064857120620218
  0
ARC
  8
_0-1_レイヤ___3
  6
CONTINUOUS
 62
    7
 10
482.27936018747573
 20
10237.396356717345
 40
85.731971558109663
 50
212.71241029907154
 51
215.77686431030966
  0
ARC
  8
_0-1_レイヤ___3
  6
CONTINUOUS
 62
    7
 10
544.89795123407805
 20
10282.074987124
 40
162.65530541513496
 50
215.64972074407166
 51
220.20138647804609
  0
ARC
  8
_0-1_レイヤ___3
  6
CONTINUOUS
 62
    7
 10
601.11363638963041
 20
10328.790507569851
 40
235.74627722112217
 50
220.05422902587941
 51
231.34358762931706
  0
ARC
  8
_0-1_レイヤ___3
  6
CONTINUOUS
 62
    7
 10
633.63791526181126
 20
10366.508645732083
 40
285.52275669592325
 50
230.9747920774642
 51
250.76515016621897
  0
ARC
  8
_0-1_レイヤ___3
  6
CONTINUOUS
 62
    7
 10
651.91707603715417
 20
10411.957220456574
 40
334.46393574591974
 50
250.37351965152021
 51
265.91051989397164
  0
ARC
  8
_0-1_レイヤ___3
  6
CONTINUOUS
 62
    7
 10
660.08929996746156
 20
10478.231159986703
 40
401.16655332430651
 50
265.42132593742883
 51
270.06508620966753
  0
ARC
  8
_0-1_レイヤ___3
  6
CONTINUOUS
 62
    7
 10
838.94774340283914
 20
10237.371115202037
 40
85.687131946301065
 50
324.22233369225842
 51
327.28839169836181
  0
ARC
  8
_0-1_レイヤ___3
  6
CONTINUOUS
 62
    7
 10
776.3566348165408
 20
10282.024680678278
 40
162.57352260625197
 50
319.79746805852164
 51
324.351424719362
  0
ARC
  8
_0-1_レイヤ___3
  6
CONTINUOUS
 62
    7
 10
720.13482116257035
 20
10328.77607086319
 40
235.69226138958373
 50
308.64561369218308
 51
319.93931621337396
  0
ARC
  8
_0-1_レイヤ___3
  6
CONTINUOUS
 62
    7
 10
688.36190768427605
 20
10365.479091458476
 40
284.20673230090233
 50
290.99190648966885
 51
309.0275053111319
  0
ARC
  8
_0-1_レイヤ___3
  6
CONTINUOUS
 62
    7
 10
670.7451314676573
 20
10406.382265239659
 40
328.71106836472325
 50
275.23989776005084
 51
291.30471065578644
  0
ARC
  8
_0-1_レイヤ___3
  6
CONTINUOUS
 62
    7
 10
661.23146348488046
 20
10472.607947244771
 40
395.54367739998719
 50
269.90056530728111
 51
275.7361394878485
  0
ARC
  8
_0-1_レイヤ___3
  6
CONTINUOUS
 62
    7
 10
1631.0773369267383
 20
10245.265671888308
 40
100.75331131322702
 50
212.54457606521339
 51
215.4044037522433
  0
ARC
  8
_0-1_レイヤ___3
  6
CONTINUOUS
 62
    7
 10
1719.2484492304802
 20
10307.718363524884
 40
208.80176608438285
 50
215.35576722286598
 51
221.3672364742429
  0
ARC
  8
_0-1_レイヤ___3
  6
CONTINUOUS
 62
    7
 10
1792.7374350803889
 20
10370.285440352563
 40
305.30820959523629
 50
221.06477503394947
 51
231.22765092056275
  0
ARC
  8
_0-1_レイヤ___3
  6
CONTINUOUS
 62
    7
 10
1829.8369312735485
 20
10413.75814627555
 40
362.43800051855175
 50
230.95883511048842
 51
251.35346403312764
  0
ARC
  8
_0-1_レイヤ___3
  6
CONTINUOUS
 62
    7
 10
1851.8272322596908
 20
10469.153515985499
 40
421.96811857703062
 50
250.92920805381596
 51
264.01576111916961
  0
ARC
  8
_0-1_レイヤ___3
  6
CONTINUOUS
 62
    7
 10
1862.5756287211732
 20
10543.90092216966
 40
497.43720610568437
 50
263.68207230856331
 51
270.12317171358143
  0
ARC
  8
_0-1_レイヤ___3
  6
CONTINUOUS
 62
    7
 10
2096.2126510732619
 20
10245.26567188831
 40
100.75331131322829
 50
324.59559624775562
 51
327.45542393478553
  0
ARC
  8
_0-1_レイヤ___3
  6
CONTINUOUS
 62
    7
 10
2008.0415387695198
 20
10307.718363524888
 40
208.8017660843839
 50
318.63276352575673
 51
324.64423277713365
  0
ARC
  8
_0-1_レイヤ___3
  6
CONTINUOUS
 62
    7
 10
1934.5525534196111
 20
10370.285434729602
 40
305.30820552446175
 50
308.77234981341053
 51
318.93522570002381
  0
ARC
  8
_0-1_レイヤ___3
  6
CONTINUOUS
 62
    7
 10
1897.4530572264518
 20
10413.758149055178
 40
362.43800299241167
 50
288.64653575148515
 51
309.04116467412439
  0
ARC
  8
_0-1_レイヤ___3
  6
CONTINUOUS
 62
    7
 10
1875.4627562403095
 20
10469.153511626333
 40
421.96811429374577
 50
275.9842390100597
 51
289.07079207541335
  0
ARC
  8
_0-1_レイヤ___3
  6
CONTINUOUS
 62
    7
 10
1864.7143602788269
 20
10543.900922169654
 40
497.43720610568181
 50
269.87682828641857
 51
276.31792769143669
  0
ARC
  8
_0-1_レイヤ___3
  6
CONTINUOUS
 62
    7
 10
996.0359454185176
 20
10136.627503281727
 40
100.93010227787077
 50
144.50212566872608
 51
147.3601201761013
  0
ARC
  8
_0-1_レイヤ___3
  6
CONTINUOUS
 62
    7
 10
1084.269615126392
 20
10074.232056271174
 40
208.99619450303848
 50
138.61419937969035
 51
144.62177519628324
  0
ARC
  8
_0-1_レイヤ___3
  6
CONTINUOUS
 62
    7
 10
1157.8105495690149
 20
10011.582808269703
 40
305.59542888809329
 50
128.76110525464975
 51
138.91711914959751
  0
ARC
  8
_0-1_レイヤ___3
  6
CONTINUOUS
 62
    7
 10
1194.9087118357247
 20
9968.0573796324115
 40
362.76505117262718
 50
108.64440299195788
 51
129.02607158712718
  0
ARC
  8
_0-1_レイヤ___3
  6
CONTINUOUS
 62
    7
 10
1216.8508784280348
 20
9912.7376120308472
 40
422.20788163462692
 50
95.984053405987382
 51
109.06580929539723
  0
ARC
  8
_0-1_レイヤ___3
  6
CONTINUOUS
 62
    7
 10
1227.5785063483647
 20
9838.1757922208417
 40
497.49021243479706
 50
89.877171789659343
 51
96.317584188195951
  0
ARC
  8
_0-1_レイヤ___3
  6
CONTINUOUS
 62
    7
 10
1461.1205275955444
 20
10136.604825622167
 40
100.97057184267894
 50
32.640452692635513
 51
35.497301462540811
  0
ARC
  8
_0-1_レイヤ___3
  6
CONTINUOUS
 62
    7
 10
1372.8578834439213
 20
10074.182553779814
 40
209.07582118488511
 50
35.379367881899604
 51
41.384653441116832
  0
ARC
  8
_0-1_レイヤ___3
  6
CONTINUOUS
 62
    7
 10
1299.3223857357139
 20
10011.574447133708
 40
305.64394410371193
 50
41.077031552933882
 51
51.230071912500513
  0
ARC
  8
_0-1_レイヤ___3
  6
CONTINUOUS
 62
    7
 10
1262.2925590569398
 20
9968.1158798433516
 40
362.71881065871497
 50
50.968264813883259
 51
71.34834178087668
  0
ARC
  8
_0-1_レイヤ___3
  6
CONTINUOUS
 62
    7
 10
1240.4215560883235
 20
9913.0129563069768
 40
421.93378546990107
 50
70.92742247026915
 51
84.012376478250204
  0
ARC
  8
_0-1_レイヤ___3
  6
CONTINUOUS
 62
    7
 10
1229.7120159612969
 20
9838.5477853209923
 40
497.11822129585903
 50
83.680048093082036
 51
90.122979514817999
  0
ARC
  8
_0-1_レイヤ___3
  6
CONTINUOUS
 62
    7
 10
2253.2422545972036
 20
10144.758611797966
 40
85.687131946333949
 50
144.22233369227664
 51
147.28839169838002
  0
ARC
  8
_0-1_レイヤ___3
  6
CONTINUOUS
 62
    7
 10
2315.8333631834594
 20
10100.105046321722
 40
162.57352260625362
 50
139.79746805852093
 51
144.35142471936129
  0
ARC
  8
_0-1_レイヤ___3
  6
CONTINUOUS
 62
    7
 10
2372.0551768374298
 20
10053.353656136809
 40
235.69226138958345
 50
128.64561369218313
 51
139.93931621337404
  0
ARC
  8
_0-1_レイヤ___3
  6
CONTINUOUS
 62
    7
 10
2403.8280903157242
 20
10016.650635541526
 40
284.20673230090256
 50
110.99190648966881
 51
129.02750531113188
  0
ARC
  8
_0-1_レイヤ___3
  6
CONTINUOUS
 62
    7
 10
2421.444866532343
 20
9975.747461760342
 40
328.71106836472364
 50
95.239897760050809
 51
111.30471065578642
  0
ARC
  8
_0-1_レイヤ___3
  6
CONTINUOUS
 62
    7
 10
2430.9585345151199
 20
9909.5217797552323
 40
395.54367739998577
 50
89.900565307281113
 51
95.736139487848533
  0
ARC
  8
_0-1_レイヤ___3
  6
CONTINUOUS
 62
    7
 10
2610.0477174027969
 20
10144.758611797966
 40
85.687131946333949
 50
32.711608301619982
 51
35.777666307723365
  0
ARC
  8
_0-1_レイヤ___3
  6
CONTINUOUS
 62
    7
 10
2547.4566088165411
 20
10100.105046321722
 40
162.57352260625362
 50
35.648575280638724
 51
40.202531941479087
  0
ARC
  8
_0-1_レイヤ___3
  6
CONTINUOUS
 62
    7
 10
2491.2347946625705
 20
10053.353651079997
 40
235.69226502682244
 50
40.060684649250895
 51
51.354387170441797
  0
ARC
  8
_0-1_レイヤ___3
  6
CONTINUOUS
 62
    7
 10
2459.4618806842759
 20
10016.650635541524
 40
284.20673230090301
 50
50.972494688868174
 51
69.00809351033125
  0
ARC
  8
_0-1_レイヤ___3
  6
CONTINUOUS
 62
    7
 10
2441.8451049676569
 20
9975.7474653034842
 40
328.71106488205066
 50
68.695289201023982
 51
84.760102096759596
  0
ARC
  8
_0-1_レイヤ___3
  6
CONTINUOUS
 62
    7
 10
2432.3314369848804
 20
9909.5217699453588
 40
395.5436872107112
 50
84.263860582111889
 51
90.099434762679323
  0
ARC
  8
_0-1_レイヤ___3
  6
CONTINUOUS
 62
    7
 10
2754.242247097161
 20
10237.371096519384
 40
85.687121429294223
 50
212.7115979711987
 51
215.77765597730209
  0
ARC
  8
_0-1_レイヤ___3
  6
CONTINUOUS
 62
    7
 10
2816.8333551834594
 20
10282.024680678278
 40
162.57352260625251
 50
215.64857528063823
 51
220.20253194147855
  0
ARC
  8
_0-1_レイヤ___3
  6
CONTINUOUS
 62
    7
 10
2873.05516933743
 20
10328.776075920005
 40
235.69226502682244
 50
220.06068464925087
 51
231.35438717044178
  0
ARC
  8
_0-1_レイヤ___3
  6
CONTINUOUS
 62
    7
 10
2904.8280833157241
 20
10365.479091458477
 40
284.20673230090335
 50
230.97249468886821
 51
249.00809351033129
  0
ARC
  8
_0-1_レイヤ___3
  6
CONTINUOUS
 62
    7
 10
2922.4448590323432
 20
10406.382261696517
 40
328.71106488204964
 50
248.69528920102391
 51
264.76010209675957
  0
ARC
  8
_0-1_レイヤ___3
  6
CONTINUOUS
 62
    7
 10
2931.9585270151197
 20
10472.607957054643
 40
395.54368721071256
 50
264.26386058211187
 51
270.09943476267932
  0
ARC
  8
_0-1_レイヤ___3
  6
CONTINUOUS
 62
    7
 10
3111.0477094028392
 20
10237.371115202039
 40
85.687131946301804
 50
324.22233369225773
 51
327.28839169836107
  0
ARC
  8
_0-1_レイヤ___3
  6
CONTINUOUS
 62
    7
 10
3048.4566008165402
 20
10282.024680678278
 40
162.57352260625143
 50
319.79746805852193
 51
324.35142471936229
  0
ARC
  8
_0-1_レイヤ___3
  6
CONTINUOUS
 62
    7
 10
2992.2347871625702
 20
10328.77607086319
 40
235.69226138958345
 50
308.64561369218313
 51
319.93931621337401
  0
ARC
  8
_0-1_レイヤ___3
  6
CONTINUOUS
 62
    7
 10
2960.4618736842758
 20
10365.479091458477
 40
284.20673230090335
 50
290.99190648966874
 51
309.02750531113179
  0
ARC
  8
_0-1_レイヤ___3
  6
CONTINUOUS
 62
    7
 10
2942.8450974676571
 20
10406.382265239659
 40
328.71106836472256
 50
275.23989776005084
 51
291.30471065578644
  0
ARC
  8
_0-1_レイヤ___3
  6
CONTINUOUS
 62
    7
 10
2933.3314294848797
 20
10472.607947244771
 40
395.54367739998719
 50
269.90056530728111
 51
275.7361394878485
  0
ARC
  8
_0-1_レイヤ___3
  6
CONTINUOUS
 62
    7
 10
3903.1359024184721
 20
10245.502223718282
 40
100.9301022778378
 50
212.6398798239172
 51
215.49787433129242
  0
ARC
  8
_0-1_レイヤ___3
  6
CONTINUOUS
 62
    7
 10
3991.3695716263919
 20
10307.897661200306
 40
208.99618857862353
 50
215.37822275321037
 51
221.38579856980323
  0
ARC
  8
_0-1_レイヤ___3
  6
CONTINUOUS
 62
    7
 10
4064.9105060690144
 20
10370.546924357084
 40
305.59543296261558
 50
221.08288158398486
 51
231.23889547893262
  0
ARC
  8
_0-1_レイヤ___3
  6
CONTINUOUS
 62
    7
 10
4102.0086688357251
 20
10414.07234736759
 40
362.76505117262622
 50
230.97392841287277
 51
251.35559700804205
  0
ARC
  8
_0-1_レイヤ___3
  6
CONTINUOUS
 62
    7
 10
4123.9508354280351
 20
10469.392114969156
 40
422.20788163462777
 50
250.93419070460283
 51
264.01594659401269
  0
ARC
  8
_0-1_レイヤ___3
  6
CONTINUOUS
 62
    7
 10
4134.6784633483649
 20
10543.953934779158
 40
497.49021243479604
 50
263.68241581180405
 51
270.12282821034069
  0
ARC
  8
_0-1_レイヤ___3
  6
CONTINUOUS
 62
    7
 10
4368.2204845955894
 20
10245.524901377848
 40
100.97057184265014
 50
324.50269853743714
 51
327.35954730734244
  0
ARC
  8
_0-1_レイヤ___3
  6
CONTINUOUS
 62
    7
 10
4279.9578399439215
 20
10307.947182752338
 40
209.07582711155086
 50
318.61534450837905
 51
324.62063006759627
  0
ARC
  8
_0-1_レイヤ___3
  6
CONTINUOUS
 62
    7
 10
4206.4223422357136
 20
10370.555274237853
 40
305.6439400285019
 50
308.76992882127729
 51
318.92296918084389
  0
ARC
  8
_0-1_レイヤ___3
  6
CONTINUOUS
 62
    7
 10
4169.3925160569397
 20
10414.01384715665
 40
362.71881065871611
 50
288.65165821912319
 51
309.03173518611663
  0
ARC
  8
_0-1_レイヤ___3
  6
CONTINUOUS
 62
    7
 10
4147.5215130883234
 20
10469.116770693026
 40
421.93378546990107
 50
275.98762352174981
 51
289.07257752973084
  0
ARC
  8
_0-1_レイヤ___3
  6
CONTINUOUS
 62
    7
 10
4136.8119729612963
 20
10543.581941679005
 40
497.11822129585721
 50
269.87702048518202
 51
276.31995190691799
  0
ARC
  8
_0-1_レイヤ___3
  6
CONTINUOUS
 62
    7
 10
3268.0773129267836
 20
10136.864055111695
 40
100.75331131326293
 50
144.59559624777279
 51
147.4554239348027
  0
ARC
  8
_0-1_レイヤ___3
  6
CONTINUOUS
 62
    7
 10
3356.2484252304803
 20
10074.411363475112
 40
208.80176608438552
 50
138.63276352575616
 51
144.64423277713306
  0
ARC
  8
_0-1_レイヤ___3
  6
CONTINUOUS
 62
    7
 10
3429.7374105803892
 20
10011.8442922704
 40
305.30820552446175
 50
128.77234981341056
 51
138.93522570002384
  0
ARC
  8
_0-1_レイヤ___3
  6
CONTINUOUS
 62
    7
 10
3466.8369067735489
 20
9968.371577944823
 40
362.43800299241201
 50
108.64653575148515
 51
129.04116467412436
  0
ARC
  8
_0-1_レイヤ___3
  6
CONTINUOUS
 62
    7
 10
3488.8272077596912
 20
9912.9762153736719
 40
421.96811429374492
 50
95.984239010059753
 51
109.07079207541342
  0
ARC
  8
_0-1_レイヤ___3
  6
CONTINUOUS
 62
    7
 10
3499.5756037211731
 20
9838.2288048303435
 40
497.43720610568312
 50
89.876828286418601
 51
96.317927691436694
  0
ARC
  8
_0-1_レイヤ___3
  6
CONTINUOUS
 62
    7
 10
3733.2126270732165
 20
10136.864055111695
 40
100.75331131326293
 50
32.544576065197333
 51
35.404403752227225
  0
ARC
  8
_0-1_レイヤ___3
  6
CONTINUOUS
 62
    7
 10
3645.0415147695194
 20
10074.411363475116
 40
208.8017660843839
 50
35.355767222866348
 51
41.367236474243263
  0
ARC
  8
_0-1_レイヤ___3
  6
CONTINUOUS
 62
    7
 10
3571.5525289196112
 20
10011.844286647438
 40
305.30820959523646
 50
41.064775033949537
 51
51.227650920562823
  0
ARC
  8
_0-1_レイヤ___3
  6
CONTINUOUS
 62
    7
 10
3534.4530327264515
 20
9968.3715807244535
 40
362.43800051855209
 50
50.958835110488486
 51
71.353464033127693
  0
ARC
  8
_0-1_レイヤ___3
  6
CONTINUOUS
 62
    7
 10
3512.4627317403092
 20
9912.9762110145057
 40
421.96811857702875
 50
70.929208053815913
 51
84.015761119169582
  0
ARC
  8
_0-1_レイヤ___3
  6
CONTINUOUS
 62
    7
 10
3501.7143352788275
 20
9838.2288048303417
 40
497.43720610568568
 50
83.682072308563335
 51
90.123171713581428
  0
ARC
  8
_0-1_レイヤ___3
  6
CONTINUOUS
 62
    7
 10
4525.3422205972038
 20
10144.758611797966
 40
85.687131946333949
 50
144.22233369227664
 51
147.28839169838002
  0
ARC
  8
_0-1_レイヤ___3
  6
CONTINUOUS
 62
    7
 10
4587.9333291834591
 20
10100.105046321731
 40
162.57352260624702
 50
139.79746805852392
 51
144.35142471936425
  0
ARC
  8
_0-1_レイヤ___3
  6
CONTINUOUS
 62
    7
 10
4644.1551428374296
 20
10053.353656136806
 40
235.69226138958658
 50
128.64561369218239
 51
139.9393162133733
  0
ARC
  8
_0-1_レイヤ___3
  6
CONTINUOUS
 62
    7
 10
4675.9280563157245
 20
10016.650635541526
 40
284.20673230090256
 50
110.99190648966881
 51
129.02750531113188
  0
ARC
  8
_0-1_レイヤ___3
  6
CONTINUOUS
 62
    7
 10
4693.5448325323432
 20
9975.7474617603439
 40
328.71106836472171
 50
95.23989776005088
 51
111.30471065578651
  0
ARC
  8
_0-1_レイヤ___3
  6
CONTINUOUS
 62
    7
 10
4703.0585005151197
 20
9909.5217797552341
 40
395.54367739998446
 50
89.900565307281127
 51
95.736139487848547
  0
ARC
  8
_0-1_レイヤ___3
  6
CONTINUOUS
 62
    7
 10
4882.0522574000679
 20
10144.69365161669
 40
85.802528749314291
 50
32.713670581035714
 51
35.775604028307619
  0
ARC
  8
_0-1_レイヤ___3
  6
CONTINUOUS
 62
    7
 10
4819.3771080191218
 20
10099.843182261238
 40
162.87201205520404
 50
35.686637311100895
 51
40.234408467315632
  0
ARC
  8
_0-1_レイヤ___3
  6
CONTINUOUS
 62
    7
 10
4763.1075883337526
 20
10053.040033641475
 40
236.0603457731514
 50
40.085019287030654
 51
51.364546888739845
  0
ARC
  8
_0-1_レイヤ___3
  6
CONTINUOUS
 62
    7
 10
4730.5795676090074
 20
10015.304495598168
 40
285.85213691888589
 50
50.994118672633938
 51
70.768553175550778
  0
ARC
  8
_0-1_レイヤ___3
  6
CONTINUOUS
 62
    7
 10
4712.3525075039561
 20
9969.9544809317631
 40
334.68285969358885
 50
70.379545261701679
 51
85.909701547331878
  0
ARC
  8
_0-1_レイヤ___3
  6
CONTINUOUS
 62
    7
 10
4704.1991048106629
 20
9903.8590017582137
 40
401.2061167858443
 50
85.42155502647617
 51
90.06485712062026
  0
ARC
  8
_0-1_レイヤ___3
  6
CONTINUOUS
 62
    7
 10
5026.3422135971605
 20
10237.371115202033
 40
85.68713194629882
 50
212.71160830163598
 51
215.77766630773934
  0
ARC
  8
_0-1_レイヤ___3
  6
CONTINUOUS
 62
    7
 10
5088.9333216834584
 20
10282.024668103368
 40
162.57351487113877
 50
215.6485717820467
 51
220.20252844288706
  0
ARC
  8
_0-1_レイヤ___3
  6
CONTINUOUS
 62
    7
 10
5145.1551353374289
 20
10328.776075920005
 40
235.69226502682301
 50
220.06068464925102
 51
231.35438717044192
  0
ARC
  8
_0-1_レイヤ___3
  6
CONTINUOUS
 62
    7
 10
5176.9280493157239
 20
10365.479091458476
 40
284.20673230090256
 50
230.97249468886812
 51
249.00809351033121
  0
ARC
  8
_0-1_レイヤ___3
  6
CONTINUOUS
 62
    7
 10
5194.5448255323436
 20
10406.382265239663
 40
328.71106836472558
 50
248.69528934421368
 51
264.76010223994928
  0
ARC
  8
_0-1_レイヤ___3
  6
CONTINUOUS
 62
    7
 10
5204.0584935151201
 20
10472.607947244769
 40
395.54367739998446
 50
264.26386051215144
 51
270.09943469271889
  0
ARC
  8
_0-1_レイヤ___3
  6
CONTINUOUS
 62
    7
 10
5383.010595812525
 20
10237.39635671735
 40
85.731971558112647
 50
324.22313568968741
 51
327.28758970092554
  0
ARC
  8
_0-1_レイヤ___3
  6
CONTINUOUS
 62
    7
 10
5320.3920047659221
 20
10282.074987124006
 40
162.65530541513715
 50
319.79861352195292
 51
324.35027925592732
  0
ARC
  8
_0-1_レイヤ___3
  6
CONTINUOUS
 62
    7
 10
5264.1763201103695
 20
10328.790502511083
 40
235.74627358302268
 50
308.65641323357414
 51
319.94577183701176
  0
ARC
  8
_0-1_レイヤ___3
  6
CONTINUOUS
 62
    7
 10
5231.6520412381888
 20
10366.508648598377
 40
285.52275923748948
 50
289.23484954955984
 51
309.02520763831461
  0
ARC
  8
_0-1_レイヤ___3
  6
CONTINUOUS
 62
    7
 10
5213.3728799628461
 20
10411.957220456572
 40
334.46393574591821
 50
274.08948010602842
 51
289.62648034847984
  0
ARC
  8
_0-1_レイヤ___3
  6
CONTINUOUS
 62
    7
 10
5205.2006565325382
 20
10478.231147655228
 40
401.16654099227435
 50
269.93491385974318
 51
274.57867413198187
  0
ARC
  8
_0-1_レイヤ___3
  6
CONTINUOUS
 62
    7
 10
6175.1772699267367
 20
10245.265671888299
 40
100.75331131322194
 50
212.54457606520913
 51
215.40440375223901
  0
ARC
  8
_0-1_レイヤ___3
  6
CONTINUOUS
 62
    7
 10
6263.3483817304796
 20
10307.718354002554
 40
208.80176016648289
 50
215.35576517119864
 51
221.36723442257554
  0
ARC
  8
_0-1_レイヤ___3
  6
CONTINUOUS
 62
    7
 10
6336.8373670803885
 20
10370.285440352563
 40
305.30820959523527
 50
221.06477503394933
 51
231.22765092056261
  0
ARC
  8
_0-1_レイヤ___3
  6
CONTINUOUS
 62
    7
 10
6373.9368632735477
 20
10413.758146275548
 40
362.43800051855146
 50
230.95883511048842
 51
251.35346403312761
  0
ARC
  8
_0-1_レイヤ___3
  6
CONTINUOUS
 62
    7
 10
6395.9271642596905
 20
10469.153515985501
 40
421.96811857703369
 50
250.92920805381607
 51
264.01576111916972
  0
ARC
  8
_0-1_レイヤ___3
  6
CONTINUOUS
 62
    7
 10
6406.6755607211735
 20
10543.900922169661
 40
497.43720610568812
 50
263.68207230856331
 51
270.12317171358143
  0
ARC
  8
_0-1_レイヤ___3
  6
CONTINUOUS
 62
    7
 10
6640.3125830732624
 20
10245.265671888299
 40
100.75331131322194
 50
324.59559624776097
 51
327.45542393479087
  0
ARC
  8
_0-1_レイヤ___3
  6
CONTINUOUS
 62
    7
 10
6552.1414712695196
 20
10307.718354002558
 40
208.80176016648622
 50
318.63276557742324
 51
324.64423482880017
  0
ARC
  8
_0-1_レイヤ___3
  6
CONTINUOUS
 62
    7
 10
6478.6524859196106
 20
10370.285440352563
 40
305.30820959523527
 50
308.77234907943739
 51
318.93522496605067
  0
ARC
  8
_0-1_レイヤ___3
  6
CONTINUOUS
 62
    7
 10
6441.5529897264514
 20
10413.758146275548
 40
362.43800051855146
 50
288.64653596687236
 51
309.04116488951161
  0
ARC
  8
_0-1_レイヤ___3
  6
CONTINUOUS
 62
    7
 10
6419.5626887403087
 20
10469.153515985501
 40
421.96811857703369
 50
275.98423888083028
 51
289.07079194618393
  0
ARC
  8
_0-1_レイヤ___3
  6
CONTINUOUS
 62
    7
 10
6408.8142922788284
 20
10543.900922169647
 40
497.43720610567294
 50
269.87682828641869
 51
276.31792769143675
  0
ARC
  8
_0-1_レイヤ___3
  6
CONTINUOUS
 62
    7
 10
5540.1358774185173
 20
10136.627503281741
 40
100.93010227786282
 50
144.50212566873279
 51
147.36012017610801
  0
ARC
  8
_0-1_レイヤ___3
  6
CONTINUOUS
 62
    7
 10
5628.3695471263927
 20
10074.232056271167
 40
208.99619450304266
 50
138.6141993796889
 51
144.62177519628176
  0
ARC
  8
_0-1_レイヤ___3
  6
CONTINUOUS
 62
    7
 10
5701.9104815690162
 20
10011.582808269701
 40
305.59542888809415
 50
128.76110525464961
 51
138.91711914959737
  0
ARC
  8
_0-1_レイヤ___3
  6
CONTINUOUS
 62
    7
 10
5739.008644335725
 20
9968.0573768509767
 40
362.76505364824754
 50
108.64440277668834
 51
129.02607137185763
  0
ARC
  8
_0-1_レイヤ___3
  6
CONTINUOUS
 62
    7
 10
5760.9508109280341
 20
9912.7376163916269
 40
422.2078773497347
 50
95.984053535164293
 51
109.06580942457414
  0
ARC
  8
_0-1_レイヤ___3
  6
CONTINUOUS
 62
    7
 10
5771.6784383483646
 20
9838.1757922208435
 40
497.49021243479604
 50
89.877171789659343
 51
96.317584188195951
  0
ARC
  8
_0-1_レイヤ___3
  6
CONTINUOUS
 62
    7
 10
6005.2204605955449
 20
10136.604825622162
 40
100.97057184268152
 50
32.640452692637687
 51
35.497301462542985
  0
ARC
  8
_0-1_レイヤ___3
  6
CONTINUOUS
 62
    7
 10
5916.9578159439207
 20
10074.182544247664
 40
209.07582711155086
 50
35.379369932403733
 51
41.384655491620954
  0
ARC
  8
_0-1_レイヤ___3
  6
CONTINUOUS
 62
    7
 10
5843.4223182357146
 20
10011.574452762146
 40
305.6439400285019
 50
41.077030819156093
 51
51.230071178722717
  0
ARC
  8
_0-1_レイヤ___3
  6
CONTINUOUS
 62
    7
 10
5806.3924915569396
 20
9968.115877061693
 40
362.71881313437632
 50
50.968265029241259
 51
71.34834199623468
  0
ARC
  8
_0-1_レイヤ___3
  6
CONTINUOUS
 62
    7
 10
5784.5214885883233
 20
9913.0129606666815
 40
421.93378118613651
 50
70.927422340987263
 51
84.012376348968317
  0
ARC
  8
_0-1_レイヤ___3
  6
CONTINUOUS
 62
    7
 10
5773.8119484612971
 20
9838.5477764375537
 40
497.11823018035136
 50
83.680048148512199
 51
90.122979570248162
  0
ARC
  8
_0-1_レイヤ___3
  6
CONTINUOUS
 62
    7
 10
6797.3421865972032
 20
10144.758611797955
 40
85.687131946339932
 50
144.22233369227075
 51
147.28839169837414
  0
ARC
  8
_0-1_レイヤ___3
  6
CONTINUOUS
 62
    7
 10
6859.9332951834594
 20
10100.105046321725
 40
162.57352260625143
 50
139.79746805852193
 51
144.35142471936226
  0
ARC
  8
_0-1_レイヤ___3
  6
CONTINUOUS
 62
    7
 10
6916.1551093374292
 20
10053.353651079999
 40
235.69226502682088
 50
128.64561282955856
 51
139.93931535074947
  0
ARC
  8
_0-1_レイヤ___3
  6
CONTINUOUS
 62
    7
 10
6947.9280228157231
 20
10016.650638692066
 40
284.20672953857724
 50
110.99190681131051
 51
129.0275056327736
  0
ARC
  8
_0-1_レイヤ___3
  6
CONTINUOUS
 62
    7
 10
6965.5447985323426
 20
9975.7474617603402
 40
328.71106836472558
 50
95.239897760050724
 51
111.30471065578634
  0
ARC
  8
_0-1_レイヤ___3
  6
CONTINUOUS
 62
    7
 10
6975.0584670151202
 20
9909.5217699453515
 40
395.54368721071808
 50
89.900565237320635
 51
95.736139417888069
  0
ARC
  8
_0-1_レイヤ___3
  6
CONTINUOUS
 62
    7
 10
7154.1476494027975
 20
10144.758611797955
 40
85.687131946339932
 50
32.711608301625859
 51
35.777666307729241
  0
ARC
  8
_0-1_レイヤ___3
  6
CONTINUOUS
 62
    7
 10
7091.5565408165412
 20
10100.105046321725
 40
162.57352260625143
 50
35.648575280637729
 51
40.202531941478085
  0
ARC
  8
_0-1_レイヤ___3
  6
CONTINUOUS
 62
    7
 10
7035.3347266625697
 20
10053.353651079993
 40
235.69226502682505
 50
40.060684649251506
 51
51.354387170442408
  0
ARC
  8
_0-1_レイヤ___3
  6
CONTINUOUS
 62
    7
 10
7003.5618131842766
 20
10016.650638692066
 40
284.20672953857724
 50
50.972494367226417
 51
69.008093188689486
  0
ARC
  8
_0-1_レイヤ___3
  6
CONTINUOUS
 62
    7
 10
6985.945037467658
 20
9975.7474617603439
 40
328.71106836472171
 50
68.695289344213506
 51
84.760102239949134
  0
ARC
  8
_0-1_レイヤ___3
  6
CONTINUOUS
 62
    7
 10
6976.4313694848806
 20
9909.5217797552341
 40
395.54367739998446
 50
84.263860512151453
 51
90.099434692718887
  0
LINE
  8
_0-1_レイヤ___3
  6
CONTINUOUS
 62
    7
 10
2311.9122742030058
 20
523.93375301783499
 11
1370.912288203006
 21
1069.1337430178351
  0
LINE
  8
_0-1_レイヤ___3
  6
CONTINUOUS
 62
    7
 10
2311.9122742030058
 20
536.53375101783502
 11
1370.912288203006
 21
1081.733743017835
  0
LINE
  8
_0-1_レイヤ___3
  6
CONTINUOUS
 62
    7
 10
1370.912288203006
 20
1069.1337430178351
 11
1370.912288203006
 21
1081.9337430178348
  0
LINE
  8
_0-1_レイヤ___3
  6
CONTINUOUS
 62
    7
 10
1766.112282203007
 20
840.13374701783482
 11
1766.112282203007
 21
852.73374701783473
  0
LINE
  8
_0-1_レイヤ___3
  6
CONTINUOUS
 62
    7
 10
1799.5122822030066
 20
871.93374701783455
 11
1766.112282203007
 21
852.73374701783473
  0
LINE
  8
_0-1_レイヤ___3
  6
CONTINUOUS
 62
    7
 10
1792.712282203006
 20
868.33374701783464
 11
1765.9122822030058
 21
852.93374701783455
  0
LINE
  8
_0-1_レイヤ___3
  6
CONTINUOUS
 62
    7
 10
2073.5122782030062
 20
1030.5337450178349
 11
1956.5122802030066
 21
962.93374501783489
  0
LINE
  8
_0-1_レイヤ___3
  6
CONTINUOUS
 62
    7
 10
1683.5122842030064
 20
1262.1337410178348
 11
1370.912288203006
 21
1081.733743017835
  0
LINE
  8
_0-1_レイヤ___3
  6
CONTINUOUS
 62
    7
 10
1804.5122822030066
 20
962.53374501783469
 11
1596.7122862030067
 21
1082.5337430178351
  0
LINE
  8
_0-1_レイヤ___3
  6
CONTINUOUS
 62
    7
 10
2309.112274203007
 20
671.13374901783459
 11
1968.1122802030063
 21
868.13374701783482
  0
LINE
  8
_0-1_レイヤ___3
  6
CONTINUOUS
 62
    7
 10
1479.1122882030061
 20
1022.1337450178348
 11
1788.3122822030066
 21
1200.7337410178345
  0
ARC
  8
_0-1_レイヤ___3
  6
CONTINUOUS
 62
    7
 10
1478.3025829573387
 20
1081.7799572976519
 40
19.461527608250076
 50
241.1508294066752
 51
261.87578861074769
  0
ARC
  8
_0-1_レイヤ___3
  6
CONTINUOUS
 62
    7
 10
1479.5120436662182
 20
1087.3457736189218
 40
25.145761228756548
 50
260.9398026372794
 51
295.94187999860071
  0
ARC
  8
_0-1_レイヤ___3
  6
CONTINUOUS
 62
    7
 10
1485.2724655370212
 20
1073.9389179416185
 40
10.59202468598064
 50
299.64964661579529
 51
328.17679047821974
  0
ARC
  8
_0-1_レイヤ___3
  6
CONTINUOUS
 62
    7
 10
1489.1792266144425
 20
1071.1061125186752
 40
5.7891980631217157
 50
331.61252453777081
 51
42.721952919249638
  0
ARC
  8
_0-1_レイヤ___3
  6
CONTINUOUS
 62
    7
 10
1485.5271841799743
 20
1068.0012631277225
 40
10.580474612218676
 50
41.656693528012894
 51
61.890332290055653
  0
ARC
  8
_0-1_レイヤ___3
  6
CONTINUOUS
 62
    7
 10
1481.010051640493
 20
1061.1196537063574
 40
18.793328387769169
 50
59.627645037641159
 51
81.23972245514949
  0
ARC
  8
_0-1_レイヤ___3
  6
CONTINUOUS
 62
    7
 10
1479.9201548773085
 20
1056.1506559637851
 40
23.872501039033661
 50
80.470714190468868
 51
117.45880492449565
  0
ARC
  8
_0-1_レイヤ___3
  6
CONTINUOUS
 62
    7
 10
1473.7286860256022
 20
1068.3791336226566
 40
10.167729215794672
 50
118.27438569977402
 51
146.88659586691313
  0
ARC
  8
_0-1_レイヤ___3
  6
CONTINUOUS
 62
    7
 10
1470.2244984640042
 20
1071.0708396122675
 40
5.7722151389276419
 50
150.26560496129346
 51
221.66336924121185
  0
ARC
  8
_0-1_レイヤ___3
  6
CONTINUOUS
 62
    7
 10
1474.3103752527247
 20
1074.2614474774975
 40
10.950639071169316
 50
219.92333615039107
 51
240.4655216650807
  0
ARC
  8
_0-1_レイヤ___3
  6
CONTINUOUS
 62
    7
 10
1479.3614244260391
 20
1080.5439855880227
 40
11.211544626532612
 50
243.23376031847795
 51
270.87322065024114
  0
ARC
  8
_0-1_レイヤ___3
  6
CONTINUOUS
 62
    7
 10
1479.7668759808971
 20
1081.8164098506404
 40
12.484870951850468
 50
268.92336247029908
 51
295.35028644028944
  0
ARC
  8
_0-1_レイヤ___3
  6
CONTINUOUS
 62
    7
 10
1482.9116623438972
 20
1074.5928062381654
 40
4.6172230180510354
 50
298.4643868689401
 51
341.57853521545701
  0
ARC
  8
_0-1_レイヤ___3
  6
CONTINUOUS
 62
    7
 10
1484.5156696839804
 20
1073.7444944580502
 40
2.8429962578107566
 50
347.59464094294731
 51
37.462974475394013
  0
ARC
  8
_0-1_レイヤ___3
  6
CONTINUOUS
 62
    7
 10
1482.4976485781417
 20
1072.2872349512095
 40
5.3316392958569665
 50
36.702497714021277
 51
60.633078397020732
  0
ARC
  8
_0-1_レイヤ___3
  6
CONTINUOUS
 62
    7
 10
1479.7122882030067
 20
1067.1596865659399
 40
11.166565251894763
 50
61.080096036424578
 51
118.91990396357544
  0
ARC
  8
_0-1_レイヤ___3
  6
CONTINUOUS
 62
    7
 10
1476.5129140621161
 20
1072.8746797975034
 40
4.6172230180515328
 50
118.46438686893273
 51
161.57853521544968
  0
ARC
  8
_0-1_レイヤ___3
  6
CONTINUOUS
 62
    7
 10
1474.9089067220325
 20
1073.7229915776179
 40
2.8429962578109573
 50
167.59464094291857
 51
217.46297447536529
  0
ARC
  8
_0-1_レイヤ___3
  6
CONTINUOUS
 62
    7
 10
1476.9269278278698
 20
1075.1802510844641
 40
5.331639295859377
 50
216.70249771405875
 51
240.63307839705823
  0
ARC
  8
_0-1_レイヤ___3
  6
CONTINUOUS
 62
    7
 10
1479.7122882030067
 20
1076.2523992916433
 40
3.4184816738083965
 50
245.82414998074796
 51
294.17585001925204
  0
ARC
  8
_0-1_レイヤ___3
  6
CONTINUOUS
 62
    7
 10
1480.5301540974108
 20
1073.933743017835
 40
0.9893837055949751
 50
306.04216947690776
 51
53.957830523092241
  0
ARC
  8
_0-1_レイヤ___3
  6
CONTINUOUS
 62
    7
 10
1479.7122882030067
 20
1071.6150867440263
 40
3.4184816738083965
 50
65.82414998074799
 51
114.17585001925202
  0
ARC
  8
_0-1_レイヤ___3
  6
CONTINUOUS
 62
    7
 10
1478.8944223086019
 20
1073.933743017835
 40
0.9893837055949751
 50
126.04216947690773
 51
233.95783052309227
  0
LINE
  8
_0-1_レイヤ___3
  6
CONTINUOUS
 62
    7
 10
1783.5122822030064
 20
1205.7337410178345
 11
1487.3122882030066
 21
1034.3337450178351
  0
LINE
  8
_0-1_レイヤ___3
  6
CONTINUOUS
 62
    7
 10
1381.9122882030065
 20
1095.5337430178349
 11
1587.9122862030067
 21
1211.7337410178345
  0
LINE
  8
_0-1_レイヤ___3
  6
CONTINUOUS
 62
    7
 10
1477.1122882030063
 20
1029.7337450178347
 11
1444.312288203007
 21
1048.7337450178347
  0
LINE
  8
_0-1_レイヤ___3
  6
CONTINUOUS
 62
    7
 10
1444.312288203007
 20
1048.7337450178347
 11
1373.1122882030058
 21
1089.9337430178346
  0
LINE
  8
_0-1_レイヤ___3
  6
CONTINUOUS
 62
    7
 10
1373.1122882030058
 20
1089.9337430178346
 11
1373.5122882030066
 21
1172.3337430178346
  0
LINE
  8
_0-1_レイヤ___3
  6
CONTINUOUS
 62
    7
 10
1373.5122882030066
 20
1172.3337430178346
 11
1373.7122882030064
 21
1210.1337410178348
  0
ARC
  8
_0-1_レイヤ___3
  6
CONTINUOUS
 62
    7
 10
1369.3893794827659
 20
1210.0176534794664
 40
4.3244671486898492
 50
1.5382531254966931
 51
24.249234964271004
  0
ARC
  8
_0-1_レイヤ___3
  6
CONTINUOUS
 62
    7
 10
1366.6073901925915
 20
1208.7484739545262
 40
7.3822696196598967
 50
24.362666734977793
 51
59.876578159324524
  0
ARC
  8
_0-1_レイヤ___3
  6
CONTINUOUS
 62
    7
 10
1368.3115900829653
 20
1212.3868456874084
 40
3.3982682242363023
 50
53.932319166465788
 51
82.208505333207881
  0
ARC
  8
_0-1_レイヤ___3
  6
CONTINUOUS
 62
    7
 10
1368.6309364373926
 20
1214.2380891233397
 40
1.5222289535177573
 50
84.671928977381114
 51
183.93068225665019
  0
LINE
  8
_0-1_レイヤ___3
  6
CONTINUOUS
 62
    7
 10
1367.1122882030063
 20
1214.1337410178346
 11
1366.9122882030065
 21
1200.1337410178348
  0
LINE
  8
_0-1_レイヤ___3
  6
CONTINUOUS
 62
    7
 10
1366.9122882030065
 20
1200.1337410178348
 11
1369.312288203007
 21
1198.7337410178347
  0
LINE
  8
_0-1_レイヤ___3
  6
CONTINUOUS
 62
    7
 10
1369.312288203007
 20
1198.7337410178347
 11
1369.5122882030068
 21
1212.5337410178349
  0
ARC
  8
_0-1_レイヤ___3
  6
CONTINUOUS
 62
    7
 10
1369.9985936795729
 20
1212.5611300647029
 40
0.4870761505415172
 50
49.906571550691012
 51
183.22353080348131
  0
ARC
  8
_0-1_レイヤ___3
  6
CONTINUOUS
 62
    7
 10
1369.7776871503579
 20
1211.4947402659425
 40
1.5350965602986575
 50
1.4558165266708802
 51
69.619539057284456
  0
LINE
  8
_0-1_レイヤ___3
  6
CONTINUOUS
 62
    7
 10
1371.312288203007
 20
1211.5337410178347
 11
1371.1122882030058
 21
1173.5337430178351
  0
LINE
  8
_0-1_レイヤ___3
  6
CONTINUOUS
 62
    7
 10
1371.1122882030058
 20
1173.5337430178351
 11
1370.7122882030062
 21
1088.3337430178346
  0
LINE
  8
_0-1_レイヤ___3
  6
CONTINUOUS
 62
    7
 10
1370.7122882030062
 20
1088.3337430178346
 11
1444.312288203007
 21
1045.933745017835
  0
LINE
  8
_0-1_レイヤ___3
  6
CONTINUOUS
 62
    7
 10
1444.312288203007
 20
1045.933745017835
 11
1477.1122882030063
 21
1026.933745017835
  0
ARC
  8
_0-1_レイヤ___3
  6
CONTINUOUS
 62
    7
 10
1476.2256168894301
 20
1025.4985042672201
 40
1.6870394276792557
 50
1.1969448472078281
 51
58.292817746666607
  0
ARC
  8
_0-1_レイヤ___3
  6
CONTINUOUS
 62
    7
 10
1477.335108147799
 20
1025.4699850914446
 40
0.5806910920122961
 50
247.43600429723102
 51
6.3037909944700514
  0
LINE
  8
_0-1_レイヤ___3
  6
CONTINUOUS
 62
    7
 10
1477.1122882030063
 20
1024.9337450178348
 11
1465.1122882030063
 21
1031.933745017835
  0
LINE
  8
_0-1_レイヤ___3
  6
CONTINUOUS
 62
    7
 10
1465.1122882030063
 20
1031.933745017835
 11
1465.1122882030063
 21
1028.9337450178348
  0
LINE
  8
_0-1_レイヤ___3
  6
CONTINUOUS
 62
    7
 10
1465.1122882030063
 20
1028.9337450178348
 11
1477.1122882030063
 21
1022.1337450178348
  0
ARC
  8
_0-1_レイヤ___3
  6
CONTINUOUS
 62
    7
 10
1478.0724175558555
 20
1023.566919148368
 40
1.7250612924279611
 50
236.1805999843283
 51
339.88797114994082
  0
ARC
  8
_0-1_レイヤ___3
  6
CONTINUOUS
 62
    7
 10
1476.0519765363229
 20
1024.2604130815644
 40
3.861008124416748
 50
340.53404650348551
 51
1.0882813417587098
  0
ARC
  8
_0-1_レイヤ___3
  6
CONTINUOUS
 62
    7
 10
1473.1638114375914
 20
1024.2604607691007
 40
6.7488746643023152
 50
0.6221719748797437
 51
54.192978900765169
  0
LINE
  8
_0-1_レイヤ___3
  6
CONTINUOUS
 62
    7
 10
1368.1122882030058
 20
1215.7337410178345
 11
1585.9122862030063
 21
1339.3337390178349
  0
ARC
  8
_0-1_レイヤ___3
  6
CONTINUOUS
 62
    7
 10
1418.7076355178278
 20
1185.1130389485643
 40
18.996629435162159
 50
157.85535939029245
 51
179.33431895224339
  0
ARC
  8
_0-1_レイヤ___3
  6
CONTINUOUS
 62
    7
 10
1424.4282390524984
 20
1183.2161232884609
 40
25.013477150886025
 50
123.25337091264183
 51
158.7701907410989
  0
ARC
  8
_0-1_レイヤ___3
  6
CONTINUOUS
 62
    7
 10
1415.8253673772447
 20
1195.5274255751006
 40
10.010606582114523
 50
91.677680507987205
 51
120.71487736571183
  0
ARC
  8
_0-1_レイヤ___3
  6
CONTINUOUS
 62
    7
 10
1415.3812600769293
 20
1199.7215690481105
 40
5.8141338564326981
 50
17.953438566674272
 51
88.511515582518342
  0
ARC
  8
_0-1_レイヤ___3
  6
CONTINUOUS
 62
    7
 10
1410.9143635918049
 20
1197.9891499448424
 40
10.601001781109375
 50
358.61945546635764
 51
19.419198783792702
  0
ARC
  8
_0-1_レイヤ___3
  6
CONTINUOUS
 62
    7
 10
1400.773201629188
 20
1198.0558240182331
 40
20.741587405190781
 50
329.32373677529671
 51
359.11025982118269
  0
ARC
  8
_0-1_レイヤ___3
  6
CONTINUOUS
 62
    7
 10
1398.3473639330505
 20
1198.5832379343026
 40
23.110344717594799
 50
301.76148527002994
 51
331.26787408599751
  0
ARC
  8
_0-1_レイヤ___3
  6
CONTINUOUS
 62
    7
 10
1405.2404181073825
 20
1187.7930581990204
 40
10.309223044668595
 50
272.5121725023285
 51
300.75540411207015
  0
ARC
  8
_0-1_レイヤ___3
  6
CONTINUOUS
 62
    7
 10
1405.7632425878223
 20
1183.2158873872586
 40
5.7225842684275161
 50
197.72406426374243
 51
269.28957080051629
  0
ARC
  8
_0-1_レイヤ___3
  6
CONTINUOUS
 62
    7
 10
1410.6091247272752
 20
1185.0509196796381
 40
10.900506193625016
 50
178.51324314533906
 51
199.15750328156017
  0
ARC
  8
_0-1_レイヤ___3
  6
CONTINUOUS
 62
    7
 10
1418.9918520767792
 20
1186.5901637711997
 40
11.484704324916247
 50
121.96234506592805
 51
178.28566955069704
  0
ARC
  8
_0-1_レイヤ___3
  6
CONTINUOUS
 62
    7
 10
1415.3817485071609
 20
1192.6263145098064
 40
4.4545774587424853
 50
80.039043270216936
 51
123.6669650652791
  0
ARC
  8
_0-1_レイヤ___3
  6
CONTINUOUS
 62
    7
 10
1415.3786782452271
 20
1194.4263171887501
 40
2.7006008197788969
 50
21.446476539005719
 51
73.353952382705074
  0
ARC
  8
_0-1_レイヤ___3
  6
CONTINUOUS
 62
    7
 10
1412.8632825029313
 20
1193.3086630204516
 40
5.4518125542583107
 50
358.16136411099978
 51
22.713586591252895
  0
ARC
  8
_0-1_レイヤ___3
  6
CONTINUOUS
 62
    7
 10
1407.9117041960853
 20
1193.3817010279208
 40
10.403539342925585
 50
330.34161977011883
 51
358.63428277474156
  0
ARC
  8
_0-1_レイヤ___3
  6
CONTINUOUS
 62
    7
 10
1406.110130284665
 20
1193.9040803489675
 40
12.235404111637333
 50
303.7755255221129
 51
332.39089449771024
  0
ARC
  8
_0-1_レイヤ___3
  6
CONTINUOUS
 62
    7
 10
1410.6023969063756
 20
1187.6615147079879
 40
4.5566422124426769
 50
257.45014125466383
 51
300.45944700304182
  0
ARC
  8
_0-1_レイヤ___3
  6
CONTINUOUS
 62
    7
 10
1410.5161659499925
 20
1185.8991062938198
 40
2.8334027079653752
 50
199.92002170203608
 51
251.39706465307432
  0
ARC
  8
_0-1_レイヤ___3
  6
CONTINUOUS
 62
    7
 10
1412.6921174472518
 20
1186.7854139893575
 40
5.1819525760304961
 50
178.35973252127533
 51
200.93635811094779
  0
ARC
  8
_0-1_レイヤ___3
  6
CONTINUOUS
 62
    7
 10
1414.4081077998976
 20
1189.1636760016322
 40
2.7011786481056292
 50
118.66736236929796
 51
176.3902530490376
  0
ARC
  8
_0-1_レイヤ___3
  6
CONTINUOUS
 62
    7
 10
1413.5627577158516
 20
1190.9346820435253
 40
0.7495310753694989
 50
359.92821882271187
 51
126.94167882314301
  0
ARC
  8
_0-1_レイヤ___3
  6
CONTINUOUS
 62
    7
 10
1411.1437177347257
 20
1191.0180282519766
 40
3.1696912804180672
 50
308.39362883911122
 51
358.47626880667849
  0
ARC
  8
_0-1_レイヤ___3
  6
CONTINUOUS
 62
    7
 10
1412.6517345380926
 20
1189.3527741042362
 40
0.9396390789853568
 50
181.16052590530992
 51
299.3497115007994
  0
LINE
  8
_0-1_レイヤ___3
  6
CONTINUOUS
 62
    7
 10
1587.9122862030067
 20
1333.3337390178349
 11
1382.7122882030062
 21
1216.5337410178347
  0
LINE
  8
_0-1_レイヤ___3
  6
CONTINUOUS
 62
    7
 10
1683.3122842030066
 20
1262.9337410178348
 11
1592.1122862030063
 21
1209.5337410178349
  0
LINE
  8
_0-1_レイヤ___3
  6
CONTINUOUS
 62
    7
 10
1794.112282203007
 20
1211.7337410178345
 11
2309.7122742030065
 21
1509.5337370178347
  0
LINE
  8
_0-1_レイヤ___3
  6
CONTINUOUS
 62
    7
 10
1700.712284203006
 20
1273.7337410178347
 11
2183.912276203007
 21
1552.5337370178349
  0
LINE
  8
_0-1_レイヤ___3
  6
CONTINUOUS
 62
    7
 10
1606.1122862030061
 20
1346.733739017835
 11
1964.1122802030059
 21
1552.7337370178348
  0
LINE
  8
_0-1_レイヤ___3
  6
CONTINUOUS
 62
    7
 10
2009.9122802030065
 20
1552.1337370178346
 11
1682.1122842030063
 21
1362.9337390178348
  0
LINE
  8
_0-1_レイヤ___3
  6
CONTINUOUS
 62
    7
 10
1682.1122842030063
 20
1362.9337390178348
 11
1682.1122842030063
 21
1361.733739017835
  0
ARC
  8
_0-1_レイヤ___3
  6
CONTINUOUS
 62
    7
 10
1708.1801942562056
 20
1367.2829351921423
 40
26.652007667765474
 50
192.01743395094633
 51
210.057588099898
  0
ARC
  8
_0-1_レイヤ___3
  6
CONTINUOUS
 62
    7
 10
1661.5710034135323
 20
1334.9597898926786
 40
30.235784207010298
 50
25.451949209950055
 51
38.868337471264496
  0
ARC
  8
_0-1_レイヤ___3
  6
CONTINUOUS
 62
    7
 10
1681.5393347724171
 20
1344.5044507978366
 40
8.103686604022144
 50
8.5821283063409695
 51
25.191453941516325
  0
ARC
  8
_0-1_レイヤ___3
  6
CONTINUOUS
 62
    7
 10
1686.0001259028859
 20
1345.1397682834031
 40
3.598231648059401
 50
329.87280327071124
 51
9.1787270728463337
  0
LINE
  8
_0-1_レイヤ___3
  6
CONTINUOUS
 62
    7
 10
1689.1122842030063
 20
1343.3337390178349
 11
2051.5122782030062
 21
1552.5337370178349
  0
LINE
  8
_0-1_レイヤ___3
  6
CONTINUOUS
 62
    7
 10
1686.5122842030064
 20
1342.733739017835
 11
1686.5122842030064
 21
1347.9337390178348
  0
LINE
  8
_0-1_レイヤ___3
  6
CONTINUOUS
 62
    7
 10
1686.5122842030064
 20
1347.9337390178348
 11
1681.9122842030065
 21
1350.733739017835
  0
LINE
  8
_0-1_レイヤ___3
  6
CONTINUOUS
 62
    7
 10
1681.9122842030065
 20
1350.733739017835
 11
1681.9122842030065
 21
1362.733739017835
  0
ARC
  8
_0-1_レイヤ___3
  6
CONTINUOUS
 62
    7
 10
1711.1752393926417
 20
1368.392995450429
 40
29.805162804461585
 50
190.94549167594081
 51
209.02072136785736
  0
ARC
  8
_0-1_レイヤ___3
  6
CONTINUOUS
 62
    7
 10
1663.7266954535869
 20
1335.8974998262902
 40
27.975870501807726
 50
25.618769383286924
 51
40.14370994726395
  0
ARC
  8
_0-1_レイヤ___3
  6
CONTINUOUS
 62
    7
 10
1683.2125812937393
 20
1345.1389259567018
 40
6.4104716753660282
 50
352.78430810657636
 51
26.444830435229903
  0
ARC
  8
_0-1_レイヤ___3
  6
CONTINUOUS
 62
    7
 10
1686.2360229546175
 20
1345.0958544388454
 40
3.4222009047462274
 50
316.35145766248502
 51
347.13248310805727
  0
ARC
  8
_0-1_レイヤ___3
  6
CONTINUOUS
 62
    7
 10
1687.342688921156
 20
1343.8688404765412
 40
1.778832920097368
 50
279.36949763486024
 51
320.34853469498216
  0
ARC
  8
_0-1_レイヤ___3
  6
CONTINUOUS
 62
    7
 10
1687.5540595445727
 20
1343.2940428606648
 40
1.1828931729391476
 50
208.27294497741303
 51
273.7917337304462
  0
LINE
  8
_0-1_レイヤ___3
  6
CONTINUOUS
 62
    7
 10
2307.3122742030064
 20
901.73374701783473
 11
1799.9122822030063
 21
1194.5337430178349
  0
ARC
  8
_0-1_レイヤ___3
  6
CONTINUOUS
 62
    7
 10
1804.7247608225503
 20
1203.6672652666612
 40
10.323816112919243
 50
227.51648647840418
 51
242.21512740776623
  0
ARC
  8
_0-1_レイヤ___3
  6
CONTINUOUS
 62
    7
 10
1811.3128361780155
 20
1210.9096745826141
 40
20.114356235448838
 50
206.50302954162527
 51
227.61004558117119
  0
ARC
  8
_0-1_レイヤ___3
  6
CONTINUOUS
 62
    7
 10
1779.7691626524863
 20
1193.8840575400682
 40
15.754792643888161
 50
30.726165664173784
 51
42.135550576162387
  0
ARC
  8
_0-1_レイヤ___3
  6
CONTINUOUS
 62
    7
 10
1769.3025971260579
 20
1184.7005131428025
 40
29.678250630570382
 50
41.726779433082747
 51
60.510169087934635
  0
LINE
  8
_0-1_レイヤ___3
  6
CONTINUOUS
 62
    7
 10
1783.912282203006
 20
1210.5337410178347
 11
1688.3122842030066
 21
1265.933741017835
  0
ARC
  8
_0-1_レイヤ___3
  6
CONTINUOUS
 62
    7
 10
1690.445756890153
 20
1269.1481667617736
 40
3.8580096643343715
 50
186.4654230837773
 51
236.42704872076837
  0
ARC
  8
_0-1_レイヤ___3
  6
CONTINUOUS
 62
    7
 10
1702.9877154541036
 20
1270.5368811787794
 40
16.476607317827188
 50
179.31542300628999
 51
186.352799026318
  0
LINE
  8
_0-1_レイヤ___3
  6
CONTINUOUS
 62
    7
 10
1686.5122842030064
 20
1270.7337410178345
 11
1686.5122842030064
 21
1347.9337390178348
  0
LINE
  8
_0-1_レイヤ___3
  6
CONTINUOUS
 62
    7
 10
1686.5122842030064
 20
1347.9337390178348
 11
1682.1122842030063
 21
1350.9337390178348
  0
ARC
  8
_0-1_レイヤ___3
  6
CONTINUOUS
 62
    7
 10
-11417.957907464361
 20
1344.9669983511378
 40
13100.071550514753
 50
359.68232231374731
 51
0.0260967329951579
  0
ARC
  8
_0-1_レイヤ___3
  6
CONTINUOUS
 62
    7
 10
1699.1677897184184
 20
1270.6656447402988
 40
17.335945771244663
 50
174.47835278933638
 51
192.02553841137293
  0
ARC
  8
_0-1_レイヤ___3
  6
CONTINUOUS
 62
    7
 10
1690.1146644267355
 20
1269.030379503108
 40
8.1458402207422154
 50
194.04336355527624
 51
228.45506358450615
  0
LINE
  8
_0-1_レイヤ___3
  6
CONTINUOUS
 62
    7
 10
1592.3122862030061
 20
1250.3337410178349
 11
1592.3122862030061
 21
1331.1337410178348
  0
ARC
  8
_0-1_レイヤ___3
  6
CONTINUOUS
 62
    7
 10
1575.2999250716221
 20
1331.7658699174024
 40
17.024101098451549
 50
357.87203767003973
 51
8.6073669885509272
  0
ARC
  8
_0-1_レイヤ___3
  6
CONTINUOUS
 62
    7
 10
1564.8149525450481
 20
1330.7189577900065
 40
27.552843233615899
 50
7.4966724716732314
 51
26.316029906379917
  0
ARC
  8
_0-1_レイヤ___3
  6
CONTINUOUS
 62
    7
 10
1604.6315246230233
 20
1352.9217503178402
 40
18.120478474101127
 50
179.32969016760342
 51
213.44939050046656
  0
LINE
  8
_0-1_レイヤ___3
  6
CONTINUOUS
 62
    7
 10
1586.5122862030057
 20
1353.1337390178351
 11
1586.5122862030057
 21
1552.1337370178346
  0
LINE
  8
_0-1_レイヤ___3
  6
CONTINUOUS
 62
    7
 10
1586.5122862030057
 20
1552.1337370178346
 11
1581.9122862030065
 21
1552.1337370178346
  0
LINE
  8
_0-1_レイヤ___3
  6
CONTINUOUS
 62
    7
 10
1581.9122862030065
 20
1552.1337370178346
 11
1581.9122862030065
 21
1353.5337390178349
  0
ARC
  8
_0-1_レイヤ___3
  6
CONTINUOUS
 62
    7
 10
1614.0121143771535
 20
1352.0822462784349
 40
32.132628276913387
 50
177.41095822860328
 51
188.49820141951247
  0
ARC
  8
_0-1_レイヤ___3
  6
CONTINUOUS
 62
    7
 10
1593.1357475010486
 20
1349.110538353327
 40
11.047284017192196
 50
189.25541536858887
 51
221.89347417561711
  0
ARC
  8
_0-1_レイヤ___3
  6
CONTINUOUS
 62
    7
 10
1572.5010032291975
 20
1332.5654236700459
 40
15.430422916189491
 50
2.8540654648088175
 51
36.453582651299016
  0
LINE
  8
_0-1_レイヤ___3
  6
CONTINUOUS
 62
    7
 10
1587.9122862030067
 20
1333.3337390178349
 11
1588.1122862030065
 21
1250.3337410178349
  0
ARC
  8
_0-1_レイヤ___3
  6
CONTINUOUS
 62
    7
 10
5780.3002914183617
 20
1187.2033409629767
 40
4192.6633204304135
 50
179.13724477730327
 51
179.65657283393676
  0
LINE
  8
_0-1_レイヤ___3
  6
CONTINUOUS
 62
    7
 10
1587.7122862030069
 20
1212.3337410178351
 11
1592.1122862030063
 21
1209.3337410178351
  0
ARC
  8
_0-1_レイヤ___3
  6
CONTINUOUS
 62
    7
 10
18590.547730660277
 20
1146.9150315327529
 40
16998.550045656102
 50
179.65141190773772
 51
179.78960931117334
  0
LINE
  8
_0-1_レイヤ___3
  6
CONTINUOUS
 62
    7
 10
1684.7122842030058
 20
1262.9337410178348
 11
1783.5122822030064
 21
1205.7337410178345
  0
ARC
  8
_0-1_レイヤ___3
  6
CONTINUOUS
 62
    7
 10
1774.0086361647532
 20
1191.5700949795803
 40
17.056616227064779
 50
33.86116369585519
 51
56.138836304148285
  0
ARC
  8
_0-1_レイヤ___3
  6
CONTINUOUS
 62
    7
 10
1778.2555028443824
 20
1194.7947972277348
 40
11.737446398892379
 50
19.608285587698017
 51
32.340502337173135
  0
ARC
  8
_0-1_レイヤ___3
  6
CONTINUOUS
 62
    7
 10
1799.6651029462282
 20
1202.9642765789949
 40
11.183842294825103
 50
202.22669383074239
 51
230.50649138435779
  0
ARC
  8
_0-1_レイヤ___3
  6
CONTINUOUS
 62
    7
 10
1807.9959552715495
 20
1212.3201651588399
 40
23.706927664345109
 50
229.34963782223727
 51
237.82623337071175
  0
ARC
  8
_0-1_レイヤ___3
  6
CONTINUOUS
 62
    7
 10
1840.7184761222716
 20
1264.7584861393525
 40
85.517337879992965
 50
237.97715782685282
 51
241.04092441162823
  0
LINE
  8
_0-1_レイヤ___3
  6
CONTINUOUS
 62
    7
 10
1799.3122822030068
 20
1189.9337430178346
 11
2307.9122742030058
 21
896.33374701783487
  0
ARC
  8
_0-2_決定
  6
CONTINUOUS
 62
    7
 10
839.93824036630429
 20
1173.6855607988259
 40
5.7281713847232405
 50
321.67938402193118
 51
37.011055173531808
  0
ARC
  8
_0-2_決定
  6
CONTINUOUS
 62
    7
 10
834.14273574912272
 20
1177.3885371404876
 40
12.589959971986017
 50
300.07664908794885
 51
324.8137308203593
  0
ARC
  8
_0-2_決定
  6
CONTINUOUS
 62
    7
 10
828.54056723697022
 20
1185.967242054659
 40
22.827756168697363
 50
277.48002348488944
 51
301.45367507080033
  0
ARC
  8
_0-2_決定
  6
CONTINUOUS
 62
    7
 10
821.62146376580927
 20
1185.545622326141
 40
24.31452546745431
 50
267.52693391110188
 51
294.00315720643908
  0
ARC
  8
_0-2_決定
  6
CONTINUOUS
 62
    7
 10
821.41396530716497
 20
1172.882420993908
 40
11.659097520195621
 50
241.73221939205678
 51
265.86023217816063
  0
ARC
  8
_0-2_決定
  6
CONTINUOUS
 62
    7
 10
818.78376073343134
 20
1167.5110486258386
 40
5.6871924341484021
 50
175.73762308631339
 51
239.44158826598948
  0
ARC
  8
_0-2_決定
  6
CONTINUOUS
 62
    7
 10
817.68635403970904
 20
1171.3819252368439
 40
5.7281713847232405
 50
141.67938402193121
 51
217.01105517353182
  0
ARC
  8
_0-2_決定
  6
CONTINUOUS
 62
    7
 10
823.48185865689038
 20
1167.6789488951838
 40
12.589959971984548
 50
120.07664908795495
 51
144.81373082036541
  0
ARC
  8
_0-2_決定
  6
CONTINUOUS
 62
    7
 10
829.08402716904277
 20
1159.1002439810086
 40
22.827756168699299
 50
97.48002348488771
 51
121.45367507079864
  0
ARC
  8
_0-2_決定
  6
CONTINUOUS
 62
    7
 10
835.78475107816553
 20
1159.9839227260877
 40
23.8035927402873
 50
86.947546827105555
 51
113.97539179526261
  0
ARC
  8
_0-2_決定
  6
CONTINUOUS
 62
    7
 10
836.12916342722883
 20
1172.0198389224602
 40
11.770160552905386
 50
60.794723005700227
 51
85.501676690022265
  0
ARC
  8
_0-2_決定
  6
CONTINUOUS
 62
    7
 10
838.91573039328046
 20
1177.5257326035562
 40
5.6102767042195083
 50
355.99348409761154
 51
58.197620889899632
  0
ARC
  8
_0-2_決定
  6
CONTINUOUS
 62
    7
 10
891.00324671016949
 20
1231.6713647499239
 40
27.666580522982628
 50
283.18162594285451
 51
300.42119302985463
  0
ARC
  8
_0-2_決定
  6
CONTINUOUS
 62
    7
 10
902.09571832800407
 20
1212.4621608789489
 40
5.4876437298851988
 50
302.10556855634405
 51
321.8688564352841
  0
ARC
  8
_0-2_決定
  6
CONTINUOUS
 62
    7
 10
905.398184538019
 20
1209.9332065833978
 40
1.3293244628201919
 50
319.71852899622456
 51
8.6764430958732799
  0
ARC
  8
_0-2_決定
  6
CONTINUOUS
 62
    7
 10
905.54806686439406
 20
1209.763617719525
 40
1.2216469247855826
 50
17.636121594418313
 51
59.271296839003568
  0
ARC
  8
_0-2_決定
  6
CONTINUOUS
 62
    7
 10
904.28917965877929
 20
1207.5846341121605
 40
3.7380823061320516
 50
59.750568604954893
 51
80.715094041452645
  0
ARC
  8
_0-2_決定
  6
CONTINUOUS
 62
    7
 10
902.73433942319514
 20
1199.8782596600915
 40
11.598007278761921
 50
79.27690241513929
 51
91.195814203417356
  0
ARC
  8
_0-2_決定
  6
CONTINUOUS
 62
    7
 10
903.08200114323597
 20
1183.8458064362308
 40
27.634227348741508
 50
91.222765113146565
 51
105.03743959516642
  0
ARC
  8
_0-2_決定
  6
CONTINUOUS
 62
    7
 10
902.32142251910375
 20
1184.1950943909055
 40
27.107216866988555
 50
103.67629472941454
 51
121.06876747027601
  0
ARC
  8
_0-2_決定
  6
CONTINUOUS
 62
    7
 10
891.17262833258394
 20
1202.9840174494043
 40
5.2621229080114773
 50
122.66793200022225
 51
142.96046638625532
  0
ARC
  8
_0-2_決定
  6
CONTINUOUS
 62
    7
 10
888.00516046884468
 20
1205.3473246363465
 40
1.3103877181880572
 50
142.01879957676692
 51
189.38064552484806
  0
ARC
  8
_0-2_決定
  6
CONTINUOUS
 62
    7
 10
887.87865500755515
 20
1205.5055553626232
 40
1.224189024594877
 50
197.68135211900179
 51
239.22606631439635
  0
ARC
  8
_0-2_決定
  6
CONTINUOUS
 62
    7
 10
889.13575738438908
 20
1207.6838069138553
 40
3.7390843417083746
 50
239.75340949555402
 51
260.71225315085354
  0
ARC
  8
_0-2_決定
  6
CONTINUOUS
 62
    7
 10
890.66247072181454
 20
1215.1058003397857
 40
11.314393746689863
 50
259.14808927014576
 51
271.16390997970359
  0
ARC
  8
_0-2_決定
  6
CONTINUOUS
 62
    7
 10
890.34352840509769
 20
1229.935325339733
 40
26.147343592704043
 50
271.20258439810641
 51
285.4572405176558
  0
ARC
  8
_0-2_決定
  6
CONTINUOUS
 62
    7
 10
865.22770842133411
 20
1488.1509408507368
 40
3.7741236367346698
 50
347.49480677866717
 51
35.708216285362127
  0
ARC
  8
_0-2_決定
  6
CONTINUOUS
 62
    7
 10
861.36703947098226
 20
1485.8452687956151
 40
8.263502073286503
 50
33.064860059245525
 51
47.664213086941828
  0
ARC
  8
_0-2_決定
  6
CONTINUOUS
 62
    7
 10
856.1598656031631
 20
1480.2777974563035
 40
15.886246431205105
 50
47.304814290598109
 51
68.848062964961542
  0
ARC
  8
_0-2_決定
  6
CONTINUOUS
 62
    7
 10
852.04109505231349
 20
1471.6556798744973
 40
25.424175242587253
 50
67.202598663646441
 51
74.320112302543976
  0
ARC
  8
_0-2_決定
  6
CONTINUOUS
 62
    7
 10
853.63036521637446
 20
1476.1240272440223
 40
20.695102806697054
 50
75.21301521199554
 51
95.206723343280018
  0
ARC
  8
_0-2_決定
  6
CONTINUOUS
 62
    7
 10
852.6592014858752
 20
1487.1011825738301
 40
9.6751528312892603
 50
95.378544495897387
 51
122.13875619977981
  0
ARC
  8
_0-2_決定
  6
CONTINUOUS
 62
    7
 10
849.62317015395115
 20
1492.3059699100168
 40
3.6582155660018771
 50
125.24141664602205
 51
163.68322777001185
  0
ARC
  8
_0-2_決定
  6
CONTINUOUS
 62
    7
 10
849.78983283407558
 20
1492.5150855977233
 40
3.7675543553491133
 50
167.45009591473661
 51
215.75292714928233
  0
ARC
  8
_0-2_決定
  6
CONTINUOUS
 62
    7
 10
853.47351239651948
 20
1494.740986399594
 40
8.0650190859028363
 50
213.29464420772914
 51
228.14642873179167
  0
ARC
  8
_0-2_決定
  6
CONTINUOUS
 62
    7
 10
858.29871397583645
 20
1499.9378621652759
 40
15.155968595674123
 50
227.66798927609415
 51
249.5860004436889
  0
ARC
  8
_0-2_決定
  6
CONTINUOUS
 62
    7
 10
861.75117129113289
 20
1507.5192497910239
 40
23.472888714358888
 50
248.14267968304517
 51
256.09992712526815
  0
ARC
  8
_0-2_決定
  6
CONTINUOUS
 62
    7
 10
861.44350502949294
 20
1504.9537374458801
 40
20.911006787377978
 50
255.22952591394716
 51
275.34741219385245
  0
ARC
  8
_0-2_決定
  6
CONTINUOUS
 62
    7
 10
862.5028798082451
 20
1493.7861771856681
 40
9.6933308370689151
 50
275.26460764463877
 51
302.08879581974838
  0
ARC
  8
_0-2_決定
  6
CONTINUOUS
 62
    7
 10
865.65500366514584
 20
1488.334639630167
 40
3.4076033684358635
 50
305.88273448123778
 51
342.91882560080057
  0
ARC
  8
_0-2_決定
  6
CONTINUOUS
 62
    7
 10
885.12913015053016
 20
1415.716905070311
 40
4.5868247042314181
 50
272.28860565918546
 51
357.7113943408238
  0
ARC
  8
_0-2_決定
  6
CONTINUOUS
 62
    7
 10
885.49546225548283
 20
1415.7169050703114
 40
4.5868247042320114
 50
182.28860565918362
 51
267.71139434082193
  0
ARC
  8
_0-2_決定
  6
CONTINUOUS
 62
    7
 10
885.49546225548227
 20
1415.3505729653582
 40
4.5868247042317147
 50
92.288605659174394
 51
177.71139434081269
  0
ARC
  8
_0-2_決定
  6
CONTINUOUS
 62
    7
 10
885.12913015053073
 20
1415.3505729653591
 40
4.5868247042311223
 50
2.2886056591799222
 51
87.711394340818231
  0
ARC
  8
_0-2_決定
  6
CONTINUOUS
 62
    7
 10
863.27756947083742
 20
1323.1293466279758
 40
2.4347306978393908
 50
280.28544591477259
 51
0.10341190070235
  0
ARC
  8
_0-2_決定
  6
CONTINUOUS
 62
    7
 10
863.82949822529042
 20
1323.0495095382612
 40
2.3187324455886991
 50
177.91818570673482
 51
267.10270844925708
  0
ARC
  8
_0-2_決定
  6
CONTINUOUS
 62
    7
 10
863.80745289539504
 20
1323.0385843254467
 40
2.2971284332230431
 50
92.374110760973295
 51
177.6258892390415
  0
ARC
  8
_0-2_決定
  6
CONTINUOUS
 62
    7
 10
863.52174947603032
 20
1323.1514258114933
 40
2.1906181125407613
 50
359.53744788334774
 51
85.009930128829424
  0
ARC
  8
_0-2_決定
  6
CONTINUOUS
 62
    7
 10
874.03366040421133
 20
1266.2427432449767
 40
1.0841294535076138
 50
310.12227875522376
 51
354.2295284762393
  0
ARC
  8
_0-2_決定
  6
CONTINUOUS
 62
    7
 10
872.7240051110681
 20
1267.6614093715325
 40
3.0141742050135099
 50
287.93725269251343
 51
311.78077963735495
  0
ARC
  8
_0-2_決定
  6
CONTINUOUS
 62
    7
 10
872.09564335985533
 20
1269.3231463195718
 40
4.7894342527579425
 50
270.19921759055353
 51
288.96667185651961
  0
ARC
  8
_0-2_決定
  6
CONTINUOUS
 62
    7
 10
871.98534575788187
 20
1267.9878823704521
 40
3.4564734773144163
 50
223.84059183827222
 51
272.10485082338727
  0
ARC
  8
_0-2_決定
  6
CONTINUOUS
 62
    7
 10
870.27036472349039
 20
1266.1530971913292
 40
0.9582640301059774
 50
181.15740802437523
 51
215.71248962142357
  0
ARC
  8
_0-2_決定
  6
CONTINUOUS
 62
    7
 10
870.29348939783119
 20
1266.0716988033539
 40
0.9831527459901418
 50
129.1858521417079
 51
176.38192474369922
  0
ARC
  8
_0-2_決定
  6
CONTINUOUS
 62
    7
 10
871.33716044180858
 20
1264.8284303955702
 40
2.6063467968423506
 50
104.3249368690126
 51
129.70039382689478
  0
ARC
  8
_0-2_決定
  6
CONTINUOUS
 62
    7
 10
872.07274036556157
 20
1262.1546815132237
 40
5.3792049429655551
 50
89.57867324438449
 51
104.86995814369014
  0
ARC
  8
_0-2_決定
  6
CONTINUOUS
 62
    7
 10
872.19597332433409
 20
1262.2630583585467
 40
5.2713468445506306
 50
68.682503743557817
 51
90.909548812969049
  0
ARC
  8
_0-2_決定
  6
CONTINUOUS
 62
    7
 10
873.69317513413364
 20
1265.769970759304
 40
1.4650028700000728
 50
14.37734331523588
 51
73.376051256594167
  0
ARC
  8
_0-2_決定
  6
CONTINUOUS
 62
    7
 10
895.03366040421156
 20
1292.8427432449766
 40
1.0841294535077814
 50
310.12227875522842
 51
354.22952847624396
  0
ARC
  8
_0-2_決定
  6
CONTINUOUS
 62
    7
 10
893.72400511106832
 20
1294.2614093715335
 40
3.0141742050145326
 50
287.93725269249478
 51
311.78077963733631
  0
ARC
  8
_0-2_決定
  6
CONTINUOUS
 62
    7
 10
893.09564335985499
 20
1295.9231463195717
 40
4.7894342527580154
 50
270.19921759055865
 51
288.96667185652473
  0
ARC
  8
_0-2_決定
  6
CONTINUOUS
 62
    7
 10
892.98534575788153
 20
1294.587882370452
 40
3.4564734773144163
 50
223.84059183827222
 51
272.10485082338727
  0
ARC
  8
_0-2_決定
  6
CONTINUOUS
 62
    7
 10
891.27036472349062
 20
1292.7530971913282
 40
0.9582640301059018
 50
181.15740802431642
 51
215.71248962136477
  0
ARC
  8
_0-2_決定
  6
CONTINUOUS
 62
    7
 10
891.29348939783085
 20
1292.6716988033545
 40
0.9831527459896594
 50
129.18585214173996
 51
176.38192474373128
  0
ARC
  8
_0-2_決定
  6
CONTINUOUS
 62
    7
 10
892.33716044180881
 20
1291.4284303955687
 40
2.6063467968436504
 50
104.32493686900604
 51
129.70039382688822
  0
ARC
  8
_0-2_決定
  6
CONTINUOUS
 62
    7
 10
893.07274036556123
 20
1288.7546815132257
 40
5.3792049429633675
 50
89.578673244381719
 51
104.86995814368736
  0
ARC
  8
_0-2_決定
  6
CONTINUOUS
 62
    7
 10
893.19597332433489
 20
1288.8630583585471
 40
5.2713468445503695
 50
68.682503743573577
 51
90.909548812984809
  0
ARC
  8
_0-2_決定
  6
CONTINUOUS
 62
    7
 10
894.6931751341333
 20
1292.3699707593037
 40
1.4650028700007853
 50
14.377343315240422
 51
73.3760512565987
  0
ARC
  8
_0-2_決定
  6
CONTINUOUS
 62
    7
 10
905.29182486994273
 20
1456.4588934652309
 40
10.823961379616375
 50
345.52705763644042
 51
1.4550294825575987
  0
ARC
  8
_0-2_決定
  6
CONTINUOUS
 62
    7
 10
913.15720466421283
 20
1454.315178980173
 40
2.6746810253893023
 50
318.23797085436547
 51
347.88297301801327
  0
ARC
  8
_0-2_決定
  6
CONTINUOUS
 62
    7
 10
914.69313469513565
 20
1452.9598943351482
 40
0.6264484374502576
 50
271.7528095387172
 51
317.13510002221625
  0
ARC
  8
_0-2_決定
  6
CONTINUOUS
 62
    7
 10
914.80339887060836
 20
1453.1277377600825
 40
0.7992081698375577
 50
212.89054707001503
 51
263.45455977661015
  0
ARC
  8
_0-2_決定
  6
CONTINUOUS
 62
    7
 10
917.0642469043355
 20
1454.6642425954515
 40
3.532593843682601
 50
192.26603391536395
 51
213.90423343027408
  0
ARC
  8
_0-2_決定
  6
CONTINUOUS
 62
    7
 10
924.74791336809687
 20
1456.5243365885858
 40
11.437534232686545
 50
178.95094995601582
 51
193.19396285836532
  0
ARC
  8
_0-2_決定
  6
CONTINUOUS
 62
    7
 10
924.15459194570474
 20
1456.8981517840371
 40
10.843542250105225
 50
165.1691175491782
 51
180.86876763718405
  0
ARC
  8
_0-2_決定
  6
CONTINUOUS
 62
    7
 10
916.40614545861752
 20
1459.1068143900288
 40
2.7920127660915779
 50
138.58540418928592
 51
168.28449345653266
  0
ARC
  8
_0-2_決定
  6
CONTINUOUS
 62
    7
 10
914.72551335814217
 20
1460.569923117534
 40
0.5639707994410885
 50
91.342900282291183
 51
137.11259035372549
  0
ARC
  8
_0-2_決定
  6
CONTINUOUS
 62
    7
 10
914.60396677017968
 20
1460.3357625151
 40
0.8052960728412952
 50
31.267514771211317
 51
82.269063092808281
  0
ARC
  8
_0-2_決定
  6
CONTINUOUS
 62
    7
 10
912.11367275925227
 20
1458.751229564708
 40
3.7568192805943141
 50
11.710501188593989
 51
32.210626851600395
  0
ARC
  8
_0-2_決定
  6
CONTINUOUS
 62
    7
 10
904.77717201330279
 20
1456.837393787366
 40
11.335598118636767
 50
359.47606967650199
 51
13.656527564984483
  0
ARC
  8
_0-2_決定
  6
CONTINUOUS
 62
    7
 10
934.67000046030819
 20
1418.3693262516367
 40
10.843542250105731
 50
345.16911754915634
 51
0.8687676371622267
  0
ARC
  8
_0-2_決定
  6
CONTINUOUS
 62
    7
 10
942.41844694739427
 20
1416.1606636456399
 40
2.7920127660918261
 50
318.58540418931392
 51
348.28449345656065
  0
ARC
  8
_0-2_決定
  6
CONTINUOUS
 62
    7
 10
944.09907904787076
 20
1414.6975549181366
 40
0.5639707994415301
 50
271.34290028220994
 51
317.11259035364424
  0
ARC
  8
_0-2_決定
  6
CONTINUOUS
 62
    7
 10
944.24471815877098
 20
1415.0065105269368
 40
0.8827602627376407
 50
213.9325592529448
 51
261.37255374816732
  0
ARC
  8
_0-2_決定
  6
CONTINUOUS
 62
    7
 10
946.6208340287892
 20
1416.7830315141825
 40
3.8487265229296383
 50
195.51181976614569
 51
216.13016418226857
  0
ARC
  8
_0-2_決定
  6
CONTINUOUS
 62
    7
 10
951.88502854392937
 20
1418.4635566208442
 40
9.3729950978025727
 50
179.57098102818844
 51
196.80462299560472
  0
ARC
  8
_0-2_決定
  6
CONTINUOUS
 62
    7
 10
952.05469890423217
 20
1418.5966469229322
 40
9.5426100578870372
 50
164.20731390938965
 51
180.37771464467929
  0
ARC
  8
_0-2_決定
  6
CONTINUOUS
 62
    7
 10
946.57383286849324
 20
1420.3263467035779
 40
3.8018078742584294
 50
142.63288690481488
 51
166.81166862409154
  0
ARC
  8
_0-2_決定
  6
CONTINUOUS
 62
    7
 10
944.15620396818554
 20
1422.1791111895002
 40
0.7559041282730147
 50
93.329981121818221
 51
143.02719909807109
  0
ARC
  8
_0-2_決定
  6
CONTINUOUS
 62
    7
 10
944.00396677018023
 20
1422.1357625150999
 40
0.8052960728410236
 50
31.267514771240783
 51
82.269063092837754
  0
ARC
  8
_0-2_決定
  6
CONTINUOUS
 62
    7
 10
941.51367275925224
 20
1420.5512295647081
 40
3.7568192805943141
 50
11.710501188593989
 51
32.210626851600395
  0
ARC
  8
_0-2_決定
  6
CONTINUOUS
 62
    7
 10
934.17717201330333
 20
1418.6373937873636
 40
11.335598118637032
 50
359.47606967651353
 51
13.656527564996043
  0
ARC
  8
_0-2_決定
  6
CONTINUOUS
 62
    7
 10
859.19201823350761
 20
1373.5309631857842
 40
11.263135903667285
 50
155.87941049440542
 51
171.51039826428823
  0
ARC
  8
_0-2_決定
  6
CONTINUOUS
 62
    7
 10
850.9301382961138
 20
1374.6828828272078
 40
2.9228323866350752
 50
169.93407367418985
 51
198.12245365874975
  0
ARC
  8
_0-2_決定
  6
CONTINUOUS
 62
    7
 10
848.88647821982033
 20
1374.0071606679562
 40
0.7703952885101563
 50
197.63724563607556
 51
240.94156808901985
  0
ARC
  8
_0-2_決定
  6
CONTINUOUS
 62
    7
 10
848.62660483382001
 20
1374.3037918050977
 40
0.9767644921652733
 50
263.2793988489417
 51
309.83474390237859
  0
ARC
  8
_0-2_決定
  6
CONTINUOUS
 62
    7
 10
846.38786474365133
 20
1377.1176956779743
 40
4.5723904755272571
 50
308.78961643323748
 51
327.68978415895117
  0
ARC
  8
_0-2_決定
  6
CONTINUOUS
 62
    7
 10
838.07384513095849
 20
1382.9447338633142
 40
14.721549723049208
 50
325.81761406398562
 51
335.90111846921764
  0
ARC
  8
_0-2_決定
  6
CONTINUOUS
 62
    7
 10
842.22663359234753
 20
1381.3158123734156
 40
10.267721120710384
 50
334.73652164852894
 51
350.45807008874976
  0
ARC
  8
_0-2_決定
  6
CONTINUOUS
 62
    7
 10
849.16959836306069
 20
1380.2794004087693
 40
3.2515643354820405
 50
348.18687086405089
 51
14.868180020389438
  0
ARC
  8
_0-2_決定
  6
CONTINUOUS
 62
    7
 10
851.7382027389823
 20
1380.9674595282879
 40
0.5924364898430825
 50
14.294836321095477
 51
72.910801624379587
  0
ARC
  8
_0-2_決定
  6
CONTINUOUS
 62
    7
 10
851.62504925019789
 20
1380.7716201339383
 40
0.8144544217386023
 50
69.348287753364687
 51
120.44989715428537
  0
ARC
  8
_0-2_決定
  6
CONTINUOUS
 62
    7
 10
852.73759292024261
 20
1378.8363329448366
 40
3.0467098433386655
 50
120.04217516045932
 51
143.37933948252481
  0
ARC
  8
_0-2_決定
  6
CONTINUOUS
 62
    7
 10
857.1021608659637
 20
1375.2866702738343
 40
8.6706218710439042
 50
141.75724276796879
 51
160.83085214522629
  0
ARC
  8
_0-2_決定
  6
CONTINUOUS
 62
    7
 10
773.93616123488164
 20
1258.793773629294
 40
10.770384074143609
 50
158.542255980992
 51
174.67274851151603
  0
ARC
  8
_0-2_決定
  6
CONTINUOUS
 62
    7
 10
765.05291173513547
 20
1259.4428414793194
 40
1.8737632349865596
 50
169.20649598293343
 51
224.31861294071643
  0
ARC
  8
_0-2_決定
  6
CONTINUOUS
 62
    7
 10
763.82016808137223
 20
1258.9779814503108
 40
0.8511038823118521
 50
262.71868430669167
 51
308.69859135136488
  0
ARC
  8
_0-2_決定
  6
CONTINUOUS
 62
    7
 10
761.6475355668058
 20
1262.0785036540337
 40
4.6356422020152088
 50
305.69504409880625
 51
324.3049559012245
  0
ARC
  8
_0-2_決定
  6
CONTINUOUS
 62
    7
 10
756.48468867670829
 20
1265.8295428755432
 40
11.017240556511016
 50
324.12826560041896
 51
338.17561582882615
  0
ARC
  8
_0-2_決定
  6
CONTINUOUS
 62
    7
 10
758.47046484474754
 20
1265.5835021801488
 40
9.0966190484249037
 50
334.96271724188085
 51
351.72159164495866
  0
ARC
  8
_0-2_決定
  6
CONTINUOUS
 62
    7
 10
764.80770849913995
 20
1264.869540875412
 40
2.7303874743780838
 50
347.39603744111406
 51
32.429465452320066
  0
ARC
  8
_0-2_決定
  6
CONTINUOUS
 62
    7
 10
766.99655318625446
 20
1265.2513824408647
 40
1.0885297414604473
 50
83.896113732848647
 51
127.60623359406132
  0
ARC
  8
_0-2_決定
  6
CONTINUOUS
 62
    7
 10
769.13195499082099
 20
1262.2340842300196
 40
4.7843301433740972
 50
125.81515301549572
 51
144.18484698449677
  0
ARC
  8
_0-2_決定
  6
CONTINUOUS
 62
    7
 10
774.85246505827035
 20
1257.9002525021588
 40
11.960345398532477
 50
143.38548026723501
 51
156.16362028285664
  0
ARC
  8
_0-2_決定
  6
CONTINUOUS
 62
    7
 10
913.57120728234122
 20
1342.2922606728582
 40
5.5412441635265219
 50
321.90820888016776
 51
0.4288849637406971
  0
ARC
  8
_0-2_決定
  6
CONTINUOUS
 62
    7
 10
915.92694938950615
 20
1340.5245168907832
 40
2.5973993586342132
 50
274.09202513362402
 51
320.53919081323875
  0
ARC
  8
_0-2_決定
  6
CONTINUOUS
 62
    7
 10
916.22345944442941
 20
1340.2932209277164
 40
2.3620990981122416
 50
206.64966990204167
 51
267.30259498635814
  0
ARC
  8
_0-2_決定
  6
CONTINUOUS
 62
    7
 10
919.00916506783176
 20
1342.1506729184334
 40
5.6998094757422049
 50
178.15946145623138
 51
210.78112674387623
  0
ARC
  8
_0-2_決定
  6
CONTINUOUS
 62
    7
 10
919.09690556491114
 20
1342.437329280458
 40
5.78553683009127
 50
143.06709597604893
 51
181.02593798978836
  0
ARC
  8
_0-2_決定
  6
CONTINUOUS
 62
    7
 10
916.23644066148245
 20
1344.4354501008838
 40
2.3016393706118259
 50
93.091886166222395
 51
140.0382161879574
  0
ARC
  8
_0-2_決定
  6
CONTINUOUS
 62
    7
 10
916.05592179561711
 20
1344.5365763843624
 40
2.1978857367332703
 50
55.769125828194539
 51
88.530237567376886
  0
ARC
  8
_0-2_決定
  6
CONTINUOUS
 62
    7
 10
915.00664961847122
 20
1343.0851424865559
 40
3.9884713354473984
 50
11.696849112019606
 51
55.035882890093326
  0
ARC
  8
_0-2_決定
  6
CONTINUOUS
 62
    7
 10
913.05529980668723
 20
1342.3500215311278
 40
6.0570182817338472
 50
359.84597695238938
 51
14.765542114218585
  0
ARC
  8
_0-2_決定
  6
CONTINUOUS
 62
    7
 10
961.79563785182097
 20
1518.0140474399798
 40
4.11839593880965
 50
1.665374937336433
 51
69.583691820817407
  0
ARC
  8
_0-2_決定
  6
CONTINUOUS
 62
    7
 10
960.194231226385
 20
1515.2165299709716
 40
7.3176657695415912
 50
65.470083393145032
 51
90.641547356718348
  0
ARC
  8
_0-2_決定
  6
CONTINUOUS
 62
    7
 10
960.00656457912498
 20
1515.322949215255
 40
7.2115629311627591
 50
89.159933439948489
 51
123.25206393803894
  0
ARC
  8
_0-2_決定
  6
CONTINUOUS
 62
    7
 10
958.45007332764624
 20
1517.9779195653898
 40
4.1407099163887375
 50
125.38543346510419
 51
177.84341551315927
  0
ARC
  8
_0-2_決定
  6
CONTINUOUS
 62
    7
 10
958.06650648588914
 20
1518.2129303895636
 40
3.7550454642022508
 50
181.20844938856337
 51
229.59016975299784
  0
ARC
  8
_0-2_決定
  6
CONTINUOUS
 62
    7
 10
959.90141924337081
 20
1520.1551390060022
 40
6.424863623902338
 50
228.35839461662164
 51
271.88090065407886
  0
ARC
  8
_0-2_決定
  6
CONTINUOUS
 62
    7
 10
960.16945729444615
 20
1520.3866106722094
 40
6.6531192121777485
 50
269.50773021178372
 51
319.8161585280107
  0
ARC
  8
_0-2_決定
  6
CONTINUOUS
 62
    7
 10
962.28616213217492
 20
1518.1801326878094
 40
3.6264288705698795
 50
324.87720907432157
 51
359.26695140167607
  0
ARC
  8
_0-2_決定
  6
CONTINUOUS
 62
    7
 10
968.79804691818549
 20
1205.2136348978952
 40
8.1205589048565994
 50
2.2591404206823573
 51
90.60505194764535
  0
ARC
  8
_0-2_決定
  6
CONTINUOUS
 62
    7
 10
968.91678042283786
 20
1204.9085119149349
 40
8.427710249555032
 50
91.390335798952776
 51
175.74547183271551
  0
ARC
  8
_0-2_決定
  6
CONTINUOUS
 62
    7
 10
968.68083586854084
 20
1205.9109279424192
 40
8.1772454358211419
 50
182.64378633162843
 51
270.22042070957917
  0
ARC
  8
_0-2_決定
  6
CONTINUOUS
 62
    7
 10
968.46948356909877
 20
1206.1992620600247
 40
8.4690005111358886
 50
271.64292482625518
 51
355.49286813254116
  0
ARC
  8
_0-2_決定
  6
CONTINUOUS
 62
    7
 10
939.19732106065226
 20
1263.2434918792162
 40
3.316791438423822
 50
306.97578318243717
 51
358.10376704296095
  0
ARC
  8
_0-2_決定
  6
CONTINUOUS
 62
    7
 10
936.34277451899834
 20
1266.4766392697552
 40
7.624064034759054
 50
278.36790804828149
 51
309.50020064548403
  0
ARC
  8
_0-2_決定
  6
CONTINUOUS
 62
    7
 10
935.32416323225789
 20
1270.1557638048291
 40
11.422028951679588
 50
269.94047197598258
 51
280.7380016315085
  0
ARC
  8
_0-2_決定
  6
CONTINUOUS
 62
    7
 10
935.16719815048475
 20
1269.6339968595203
 40
10.901221530592238
 50
243.08343213026697
 51
270.76264402989079
  0
ARC
  8
_0-2_決定
  6
CONTINUOUS
 62
    7
 10
932.27964995543289
 20
1263.8346294357325
 40
4.4232367530101104
 50
189.11728849179963
 51
242.42797711961924
  0
ARC
  8
_0-2_決定
  6
CONTINUOUS
 62
    7
 10
931.21039329603036
 20
1263.0172645986797
 40
3.3001532072368844
 50
126.39404370053954
 51
177.9773685879031
  0
ARC
  8
_0-2_決定
  6
CONTINUOUS
 62
    7
 10
934.12948829539971
 20
1259.6756242750994
 40
7.7307442827705239
 50
97.859921957656837
 51
129.11526959765979
  0
ARC
  8
_0-2_決定
  6
CONTINUOUS
 62
    7
 10
935.28957613425177
 20
1255.1442057878771
 40
12.389556062098839
 50
89.894930474263631
 51
100.3094000304414
  0
ARC
  8
_0-2_決定
  6
CONTINUOUS
 62
    7
 10
935.43132358835066
 20
1257.1830755397789
 40
10.351349832610317
 50
62.367308801598242
 51
90.658843265057087
  0
ARC
  8
_0-2_決定
  6
CONTINUOUS
 62
    7
 10
938.13346122038524
 20
1262.4504044462892
 40
4.4318331055035589
 50
8.8697202081100546
 51
61.732956316480049
  0
ARC
  8
_0-2_決定
  6
CONTINUOUS
 62
    7
 10
837.67804077883147
 20
1272.9270767505818
 40
29.279058426996883
 50
147.32572416767252
 51
157.07135827246034
  0
ARC
  8
_0-2_決定
  6
CONTINUOUS
 62
    7
 10
817.49164522991782
 20
1286.0985910071267
 40
5.179748206752981
 50
127.02904644031806
 51
149.41999877271775
  0
ARC
  8
_0-2_決定
  6
CONTINUOUS
 62
    7
 10
814.72516069256699
 20
1289.8362835742073
 40
0.5314925738274656
 50
69.384303629863496
 51
131.59865039487852
  0
ARC
  8
_0-2_決定
  6
CONTINUOUS
 62
    7
 10
814.67491597216372
 20
1289.8735886891163
 40
0.5177745543621284
 50
2.2305752384298465
 51
62.711809343396446
  0
ARC
  8
_0-2_決定
  6
CONTINUOUS
 62
    7
 10
810.9695901825495
 20
1289.4327529047177
 40
4.2477962599998875
 50
347.22878283789555
 51
6.2302413157525347
  0
ARC
  8
_0-2_決定
  6
CONTINUOUS
 62
    7
 10
791.8474896638844
 20
1293.324311049631
 40
23.761012671898285
 50
334.60363858529962
 51
348.2701072412035
  0
ARC
  8
_0-2_決定
  6
CONTINUOUS
 62
    7
 10
786.16580641422502
 20
1294.0869857359185
 40
29.272949736789645
 50
328.22833578406545
 51
338.02658623261715
  0
ARC
  8
_0-2_決定
  6
CONTINUOUS
 62
    7
 10
806.07736406087361
 20
1281.4791233618712
 40
5.7114043644964587
 50
309.52645172314328
 51
330.58120037697813
  0
ARC
  8
_0-2_決定
  6
CONTINUOUS
 62
    7
 10
809.29904517664249
 20
1277.4891111308227
 40
0.5859269532648073
 50
251.4144318650126
 51
314.85361274776977
  0
ARC
  8
_0-2_決定
  6
CONTINUOUS
 62
    7
 10
809.56825626107786
 20
1277.5371675995959
 40
0.75632095719723
 50
181.77498583243249
 51
232.924765727715
  0
ARC
  8
_0-2_決定
  6
CONTINUOUS
 62
    7
 10
813.91782227211593
 20
1277.8259661024638
 40
5.1150621231540327
 50
166.11161338283642
 51
183.49952880174928
  0
ARC
  8
_0-2_決定
  6
CONTINUOUS
 62
    7
 10
835.4574124342372
 20
1273.1520362740894
 40
27.15421144671614
 50
155.68296684378166
 51
167.44713551036696
  0
ARC
  8
_0-2_決定
  6
CONTINUOUS
 62
    7
 10
931.99317582522838
 20
1196.0528633956128
 40
7.7257140266865534
 50
272.36734807815634
 51
357.63265192184804
  0
ARC
  8
_0-2_決定
  6
CONTINUOUS
 62
    7
 10
932.63141658078439
 20
1196.0528633956133
 40
7.7257140266871485
 50
182.36734807815637
 51
267.63265192184804
  0
ARC
  8
_0-2_決定
  6
CONTINUOUS
 62
    7
 10
932.22352045946309
 20
1195.6222049454936
 40
7.312075004387478
 50
89.304356096729308
 51
179.12597878775827
  0
ARC
  8
_0-2_決定
  6
CONTINUOUS
 62
    7
 10
932.37523687279975
 20
1195.5956522234314
 40
7.3383587185736516
 50
1.0782365694981431
 51
90.491428546005494
  0
ARC
  8
_0-2_決定
  6
CONTINUOUS
 62
    7
 10
843.63694840850394
 20
1221.4126299634197
 40
7.8890319810139955
 50
330.04717864843713
 51
18.637022746763492
  0
ARC
  8
_0-2_決定
  6
CONTINUOUS
 62
    7
 10
840.87302629792498
 20
1222.8466508614774
 40
11.000642840239882
 50
287.12527178999687
 51
330.76335847812862
  0
ARC
  8
_0-2_決定
  6
CONTINUOUS
 62
    7
 10
840.53349015088293
 20
1223.0636644564195
 40
11.311017184877523
 50
237.59731304586657
 51
288.44535236569465
  0
ARC
  8
_0-2_決定
  6
CONTINUOUS
 62
    7
 10
838.91081064913749
 20
1219.6276938637309
 40
7.5551856291127519
 50
197.67553621196714
 51
234.02167175271643
  0
ARC
  8
_0-2_決定
  6
CONTINUOUS
 62
    7
 10
839.18764399750899
 20
1219.8548520722491
 40
7.8890319810141314
 50
150.04717864842715
 51
198.63702274675353
  0
ARC
  8
_0-2_決定
  6
CONTINUOUS
 62
    7
 10
841.95156610808817
 20
1218.4208311741936
 40
11.000642840238989
 50
107.12527179000067
 51
150.7633584781324
  0
ARC
  8
_0-2_決定
  6
CONTINUOUS
 62
    7
 10
842.26105757981827
 20
1218.5717141595753
 40
10.952867566114506
 50
56.963320212092583
 51
108.90517982157816
  0
ARC
  8
_0-2_決定
  6
CONTINUOUS
 62
    7
 10
843.53168449945429
 20
1221.2141698905493
 40
8.053678719466788
 50
19.735627031781004
 51
54.291604678044052
  0
ARC
  8
_0-2_決定
  6
CONTINUOUS
 62
    7
 10
803.39904528622492
 20
1427.2469919346156
 40
1.3181272497726879
 50
274.92890538576114
 51
355.07109461425915
  0
ARC
  8
_0-2_決定
  6
CONTINUOUS
 62
    7
 10
803.51274408556378
 20
1427.134184900392
 40
1.2004459653645454
 50
180.02128141541161
 51
269.97871858456807
  0
ARC
  8
_0-2_決定
  6
CONTINUOUS
 62
    7
 10
803.43352192079669
 20
1427.2125153000447
 40
1.1239876903123343
 50
85.981048636287767
 51
184.01895136371894
  0
ARC
  8
_0-2_決定
  6
CONTINUOUS
 62
    7
 10
803.50024425589572
 20
1427.1216850707242
 40
1.2121138842316366
 50
0.5697910805351209
 51
89.43020891945811
  0
ARC
  8
_0-2_決定
  6
CONTINUOUS
 62
    7
 10
877.95829578703774
 20
1383.8517796907845
 40
2.3569581156336894
 50
297.10819654690954
 51
357.12932412252536
  0
ARC
  8
_0-2_決定
  6
CONTINUOUS
 62
    7
 10
876.78765104579043
 20
1385.5024112190308
 40
4.3693220473927488
 50
269.01180813173028
 51
300.91250237691872
  0
ARC
  8
_0-2_決定
  6
CONTINUOUS
 62
    7
 10
876.69842821349846
 20
1385.0602578903668
 40
3.9265433624857238
 50
224.38489740096469
 51
270.20236091842764
  0
ARC
  8
_0-2_決定
  6
CONTINUOUS
 62
    7
 10
875.52582896157844
 20
1383.8094073276736
 40
2.2148257191892484
 50
181.9578599814316
 51
222.47732855759716
  0
ARC
  8
_0-2_決定
  6
CONTINUOUS
 62
    7
 10
875.66487768825311
 20
1383.7026015018473
 40
2.3527875360146369
 50
119.33263672564019
 51
179.2417078440636
  0
ARC
  8
_0-2_決定
  6
CONTINUOUS
 62
    7
 10
876.62676091403796
 20
1382.1957694242674
 40
4.1388535420994899
 50
88.815817005505309
 51
120.72258005507089
  0
ARC
  8
_0-2_決定
  6
CONTINUOUS
 62
    7
 10
876.85597397433924
 20
1382.0380072543092
 40
4.2981338608910944
 50
47.634644240438121
 51
91.915636897224232
  0
ARC
  8
_0-2_決定
  6
CONTINUOUS
 62
    7
 10
878.10417321343891
 20
1383.7441789677273
 40
2.2081476693402928
 50
359.72910901567224
 51
41.72200871547691
  0
ARC
  8
_0-2_決定
  6
CONTINUOUS
 62
    7
 10
913.02007616147307
 20
1481.583242366858
 40
1.493041001424551
 50
320.50922555769819
 51
358.09987297419178
  0
ARC
  8
_0-2_決定
  6
CONTINUOUS
 62
    7
 10
911.60306098265153
 20
1482.7852247309606
 40
3.351099669846223
 50
297.53604334128505
 51
320.05706085528982
  0
ARC
  8
_0-2_決定
  6
CONTINUOUS
 62
    7
 10
909.93422594705578
 20
1485.9234302216937
 40
6.905383929768619
 50
282.18974044140793
 51
297.77647260242691
  0
ARC
  8
_0-2_決定
  6
CONTINUOUS
 62
    7
 10
909.18184247766135
 20
1489.2230474086259
 40
10.289545422532386
 50
269.61273912553349
 51
282.40527278943841
  0
ARC
  8
_0-2_決定
  6
CONTINUOUS
 62
    7
 10
908.94802643159096
 20
1487.5102652765318
 40
8.5781012776737704
 50
240.10268193453535
 51
271.09727545188241
  0
ARC
  8
_0-2_決定
  6
CONTINUOUS
 62
    7
 10
905.7469023542842
 20
1481.8259438022367
 40
2.0554821808195061
 50
188.17283963634173
 51
238.47973973789038
  0
ARC
  8
_0-2_決定
  6
CONTINUOUS
 62
    7
 10
905.10714988549466
 20
1481.5004980950557
 40
1.3952496627979158
 50
139.11564369058948
 51
178.63491801727838
  0
ARC
  8
_0-2_決定
  6
CONTINUOUS
 62
    7
 10
906.3547293721291
 20
1480.3130858928282
 40
3.1167184100055874
 50
114.29715180379382
 51
137.62388258949719
  0
ARC
  8
_0-2_決定
  6
CONTINUOUS
 62
    7
 10
908.15277554273734
 20
1476.6329225379868
 40
7.2118218532561862
 50
100.06583245672537
 51
115.28638494056406
  0
ARC
  8
_0-2_決定
  6
CONTINUOUS
 62
    7
 10
909.07237406271975
 20
1471.9558727750386
 40
11.977930772722926
 50
89.809034262600747
 51
100.48673538568791
  0
ARC
  8
_0-2_決定
  6
CONTINUOUS
 62
    7
 10
909.361817812906
 20
1474.8206060374102
 40
9.1165463471746992
 50
61.782545215645946
 51
91.568392260575848
  0
ARC
  8
_0-2_決定
  6
CONTINUOUS
 62
    7
 10
912.74193264827829
 20
1481.3344147557357
 40
1.7815488991540489
 50
6.4237839173754638
 51
58.518600664315926
  0
ARC
  8
_0-2_決定
  6
CONTINUOUS
 62
    7
 10
944.05258842456419
 20
1504.9523340863188
 40
3.0597642949114103
 50
308.3795013596249
 51
359.65175745801281
  0
ARC
  8
_0-2_決定
  6
CONTINUOUS
 62
    7
 10
945.28204745148685
 20
1503.4626424768019
 40
1.1293106402819089
 50
271.53485944394185
 51
306.4059561730142
  0
ARC
  8
_0-2_決定
  6
CONTINUOUS
 62
    7
 10
945.3717273294285
 20
1503.952220021627
 40
1.6195737996002548
 50
230.99088096501328
 51
267.89702859584952
  0
ARC
  8
_0-2_決定
  6
CONTINUOUS
 62
    7
 10
946.17920570104445
 20
1504.9033735704948
 40
2.8670702832109036
 50
179.39320290971227
 51
230.41633470646823
  0
ARC
  8
_0-2_決定
  6
CONTINUOUS
 62
    7
 10
945.85993621895909
 20
1504.8440370045414
 40
2.5492186534831389
 50
102.40535543016378
 51
177.98350238531123
  0
ARC
  8
_0-2_決定
  6
CONTINUOUS
 62
    7
 10
945.18142719548564
 20
1505.926026580159
 40
1.4137805252129922
 50
46.629105294682475
 51
84.688714831892639
  0
ARC
  8
_0-2_決定
  6
CONTINUOUS
 62
    7
 10
944.25582589501573
 20
1504.8143253863145
 40
2.8589651551170006
 50
2.3937938981445996
 51
48.444782779663242
  0
ARC
  8
_0-2_決定
  6
CONTINUOUS
 62
    7
 10
980.50908866637826
 20
1483.0410911125603
 40
2.6048536100311752
 50
305.24533522097016
 51
2.0382485664187286
  0
ARC
  8
_0-2_決定
  6
CONTINUOUS
 62
    7
 10
981.30554955073364
 20
1482.2110773322242
 40
1.4773557103335917
 50
270.26157644309086
 51
298.57996981197846
  0
ARC
  8
_0-2_決定
  6
CONTINUOUS
 62
    7
 10
981.39146369448497
 20
1482.4881492649026
 40
1.7561976372389607
 50
197.03240408922616
 51
267.41622729882317
  0
ARC
  8
_0-2_決定
  6
CONTINUOUS
 62
    7
 10
982.71688270093307
 20
1483.0890108967901
 40
3.2049006017269051
 50
179.2003804557628
 51
200.36443360794581
  0
ARC
  8
_0-2_決定
  6
CONTINUOUS
 62
    7
 10
982.50262313222493
 20
1483.1995835175321
 40
2.9910538053411848
 50
128.70477424177531
 51
181.26143880199493
  0
ARC
  8
_0-2_決定
  6
CONTINUOUS
 62
    7
 10
981.32793256249329
 20
1484.4245665955784
 40
1.3092638209306355
 50
90.684379488407899
 51
122.09470117966687
  0
ARC
  8
_0-2_決定
  6
CONTINUOUS
 62
    7
 10
981.26309438046633
 20
1484.3057374614816
 40
1.4288468621523598
 50
48.370450243180059
 51
88.026730784200538
  0
ARC
  8
_0-2_決定
  6
CONTINUOUS
 62
    7
 10
980.28426050036785
 20
1483.2982770480257
 40
2.8328162744509209
 50
356.67018354286387
 51
47.108929996903797
  0
ARC
  8
_0-2_決定
  6
CONTINUOUS
 62
    7
 10
948.58181364339259
 20
1439.8294474459558
 40
2.132631248020064
 50
293.50286621336426
 51
357.42781064384496
  0
ARC
  8
_0-2_決定
  6
CONTINUOUS
 62
    7
 10
947.23039815533923
 20
1442.080041741146
 40
4.747771857667181
 50
268.57460685358058
 51
297.63097302894226
  0
ARC
  8
_0-2_決定
  6
CONTINUOUS
 62
    7
 10
947.01708967196396
 20
1442.2487702410874
 40
4.9159532350400212
 50
230.53227577807536
 51
271.10970817029892
  0
ARC
  8
_0-2_決定
  6
CONTINUOUS
 62
    7
 10
945.17492348859435
 20
1439.8063357566164
 40
1.8640414940382364
 50
182.23199911364631
 51
226.52093811969303
  0
ARC
  8
_0-2_決定
  6
CONTINUOUS
 62
    7
 10
945.22118999937447
 20
1439.676567539824
 40
1.9097497489744226
 50
144.19819835176443
 51
178.28450095260311
  0
ARC
  8
_0-2_決定
  6
CONTINUOUS
 62
    7
 10
946.82044663841907
 20
1438.373584798471
 40
3.9708938048622526
 50
85.785120293977073
 51
142.44856261696023
  0
ARC
  8
_0-2_決定
  6
CONTINUOUS
 62
    7
 10
947.16845407996743
 20
1438.0702480465798
 40
4.263860805551424
 50
46.707235056421105
 51
90.754645265126939
  0
ARC
  8
_0-2_決定
  6
CONTINUOUS
 62
    7
 10
948.52662074912132
 20
1439.6461565307454
 40
2.1874295146955651
 50
2.2946790177019243
 51
44.294447490093269
  0
ARC
  8
_0-2_決定
  6
CONTINUOUS
 62
    7
 10
982.92077162902501
 20
1448.9174891953571
 40
7.391540436093452
 50
311.64235955981195
 51
0.1259611584139198
  0
ARC
  8
_0-2_決定
  6
CONTINUOUS
 62
    7
 10
984.81637338912265
 20
1447.1498605051365
 40
4.8170766013203519
 50
271.14098685161235
 51
308.7621945379156
  0
ARC
  8
_0-2_決定
  6
CONTINUOUS
 62
    7
 10
985.04118142268055
 20
1447.4105733324968
 40
5.0784701017061993
 50
207.396485954323
 51
268.54572606504752
  0
ARC
  8
_0-2_決定
  6
CONTINUOUS
 62
    7
 10
987.02665953970552
 20
1448.8546334850462
 40
7.5147817066573728
 50
179.39685581664051
 51
210.20714035023846
  0
ARC
  8
_0-2_決定
  6
CONTINUOUS
 62
    7
 10
986.89059385101245
 20
1449.0153491737174
 40
7.3787509724422637
 50
131.59328682880454
 51
180.63371332792022
  0
ARC
  8
_0-2_決定
  6
CONTINUOUS
 62
    7
 10
984.94759844800228
 20
1450.6674506224472
 40
4.8664164573947897
 50
90.415665613197731
 51
127.39348607202497
  0
ARC
  8
_0-2_決定
  6
CONTINUOUS
 62
    7
 10
984.82972178366367
 20
1450.4433347766526
 40
5.0910739086253356
 50
28.771245007059793
 51
89.070675722772947
  0
ARC
  8
_0-2_決定
  6
CONTINUOUS
 62
    7
 10
982.78207283566871
 20
1449.1055001807936
 40
7.5321800123345861
 50
358.6933340920308
 51
30.194737356946963
  0
ARC
  8
_0-2_決定
  6
CONTINUOUS
 62
    7
 10
901.79268628072293
 20
1463.4469449091907
 40
0.9265516623478928
 50
305.61847634017278
 51
352.98207855817839
  0
ARC
  8
_0-2_決定
  6
CONTINUOUS
 62
    7
 10
900.13343043776558
 20
1465.5914705483158
 40
3.6375621886491531
 50
285.93803385573921
 51
307.19206849842766
  0
ARC
  8
_0-2_決定
  6
CONTINUOUS
 62
    7
 10
898.65216896388063
 20
1470.429665035917
 40
8.6970508622859093
 50
269.07848482006949
 51
286.56893664370773
  0
ARC
  8
_0-2_決定
  6
CONTINUOUS
 62
    7
 10
898.41612571962003
 20
1470.469517220226
 40
8.7363075474278435
 50
253.48232376391098
 51
270.63073261490024
  0
ARC
  8
_0-2_決定
  6
CONTINUOUS
 62
    7
 10
896.73931631475114
 20
1465.3443374733322
 40
3.3492792925703463
 50
230.13062857180279
 51
256.05718451633965
  0
ARC
  8
_0-2_決定
  6
CONTINUOUS
 62
    7
 10
895.09449175067232
 20
1463.374836791668
 40
0.7832744741165375
 50
183.00764398788414
 51
230.12245836630672
  0
ARC
  8
_0-2_決定
  6
CONTINUOUS
 62
    7
 10
895.23190612528936
 20
1463.2205331264795
 40
0.9265516623473792
 50
125.61847634020482
 51
172.98207855821042
  0
ARC
  8
_0-2_決定
  6
CONTINUOUS
 62
    7
 10
896.89116196824898
 20
1461.076007487351
 40
3.6375621886525988
 50
105.93803385573919
 51
127.19206849842766
  0
ARC
  8
_0-2_決定
  6
CONTINUOUS
 62
    7
 10
898.37242344213109
 20
1456.2378129997528
 40
8.6970508622856553
 50
89.078484820057284
 51
106.56893664369551
  0
ARC
  8
_0-2_決定
  6
CONTINUOUS
 62
    7
 10
898.6084666863951
 20
1456.1979608154438
 40
8.7363075474275789
 50
73.482323763923361
 51
90.630732614912645
  0
ARC
  8
_0-2_決定
  6
CONTINUOUS
 62
    7
 10
900.28527609126115
 20
1461.3231405623376
 40
3.3492792925707757
 50
50.1306285717883
 51
76.057184516325165
  0
ARC
  8
_0-2_決定
  6
CONTINUOUS
 62
    7
 10
901.93010065534054
 20
1463.2926412440022
 40
0.7832744741162194
 50
3.0076439878376102
 51
50.122458366260197
  0
ARC
  8
_0-2_決定
  6
CONTINUOUS
 62
    7
 10
863.23952469390349
 20
1531.0661589736001
 40
0.8827602627385211
 50
303.93255925294028
 51
351.37255374816277
  0
ARC
  8
_0-2_決定
  6
CONTINUOUS
 62
    7
 10
861.46300370665926
 20
1533.4422748436159
 40
3.8487265229278633
 50
285.51181976614532
 51
306.13016418226823
  0
ARC
  8
_0-2_決定
  6
CONTINUOUS
 62
    7
 10
859.78247859999726
 20
1538.7064693587581
 40
9.3729950978025727
 50
269.57098102818844
 51
286.80462299560469
  0
ARC
  8
_0-2_決定
  6
CONTINUOUS
 62
    7
 10
859.52431698910573
 20
1536.416870490958
 40
7.0856274233785053
 50
238.2170448507745
 51
271.52021532592403
  0
ARC
  8
_0-2_決定
  6
CONTINUOUS
 62
    7
 10
856.24888506528782
 20
1530.9730793908693
 40
0.7376387831131496
 50
183.05735283570206
 51
231.7577980398714
  0
ARC
  8
_0-2_決定
  6
CONTINUOUS
 62
    7
 10
856.30618596585487
 20
1530.8427019926191
 40
0.7990921920349738
 50
122.88661937132045
 51
173.45848747536547
  0
ARC
  8
_0-2_決定
  6
CONTINUOUS
 62
    7
 10
857.91921176691233
 20
1528.3404416129849
 40
3.7761974328950898
 50
102.02792232064067
 51
122.82380152205555
  0
ARC
  8
_0-2_決定
  6
CONTINUOUS
 62
    7
 10
859.61824511272425
 20
1521.8985763942649
 40
10.43558445163907
 50
89.483612680241691
 51
103.78141655004291
  0
ARC
  8
_0-2_決定
  6
CONTINUOUS
 62
    7
 10
859.87670896920577
 20
1521.4914412751377
 40
10.843542250104507
 50
75.169117549163872
 51
90.868767637169753
  0
ARC
  8
_0-2_決定
  6
CONTINUOUS
 62
    7
 10
862.08537157520084
 20
1529.2398877622227
 40
2.7920127660924465
 50
48.585404189313913
 51
78.284493456560639
  0
ARC
  8
_0-2_決定
  6
CONTINUOUS
 62
    7
 10
863.54848030270489
 20
1530.9205198626998
 40
0.5639707994412883
 50
1.3429002822006078
 51
47.112590353634928
  0
ARC
  8
_0-2_決定
  6
CONTINUOUS
 62
    7
 10
909.31744252051885
 20
1364.9669779406142
 40
1.3952496627973276
 50
319.11564369058016
 51
358.63491801726906
  0
ARC
  8
_0-2_決定
  6
CONTINUOUS
 62
    7
 10
908.06986303388328
 20
1366.1543901428417
 40
3.1167184100060004
 50
294.29715180380424
 51
317.62388258950762
  0
ARC
  8
_0-2_決定
  6
CONTINUOUS
 62
    7
 10
906.2718168632756
 20
1369.8345534976827
 40
7.2118218532561862
 50
280.06583245672539
 51
295.28638494056406
  0
ARC
  8
_0-2_決定
  6
CONTINUOUS
 62
    7
 10
905.35221834329548
 20
1374.5116032606313
 40
11.977930772722722
 50
269.80903426258982
 51
280.48673538567698
  0
ARC
  8
_0-2_決定
  6
CONTINUOUS
 62
    7
 10
905.06277459310695
 20
1371.6468699982599
 40
9.1165463471746992
 50
241.78254521564597
 51
271.56839226057588
  0
ARC
  8
_0-2_決定
  6
CONTINUOUS
 62
    7
 10
901.68265975773352
 20
1365.1330612799347
 40
1.7815488991538506
 50
186.42378391740422
 51
238.51860066434466
  0
ARC
  8
_0-2_決定
  6
CONTINUOUS
 62
    7
 10
901.40451624453931
 20
1364.8842336688106
 40
1.4930410014248632
 50
140.50922555766655
 51
178.09987297416009
  0
ARC
  8
_0-2_決定
  6
CONTINUOUS
 62
    7
 10
902.82153142336199
 20
1363.6822513047118
 40
3.3510996698446376
 50
117.53604334133078
 51
140.05706085533558
  0
ARC
  8
_0-2_決定
  6
CONTINUOUS
 62
    7
 10
904.4903664589549
 20
1360.5440458139722
 40
6.9053839297720208
 50
102.18974044138379
 51
117.77647260240281
  0
ARC
  8
_0-2_決定
  6
CONTINUOUS
 62
    7
 10
905.24274992835387
 20
1357.2444286270438
 40
10.289545422532653
 50
89.612739125547634
 51
102.40527278945258
  0
ARC
  8
_0-2_決定
  6
CONTINUOUS
 62
    7
 10
905.47656597442142
 20
1358.957210759138
 40
8.5781012776739693
 50
60.102681934530189
 51
91.09727545187728
  0
ARC
  8
_0-2_決定
  6
CONTINUOUS
 62
    7
 10
908.67769005172875
 20
1364.6415322334333
 40
2.055482180819646
 50
8.1728396363391909
 51
58.479739737887847
  0
ARC
  8
_0-2_決定
  6
CONTINUOUS
 62
    7
 10
940.32196727378789
 20
1388.2678925181376
 40
2.9910538053411848
 50
308.70477424177534
 51
1.2614388019949021
  0
ARC
  8
_0-2_決定
  6
CONTINUOUS
 62
    7
 10
941.49665784351953
 20
1387.0429094400911
 40
1.3092638209306355
 50
270.6843794884079
 51
302.09470117966686
  0
ARC
  8
_0-2_決定
  6
CONTINUOUS
 62
    7
 10
941.56149602554763
 20
1387.1617385741883
 40
1.4288468621526709
 50
228.37045024314884
 51
268.02673078416933
  0
ARC
  8
_0-2_決定
  6
CONTINUOUS
 62
    7
 10
942.5403299056444
 20
1388.1691989876447
 40
2.832816274450551
 50
176.67018354288138
 51
227.10892999692135
  0
ARC
  8
_0-2_決定
  6
CONTINUOUS
 62
    7
 10
942.31550173963456
 20
1388.426384923109
 40
2.6048536100318422
 50
125.2453352209628
 51
182.03824856641134
  0
ARC
  8
_0-2_決定
  6
CONTINUOUS
 62
    7
 10
941.51904085527804
 20
1389.2563987034455
 40
1.4773557103333743
 50
90.261576443058146
 51
118.57996981194577
  0
ARC
  8
_0-2_決定
  6
CONTINUOUS
 62
    7
 10
941.43312671152785
 20
1388.9793267707669
 40
1.7561976372389607
 50
17.032404089226173
 51
87.416227298823173
  0
ARC
  8
_0-2_決定
  6
CONTINUOUS
 62
    7
 10
940.10770770507975
 20
1388.3784651388794
 40
3.2049006017269051
 50
359.2003804557628
 51
20.364433607945795
  0
ARC
  8
_0-2_決定
  6
CONTINUOUS
 62
    7
 10
976.57749172535318
 20
1366.5409111882761
 40
2.734811882343279
 50
306.18979956321527
 51
359.84973900035868
  0
ARC
  8
_0-2_決定
  6
CONTINUOUS
 62
    7
 10
977.49066913320178
 20
1365.4632642551726
 40
1.329701094367487
 50
270.93184841408015
 51
301.84723225394271
  0
ARC
  8
_0-2_決定
  6
CONTINUOUS
 62
    7
 10
977.55454405329431
 20
1365.5972664130154
 40
1.4641371132150218
 50
228.91233979263347
 51
268.34641566867884
  0
ARC
  8
_0-2_決定
  6
CONTINUOUS
 62
    7
 10
978.39174121719509
 20
1366.4797749847398
 40
2.6799903766083082
 50
178.84621961880714
 51
227.82186293461558
  0
ARC
  8
_0-2_決定
  6
CONTINUOUS
 62
    7
 10
978.70262313222497
 20
1366.5995855175329
 40
2.9910538053404769
 50
128.70477424178259
 51
181.26143880200217
  0
ARC
  8
_0-2_決定
  6
CONTINUOUS
 62
    7
 10
977.52793256249447
 20
1367.8245685955787
 40
1.309263820930858
 50
90.684379488440953
 51
122.09470117969991
  0
ARC
  8
_0-2_決定
  6
CONTINUOUS
 62
    7
 10
977.46309438046524
 20
1367.7057394614824
 40
1.428846862151893
 50
48.370450243136396
 51
88.026730784156882
  0
ARC
  8
_0-2_決定
  6
CONTINUOUS
 62
    7
 10
976.4842605003679
 20
1366.6982790480251
 40
2.832816274450551
 50
356.67018354288138
 51
47.108929996921347
  0
ARC
  8
_0-2_決定
  6
CONTINUOUS
 62
    7
 10
944.55829578703799
 20
1323.4517816907842
 40
2.3569581156332613
 50
297.10819654691926
 51
357.12932412253508
  0
ARC
  8
_0-2_決定
  6
CONTINUOUS
 62
    7
 10
943.38765104578954
 20
1325.1024132190307
 40
4.3693220473930152
 50
269.01180813174341
 51
300.91250237693185
  0
ARC
  8
_0-2_決定
  6
CONTINUOUS
 62
    7
 10
943.25613832604574
 20
1324.9972319890908
 40
4.2638608055523362
 50
226.70723505641769
 51
270.75464526512354
  0
ARC
  8
_0-2_決定
  6
CONTINUOUS
 62
    7
 10
941.89797165689129
 20
1323.4213235049244
 40
2.1874295146955651
 50
182.29467901770192
 51
224.29444749009326
  0
ARC
  8
_0-2_決定
  6
CONTINUOUS
 62
    7
 10
941.84277876261945
 20
1323.2380325897136
 40
2.1326312480197323
 50
113.50286621335815
 51
177.42781064383882
  0
ARC
  8
_0-2_決定
  6
CONTINUOUS
 62
    7
 10
943.19419425067338
 20
1320.9874382945222
 40
4.7477718576682841
 50
88.574606853577478
 51
117.63097302893917
  0
ARC
  8
_0-2_決定
  6
CONTINUOUS
 62
    7
 10
943.43288795922035
 20
1321.2630235396657
 40
4.4723435848861239
 50
48.910194882449396
 51
91.5451040524039
  0
ARC
  8
_0-2_決定
  6
CONTINUOUS
 62
    7
 10
944.98589555149806
 20
1323.2956976702849
 40
1.9267762626794858
 50
1.1313534149758619
 51
43.983139854464206
  0
ARC
  8
_0-2_決定
  6
CONTINUOUS
 62
    7
 10
978.76830463864337
 20
1332.4738270805162
 40
7.7442213174203944
 50
312.82264884742085
 51
0.4432641130465976
  0
ARC
  8
_0-2_決定
  6
CONTINUOUS
 62
    7
 10
981.03579536289146
 20
1330.4963604641885
 40
4.7632337821407775
 50
270.92022548562892
 51
308.98295590390666
  0
ARC
  8
_0-2_決定
  6
CONTINUOUS
 62
    7
 10
981.22228735796398
 20
1330.7347904747735
 40
5.0022589062227807
 50
208.16398179060278
 51
268.74003892366096
  0
ARC
  8
_0-2_決定
  6
CONTINUOUS
 62
    7
 10
983.58102559071085
 20
1332.3889824209496
 40
7.8700627776523273
 50
178.94608086064787
 51
210.67660551281907
  0
ARC
  8
_0-2_決定
  6
CONTINUOUS
 62
    7
 10
983.10381677698786
 20
1332.5499888403128
 40
7.3915404360932921
 50
131.64235955981141
 51
180.12596115841339
  0
ARC
  8
_0-2_決定
  6
CONTINUOUS
 62
    7
 10
981.20821501689022
 20
1334.317617530533
 40
4.8170766013203519
 50
91.140986851612354
 51
128.76219453791558
  0
ARC
  8
_0-2_決定
  6
CONTINUOUS
 62
    7
 10
980.98340698333232
 20
1334.0569047031731
 40
5.0784701017061256
 50
27.396485954324319
 51
88.545726065048868
  0
ARC
  8
_0-2_決定
  6
CONTINUOUS
 62
    7
 10
978.99792886630678
 20
1332.6128445506254
 40
7.5147817066568265
 50
359.39685581662474
 51
30.207140350222677
  0
ARC
  8
_0-2_決定
  6
CONTINUOUS
 62
    7
 10
898.11149971630869
 20
1346.8290609750954
 40
0.8064498054084605
 50
303.13330836025909
 51
353.21179848638633
  0
ARC
  8
_0-2_決定
  6
CONTINUOUS
 62
    7
 10
896.59705205697719
 20
1348.9917930415168
 40
3.4463793047078459
 50
282.99961589153486
 51
304.56444495490359
  0
ARC
  8
_0-2_決定
  6
CONTINUOUS
 62
    7
 10
894.88300186858623
 20
1355.762815449687
 40
10.430473414264448
 50
269.06225245351618
 51
283.80722584856284
  0
ARC
  8
_0-2_決定
  6
CONTINUOUS
 62
    7
 10
894.50555422273851
 20
1355.2318443968165
 40
9.9002642560603622
 50
254.45478710186785
 51
271.1965644251643
  0
ARC
  8
_0-2_決定
  6
CONTINUOUS
 62
    7
 10
892.41871096709929
 20
1348.1486440603328
 40
2.5194016060692266
 50
226.74489054606369
 51
257.00763868740125
  0
ARC
  8
_0-2_決定
  6
CONTINUOUS
 62
    7
 10
891.124454393223
 20
1346.7475210993553
 40
0.6123133149130508
 50
181.28973480703493
 51
225.10744622006493
  0
ARC
  8
_0-2_決定
  6
CONTINUOUS
 62
    7
 10
891.48245353762832
 20
1346.6773723886013
 40
0.9717934198228718
 50
128.89295229988656
 51
176.67482458555631
  0
ARC
  8
_0-2_決定
  6
CONTINUOUS
 62
    7
 10
892.74073698735606
 20
1345.1239446200029
 40
2.9708956772121597
 50
104.99034469318049
 51
128.97011674323335
  0
ARC
  8
_0-2_決定
  6
CONTINUOUS
 62
    7
 10
894.4774117119232
 20
1339.0160434459856
 40
9.3206556364781488
 50
88.555969088921842
 51
105.59110626101209
  0
ARC
  8
_0-2_決定
  6
CONTINUOUS
 62
    7
 10
894.94718069408975
 20
1339.0160434459835
 40
9.320655636480053
 50
74.408893738989363
 51
91.444030911079608
  0
ARC
  8
_0-2_決定
  6
CONTINUOUS
 62
    7
 10
896.83559079487225
 20
1345.3924163775821
 40
2.6734257122859684
 50
47.19212602776318
 51
76.662900100548512
  0
ARC
  8
_0-2_決定
  6
CONTINUOUS
 62
    7
 10
898.01473688788917
 20
1346.7218593050438
 40
0.8976379290833858
 50
0.7582982556369528
 51
44.743654429956329
  0
ARC
  8
_0-2_決定
  6
CONTINUOUS
 62
    7
 10
754.72913215052984
 20
1465.3169050703116
 40
4.5868247042320114
 50
272.28860565917807
 51
357.71139434081635
  0
ARC
  8
_0-2_決定
  6
CONTINUOUS
 62
    7
 10
755.09546425548251
 20
1465.3169050703107
 40
4.5868247042314181
 50
182.28860565917623
 51
267.71139434081454
  0
ARC
  8
_0-2_決定
  6
CONTINUOUS
 62
    7
 10
755.09546317222487
 20
1464.9505719653589
 40
4.5868236617712164
 50
92.288592637412449
 51
177.71138131905076
  0
ARC
  8
_0-2_決定
  6
CONTINUOUS
 62
    7
 10
754.72913323378748
 20
1464.9505719653584
 40
4.5868236617718088
 50
2.2886186809566591
 51
87.711407362594969
  0
ARC
  8
_0-2_決定
  6
CONTINUOUS
 62
    7
 10
743.78270413878511
 20
1315.6126105074097
 40
0.9329338243523841
 50
307.6286089091808
 51
355.1504717589545
  0
ARC
  8
_0-2_決定
  6
CONTINUOUS
 62
    7
 10
742.59980283001687
 20
1317.0787317638153
 40
2.8165979873261171
 50
284.65292302566024
 51
308.47717932848315
  0
ARC
  8
_0-2_決定
  6
CONTINUOUS
 62
    7
 10
741.72441040178887
 20
1319.973834117591
 40
5.8401056599329726
 50
269.88117023752966
 51
285.77698278261101
  0
ARC
  8
_0-2_決定
  6
CONTINUOUS
 62
    7
 10
741.59615762852604
 20
1318.7146657636304
 40
4.5823967702159525
 50
247.08996775444359
 51
271.45231364952389
  0
ARC
  8
_0-2_決定
  6
CONTINUOUS
 62
    7
 10
740.26135306843776
 20
1315.7917692667663
 40
1.3735092308359755
 50
190.82795669629002
 51
250.91685989872497
  0
ARC
  8
_0-2_決定
  6
CONTINUOUS
 62
    7
 10
739.8934913978303
 20
1315.4716988033531
 40
0.9831527459898352
 50
129.18585214165216
 51
176.38192474364351
  0
ARC
  8
_0-2_決定
  6
CONTINUOUS
 62
    7
 10
740.93716244180905
 20
1314.2284303955691
 40
2.6063467968430736
 50
104.3249368690125
 51
129.70039382689467
  0
ARC
  8
_0-2_決定
  6
CONTINUOUS
 62
    7
 10
741.67274236556318
 20
1311.5546815132245
 40
5.3792049429646962
 50
89.57867324440285
 51
104.86995814370849
  0
ARC
  8
_0-2_決定
  6
CONTINUOUS
 62
    7
 10
741.79597532433377
 20
1311.663058358547
 40
5.2713468445506306
 50
68.682503743557817
 51
90.909548812969049
  0
ARC
  8
_0-2_決定
  6
CONTINUOUS
 62
    7
 10
743.29317713413388
 20
1315.1699707593039
 40
1.4650028700002733
 50
14.377343315244023
 51
73.37605125660231
  0
ARC
  8
_0-2_決定
  6
CONTINUOUS
 62
    7
 10
764.78270413878477
 20
1342.2126085074096
 40
0.9329338243530173
 50
307.62860890917733
 51
355.15047175895103
  0
ARC
  8
_0-2_決定
  6
CONTINUOUS
 62
    7
 10
763.59980283001676
 20
1343.6787297638148
 40
2.8165979873261171
 50
284.65292302566024
 51
308.47717932848315
  0
ARC
  8
_0-2_決定
  6
CONTINUOUS
 62
    7
 10
762.72441040179069
 20
1346.5738321175911
 40
5.8401056599326919
 50
269.88117023750965
 51
285.77698278259106
  0
ARC
  8
_0-2_決定
  6
CONTINUOUS
 62
    7
 10
762.59615762852604
 20
1345.314663763631
 40
4.5823967702159525
 50
247.08996775444359
 51
271.45231364952389
  0
ARC
  8
_0-2_決定
  6
CONTINUOUS
 62
    7
 10
761.2613530684373
 20
1342.3917672667665
 40
1.3735092308358681
 50
190.82795669629388
 51
250.91685989872883
  0
ARC
  8
_0-2_決定
  6
CONTINUOUS
 62
    7
 10
761.08111430963788
 20
1342.0468798889626
 40
1.172039077586907
 50
132.30126513387651
 51
175.74994694123316
  0
ARC
  8
_0-2_決定
  6
CONTINUOUS
 62
    7
 10
762.146223556226
 20
1340.9016017389199
 40
2.7360072449665434
 50
107.30670179975009
 51
132.65657693794404
  0
ARC
  8
_0-2_決定
  6
CONTINUOUS
 62
    7
 10
762.69309604066109
 20
1339.4160071270931
 40
4.3177745892262358
 50
89.745191310058715
 51
108.37058494719192
  0
ARC
  8
_0-2_決定
  6
CONTINUOUS
 62
    7
 10
762.81303022436055
 20
1339.7750948513708
 40
3.9599255771800972
 50
46.630807449870908
 51
91.457639088865889
  0
ARC
  8
_0-2_決定
  6
CONTINUOUS
 62
    7
 10
764.86069719338502
 20
1342.1301078991196
 40
0.851608750900994
 50
0.2443004577884339
 51
37.942683543235482
  0
ARC
  8
_0-2_決定
  6
CONTINUOUS
 62
    7
 10
774.87000246030811
 20
1505.9693242516335
 40
10.843542250105351
 50
345.16911754917271
 51
0.8687676371785976
  0
ARC
  8
_0-2_決定
  6
CONTINUOUS
 62
    7
 10
782.61844894739534
 20
1503.7606616456414
 40
2.7920127660918266
 50
318.58540418927572
 51
348.28449345652245
  0
ARC
  8
_0-2_決定
  6
CONTINUOUS
 62
    7
 10
784.29908104787023
 20
1502.2975529181358
 40
0.5639707994410885
 50
271.34290028229117
 51
317.11259035372547
  0
ARC
  8
_0-2_決定
  6
CONTINUOUS
 62
    7
 10
784.42062763583294
 20
1502.5317135205696
 40
0.8052960728412952
 50
211.26751477121132
 51
262.26906309280827
  0
ARC
  8
_0-2_決定
  6
CONTINUOUS
 62
    7
 10
786.9109216467607
 20
1504.116246470961
 40
3.7568192805940153
 50
191.7105011885827
 51
212.2106268515891
  0
ARC
  8
_0-2_決定
  6
CONTINUOUS
 62
    7
 10
794.2474223927095
 20
1506.0300822483073
 40
11.335598118637161
 50
179.4760696765193
 51
193.65652756500182
  0
ARC
  8
_0-2_決定
  6
CONTINUOUS
 62
    7
 10
793.75459394570407
 20
1506.2981497840328
 40
10.843542250105214
 50
165.16911754915603
 51
180.86876763716191
  0
ARC
  8
_0-2_決定
  6
CONTINUOUS
 62
    7
 10
786.00614745861833
 20
1508.5068123900305
 40
2.7920127660918261
 50
138.58540418932665
 51
168.28449345657339
  0
ARC
  8
_0-2_決定
  6
CONTINUOUS
 62
    7
 10
784.3255153581415
 20
1509.969921117533
 40
0.5639707994417885
 50
91.342900282177752
 51
137.11259035361206
  0
ARC
  8
_0-2_決定
  6
CONTINUOUS
 62
    7
 10
784.20396877017993
 20
1509.7357605150999
 40
0.8052960728412952
 50
31.267514771211317
 51
82.269063092808281
  0
ARC
  8
_0-2_決定
  6
CONTINUOUS
 62
    7
 10
781.71367475925399
 20
1508.1512275647081
 40
3.7568192805928327
 50
11.710501188603104
 51
32.210626851609511
  0
ARC
  8
_0-2_決定
  6
CONTINUOUS
 62
    7
 10
774.37717401330133
 20
1506.2373917873661
 40
11.335598118638483
 50
359.47606967650097
 51
13.656527564983483
  0
ARC
  8
_0-2_決定
  6
CONTINUOUS
 62
    7
 10
812.01883557376254
 20
1460.4905419395536
 40
9.2823468478554148
 50
60.054943106213869
 51
76.965859296593308
  0
ARC
  8
_0-2_決定
  6
CONTINUOUS
 62
    7
 10
815.11078999695064
 20
1465.6266176629331
 40
3.2905304272993687
 50
35.420873522743435
 51
62.065103068585657
  0
ARC
  8
_0-2_決定
  6
CONTINUOUS
 62
    7
 10
817.16141728914295
 20
1467.0955608350621
 40
0.7681204948612343
 50
347.83808566805766
 51
34.781779279988008
  0
ARC
  8
_0-2_決定
  6
CONTINUOUS
 62
    7
 10
817.12917212928437
 20
1467.2051411342195
 40
0.8288224428265932
 50
291.45257756974689
 51
340.88547209339237
  0
ARC
  8
_0-2_決定
  6
CONTINUOUS
 62
    7
 10
816.31034682538086
 20
1469.4458375591169
 40
3.2142670262674859
 50
267.89525598802913
 51
290.42943810339852
  0
ARC
  8
_0-2_決定
  6
CONTINUOUS
 62
    7
 10
816.22227263784475
 20
1474.9508246308528
 40
8.7171371476781143
 50
250.49906382557958
 51
269.80298440132356
  0
ARC
  8
_0-2_決定
  6
CONTINUOUS
 62
    7
 10
815.86131583052429
 20
1476.3499269497274
 40
9.9482963200556664
 50
239.09894567233761
 51
255.15372394640121
  0
ARC
  8
_0-2_決定
  6
CONTINUOUS
 62
    7
 10
812.30256222256776
 20
1470.6772327197436
 40
3.2562134704584933
 50
214.9100112497471
 51
241.56938934244965
  0
ARC
  8
_0-2_決定
  6
CONTINUOUS
 62
    7
 10
810.1718922190463
 20
1469.2121048676904
 40
0.6707150258825154
 50
169.55177208728884
 51
216.43746149654876
  0
ARC
  8
_0-2_決定
  6
CONTINUOUS
 62
    7
 10
810.23005657106842
 20
1469.055304009072
 40
0.7698714277668901
 50
106.43039372212363
 51
158.7977182170938
  0
ARC
  8
_0-2_決定
  6
CONTINUOUS
 62
    7
 10
811.10333688353592
 20
1466.2902977385281
 40
3.6693939807825577
 50
86.735405806564629
 51
107.29759768285858
  0
ARC
  8
_0-2_決定
  6
CONTINUOUS
 62
    7
 10
811.05727782779695
 20
1458.7102678497704
 40
11.246360936987209
 50
74.237808518186583
 51
88.700660261916553
  0
ARC
  8
_0-2_決定
  6
CONTINUOUS
 62
    7
 10
783.1712092823409
 20
1391.6922606728597
 40
5.5412441635269394
 50
321.90820888015514
 51
0.4288849637280481
  0
ARC
  8
_0-2_決定
  6
CONTINUOUS
 62
    7
 10
785.52695138950548
 20
1389.9245168907819
 40
2.5973993586330146
 50
274.0920251336421
 51
320.53919081325694
  0
ARC
  8
_0-2_決定
  6
CONTINUOUS
 62
    7
 10
785.82346144442965
 20
1389.6932209277168
 40
2.3620990981125543
 50
206.64966990204255
 51
267.302594986359
  0
ARC
  8
_0-2_決定
  6
CONTINUOUS
 62
    7
 10
788.60916706783109
 20
1391.5506729184353
 40
5.6998094757425832
 50
178.15946145624619
 51
210.78112674389104
  0
ARC
  8
_0-2_決定
  6
CONTINUOUS
 62
    7
 10
788.69690756491059
 20
1391.8373292804567
 40
5.785536830091468
 50
143.06709597603589
 51
181.02593798977534
  0
ARC
  8
_0-2_決定
  6
CONTINUOUS
 62
    7
 10
785.83644266148269
 20
1393.8354501008835
 40
2.3016393706122242
 50
93.091886166222395
 51
140.0382161879574
  0
ARC
  8
_0-2_決定
  6
CONTINUOUS
 62
    7
 10
785.65592379561713
 20
1393.936576384363
 40
2.1978857367327906
 50
55.769125828190504
 51
88.530237567372851
  0
ARC
  8
_0-2_決定
  6
CONTINUOUS
 62
    7
 10
784.60665161847123
 20
1392.485142486556
 40
3.9884713354475587
 50
11.696849112018086
 51
55.035882890091806
  0
ARC
  8
_0-2_決定
  6
CONTINUOUS
 62
    7
 10
782.6553018066877
 20
1391.7500215311279
 40
6.0570182817333054
 50
359.84597695239006
 51
14.765542114219244
  0
ARC
  8
_0-2_決定
  6
CONTINUOUS
 62
    7
 10
794.57974972584589
 20
1407.6531706023686
 40
26.334043136931111
 50
342.77211330112317
 51
0.6104527940576676
  0
ARC
  8
_0-2_決定
  6
CONTINUOUS
 62
    7
 10
810.15330086625886
 20
1403.0854625179356
 40
10.109462238839729
 50
327.63487973693003
 51
341.3568412894345
  0
ARC
  8
_0-2_決定
  6
CONTINUOUS
 62
    7
 10
815.15242104030199
 20
1399.8709126440851
 40
4.166329592210495
 50
305.84665341181505
 51
328.17245421421666
  0
ARC
  8
_0-2_決定
  6
CONTINUOUS
 62
    7
 10
816.47533214895304
 20
1398.0446371799953
 40
1.9112556802532141
 50
271.10824050285339
 51
305.76165714297252
  0
ARC
  8
_0-2_決定
  6
CONTINUOUS
 62
    7
 10
816.55967058456645
 20
1398.0758561625162
 40
1.9426948155073758
 50
234.52739160943858
 51
268.60271074474451
  0
ARC
  8
_0-2_決定
  6
CONTINUOUS
 62
    7
 10
817.79426421873245
 20
1399.7656294175702
 40
4.0353624678985955
 50
213.57877817079836
 51
234.17461640102451
  0
ARC
  8
_0-2_決定
  6
CONTINUOUS
 62
    7
 10
822.06190501935282
 20
1402.6381216636812
 40
9.1796308404671407
 50
200.2976138062684
 51
213.78343401281501
  0
ARC
  8
_0-2_決定
  6
CONTINUOUS
 62
    7
 10
830.27181486163863
 20
1405.7292504668387
 40
17.952108081687882
 50
190.70780943210798
 51
200.46099290168721
  0
ARC
  8
_0-2_決定
  6
CONTINUOUS
 62
    7
 10
840.41389935691484
 20
1407.7958026640481
 40
28.301937289037198
 50
179.72075402044615
 51
191.00371104608308
  0
ARC
  8
_0-2_決定
  6
CONTINUOUS
 62
    7
 10
837.49923303824687
 20
1408.1798930551045
 40
25.388128173199309
 50
162.45387802832533
 51
180.55552769891406
  0
ARC
  8
_0-2_決定
  6
CONTINUOUS
 62
    7
 10
822.74881490005498
 20
1412.654704181758
 40
9.9765710808151056
 50
147.09988832354733
 51
161.41869496398888
  0
ARC
  8
_0-2_決定
  6
CONTINUOUS
 62
    7
 10
817.73006224792425
 20
1415.8761136165756
 40
4.0129959862433813
 50
124.23670318815556
 51
146.79562527136434
  0
ARC
  8
_0-2_決定
  6
CONTINUOUS
 62
    7
 10
816.56563571450624
 20
1417.6100007473653
 40
1.9244775455698164
 50
91.58817424584177
 51
124.6193518231731
  0
ARC
  8
_0-2_決定
  6
CONTINUOUS
 62
    7
 10
816.4631902546264
 20
1417.586415172696
 40
1.9479429530766945
 50
54.574691017977976
 51
88.555411336168945
  0
ARC
  8
_0-2_決定
  6
CONTINUOUS
 62
    7
 10
815.21651561909584
 20
1415.8885634563819
 40
4.0542226573761129
 50
33.627202840416835
 51
54.126191731445772
  0
ARC
  8
_0-2_決定
  6
CONTINUOUS
 62
    7
 10
811.02247344132115
 20
1413.0265662460167
 40
9.1315639757835143
 50
20.5618525512287
 51
34.00656203603431
  0
ARC
  8
_0-2_決定
  6
CONTINUOUS
 62
    7
 10
803.03074701127321
 20
1409.9905417843124
 40
17.680509820856571
 50
10.899648192435013
 51
20.677767292095353
  0
ARC
  8
_0-2_決定
  6
CONTINUOUS
 62
    7
 10
793.75062010376212
 20
1408.0432070527243
 40
27.161898689480704
 50
359.76908560621541
 51
11.231737334180691
  0
ARC
  8
_0-2_決定
  6
CONTINUOUS
 62
    7
 10
891.00324671016892
 20
879.8713707499237
 40
27.666580522982805
 50
283.18162594285542
 51
300.42119302985554
  0
ARC
  8
_0-2_決定
  6
CONTINUOUS
 62
    7
 10
902.09571832800407
 20
860.66216687894871
 40
5.4876437298851988
 50
302.10556855634405
 51
321.8688564352841
  0
ARC
  8
_0-2_決定
  6
CONTINUOUS
 62
    7
 10
905.398184538019
 20
858.13321258339761
 40
1.3293244628201919
 50
319.71852899622456
 51
8.6764430958732799
  0
ARC
  8
_0-2_決定
  6
CONTINUOUS
 62
    7
 10
905.54806686439406
 20
857.96362371952478
 40
1.2216469247857389
 50
17.636121594412479
 51
59.271296838997728
  0
ARC
  8
_0-2_決定
  6
CONTINUOUS
 62
    7
 10
904.28917965878099
 20
855.78464011215999
 40
3.7380823061313913
 50
59.750568604983059
 51
80.71509404148081
  0
ARC
  8
_0-2_決定
  6
CONTINUOUS
 62
    7
 10
902.73433942319286
 20
848.07826566009112
 40
11.598007278762148
 50
79.276902415125804
 51
91.195814203403884
  0
ARC
  8
_0-2_決定
  6
CONTINUOUS
 62
    7
 10
903.0820011432354
 20
832.04581243623068
 40
27.634227348741419
 50
91.222765113145343
 51
105.0374395951652
  0
ARC
  8
_0-2_決定
  6
CONTINUOUS
 62
    7
 10
902.32142251910432
 20
832.39510039090533
 40
27.107216866988907
 50
103.67629472941641
 51
121.06876747027789
  0
ARC
  8
_0-2_決定
  6
CONTINUOUS
 62
    7
 10
891.1726283325828
 20
851.18402344940421
 40
5.2621229080109275
 50
122.66793200021584
 51
142.9604663862489
  0
ARC
  8
_0-2_決定
  6
CONTINUOUS
 62
    7
 10
888.00516046884525
 20
853.54733063634626
 40
1.3103877181882284
 50
142.01879957676883
 51
189.38064552484997
  0
ARC
  8
_0-2_決定
  6
CONTINUOUS
 62
    7
 10
887.87865500755515
 20
853.70556136262337
 40
1.224189024594877
 50
197.68135211900179
 51
239.22606631439635
  0
ARC
  8
_0-2_決定
  6
CONTINUOUS
 62
    7
 10
889.13575738438851
 20
855.88381291385531
 40
3.7390843417082431
 50
239.75340949555965
 51
260.71225315085917
  0
ARC
  8
_0-2_決定
  6
CONTINUOUS
 62
    7
 10
890.66247072181739
 20
863.30580633978548
 40
11.314393746690092
 50
259.14808927013206
 51
271.16390997968989
  0
ARC
  8
_0-2_決定
  6
CONTINUOUS
 62
    7
 10
890.34352840509655
 20
878.1353313397326
 40
26.14734359270421
 50
271.20258439810891
 51
285.45724051765831
  0
ARC
  8
_0-2_決定
  6
CONTINUOUS
 62
    7
 10
865.22770842133411
 20
1136.3509468507366
 40
3.7741236367346698
 50
347.49480677866717
 51
35.708216285362127
  0
ARC
  8
_0-2_決定
  6
CONTINUOUS
 62
    7
 10
861.36703947098226
 20
1134.0452747956151
 40
8.263502073286503
 50
33.064860059245525
 51
47.664213086941828
  0
ARC
  8
_0-2_決定
  6
CONTINUOUS
 62
    7
 10
856.1598656031631
 20
1128.4778034563033
 40
15.886246431205105
 50
47.304814290598109
 51
68.848062964961542
  0
ARC
  8
_0-2_決定
  6
CONTINUOUS
 62
    7
 10
852.04109505231349
 20
1119.8556858744971
 40
25.424175242587253
 50
67.202598663646441
 51
74.320112302543976
  0
ARC
  8
_0-2_決定
  6
CONTINUOUS
 62
    7
 10
853.63036521637446
 20
1124.3240332440221
 40
20.695102806697054
 50
75.21301521199554
 51
95.206723343280018
  0
ARC
  8
_0-2_決定
  6
CONTINUOUS
 62
    7
 10
852.65920148587611
 20
1135.3011885738301
 40
9.6751528312895569
 50
95.378544495902588
 51
122.13875619978499
  0
ARC
  8
_0-2_決定
  6
CONTINUOUS
 62
    7
 10
849.62317015395058
 20
1140.5059759100163
 40
3.6582155660013504
 50
125.24141664601615
 51
163.68322777000597
  0
ARC
  8
_0-2_決定
  6
CONTINUOUS
 62
    7
 10
849.78983283407558
 20
1140.7150915977236
 40
3.7675543553491133
 50
167.45009591473661
 51
215.75292714928233
  0
ARC
  8
_0-2_決定
  6
CONTINUOUS
 62
    7
 10
853.47351239651948
 20
1142.9409923995943
 40
8.0650190859028363
 50
213.29464420772914
 51
228.14642873179167
  0
ARC
  8
_0-2_決定
  6
CONTINUOUS
 62
    7
 10
858.29871397583588
 20
1148.1378681652757
 40
15.155968595673928
 50
227.66798927609537
 51
249.58600044369012
  0
ARC
  8
_0-2_決定
  6
CONTINUOUS
 62
    7
 10
861.75117129113403
 20
1155.7192557910241
 40
23.4728887143592
 50
248.14267968304279
 51
256.09992712526576
  0
ARC
  8
_0-2_決定
  6
CONTINUOUS
 62
    7
 10
861.44350502949294
 20
1153.1537434458801
 40
20.911006787377978
 50
255.22952591394716
 51
275.34741219385245
  0
ARC
  8
_0-2_決定
  6
CONTINUOUS
 62
    7
 10
862.5028798082451
 20
1141.9861831856681
 40
9.6933308370689151
 50
275.26460764463877
 51
302.08879581974838
  0
ARC
  8
_0-2_決定
  6
CONTINUOUS
 62
    7
 10
865.65500366514584
 20
1136.5346456301672
 40
3.4076033684358635
 50
305.88273448123778
 51
342.91882560080057
  0
ARC
  8
_0-2_決定
  6
CONTINUOUS
 62
    7
 10
885.12913015053073
 20
1063.9169110703108
 40
4.5868247042311951
 50
272.28860565918268
 51
357.71139434082102
  0
ARC
  8
_0-2_決定
  6
CONTINUOUS
 62
    7
 10
885.49546225548227
 20
1063.9169110703115
 40
4.5868247042317885
 50
182.2886056591864
 51
267.71139434082477
  0
ARC
  8
_0-2_決定
  6
CONTINUOUS
 62
    7
 10
885.49546117222576
 20
1063.5505779653581
 40
4.5868236617720317
 50
92.288592637407817
 51
177.71138131904613
  0
ARC
  8
_0-2_決定
  6
CONTINUOUS
 62
    7
 10
885.12913123378723
 20
1063.550577965359
 40
4.5868236617714384
 50
2.2886186809464815
 51
87.711407362584794
  0
ARC
  8
_0-2_決定
  6
CONTINUOUS
 62
    7
 10
863.27756947083742
 20
971.32935062797571
 40
2.4347306978393908
 50
280.28544591477259
 51
0.10341190070235
  0
ARC
  8
_0-2_決定
  6
CONTINUOUS
 62
    7
 10
863.82949822529042
 20
971.24951353826134
 40
2.3187324455886991
 50
177.91818570673482
 51
267.10270844925708
  0
ARC
  8
_0-2_決定
  6
CONTINUOUS
 62
    7
 10
863.80745289539504
 20
971.23858832544647
 40
2.297128433222746
 50
92.374110760965891
 51
177.62588923903411
  0
ARC
  8
_0-2_決定
  6
CONTINUOUS
 62
    7
 10
863.52174947603089
 20
971.35142981149329
 40
2.1906181125404518
 50
359.53744788335507
 51
85.0099301288368
  0
ARC
  8
_0-2_決定
  6
CONTINUOUS
 62
    7
 10
874.03366040421133
 20
914.44274924497654
 40
1.0841294535076138
 50
310.12227875522376
 51
354.2295284762393
  0
ARC
  8
_0-2_決定
  6
CONTINUOUS
 62
    7
 10
872.72400511106696
 20
915.86141537153196
 40
3.0141742050140241
 50
287.93725269253048
 51
311.78077963737201
  0
ARC
  8
_0-2_決定
  6
CONTINUOUS
 62
    7
 10
872.09564335985647
 20
917.52315231957141
 40
4.7894342527577987
 50
270.19921759054324
 51
288.96667185650932
  0
ARC
  8
_0-2_決定
  6
CONTINUOUS
 62
    7
 10
871.98534575788187
 20
916.18788837045201
 40
3.4564734773144163
 50
223.84059183827222
 51
272.10485082338727
  0
ARC
  8
_0-2_決定
  6
CONTINUOUS
 62
    7
 10
870.27036472349096
 20
914.35310319132896
 40
0.9582640301062044
 50
181.15740802437068
 51
215.71248962141905
  0
ARC
  8
_0-2_決定
  6
CONTINUOUS
 62
    7
 10
870.29348939783119
 20
914.27170480335371
 40
0.9831527459899838
 50
129.18585214170318
 51
176.3819247436945
  0
ARC
  8
_0-2_決定
  6
CONTINUOUS
 62
    7
 10
871.33716044180915
 20
913.02843639557011
 40
2.6063467968426441
 50
104.32493686902527
 51
129.70039382690746
  0
ARC
  8
_0-2_決定
  6
CONTINUOUS
 62
    7
 10
872.072740365561
 20
910.35468751322355
 40
5.3792049429654876
 50
89.578673244378862
 51
104.8699581436845
  0
ARC
  8
_0-2_決定
  6
CONTINUOUS
 62
    7
 10
872.19597332433409
 20
910.46306435854694
 40
5.2713468445505658
 50
68.682503743561753
 51
90.909548812973
  0
ARC
  8
_0-2_決定
  6
CONTINUOUS
 62
    7
 10
873.69317513413364
 20
913.96997675930379
 40
1.4650028700001771
 50
14.377343315231974
 51
73.376051256590259
  0
ARC
  8
_0-2_決定
  6
CONTINUOUS
 62
    7
 10
895.03366040421156
 20
941.04274724497657
 40
1.0841294535079484
 50
310.12227875523308
 51
354.22952847624862
  0
ARC
  8
_0-2_決定
  6
CONTINUOUS
 62
    7
 10
893.72400511106775
 20
942.46141337153313
 40
3.0141742050148745
 50
287.93725269250609
 51
311.78077963734762
  0
ARC
  8
_0-2_決定
  6
CONTINUOUS
 62
    7
 10
893.09564335985669
 20
944.12315031957178
 40
4.7894342527576521
 50
270.19921759053295
 51
288.96667185649903
  0
ARC
  8
_0-2_決定
  6
CONTINUOUS
 62
    7
 10
892.98534575788153
 20
942.78788637045238
 40
3.4564734773144163
 50
223.84059183827222
 51
272.10485082338727
  0
ARC
  8
_0-2_決定
  6
CONTINUOUS
 62
    7
 10
891.27036472349062
 20
940.95310119132819
 40
0.9582640301054479
 50
181.15740802432546
 51
215.71248962137381
  0
ARC
  8
_0-2_決定
  6
CONTINUOUS
 62
    7
 10
891.29348939783085
 20
940.87170280335408
 40
0.9831527459893436
 50
129.18585214173049
 51
176.38192474372181
  0
ARC
  8
_0-2_決定
  6
CONTINUOUS
 62
    7
 10
892.33716044180881
 20
939.62843439556855
 40
2.6063467968435035
 50
104.3249368689997
 51
129.70039382688188
  0
ARC
  8
_0-2_決定
  6
CONTINUOUS
 62
    7
 10
893.07274036556294
 20
936.95468551322529
 40
5.3792049429636366
 50
89.578673244404285
 51
104.86995814370994
  0
ARC
  8
_0-2_決定
  6
CONTINUOUS
 62
    7
 10
893.19597332433375
 20
937.06306235854697
 40
5.2713468445505658
 50
68.682503743561753
 51
90.909548812973
  0
ARC
  8
_0-2_決定
  6
CONTINUOUS
 62
    7
 10
894.6931751341333
 20
940.56997475930359
 40
1.4650028700005771
 50
14.377343315248245
 51
73.37605125660653
  0
ARC
  8
_0-2_決定
  6
CONTINUOUS
 62
    7
 10
824.6171405106179
 20
842.82890262371723
 40
2.2971273890739061
 50
272.37413680450862
 51
357.62591528257684
  0
ARC
  8
_0-2_決定
  6
CONTINUOUS
 62
    7
 10
824.90284492998171
 20
842.71606222417631
 40
2.1906181125404518
 50
179.53744788335513
 51
265.0099301288368
  0
ARC
  8
_0-2_決定
  6
CONTINUOUS
 62
    7
 10
825.14702493517552
 20
842.73814140769389
 40
2.4347306978393908
 50
100.28544591477259
 51
180.10341190070238
  0
ARC
  8
_0-2_決定
  6
CONTINUOUS
 62
    7
 10
824.59509518072252
 20
842.81797951174303
 40
2.3187314830964176
 50
357.91815976147063
 51
87.102682503992853
  0
ARC
  8
_0-2_決定
  6
CONTINUOUS
 62
    7
 10
835.13110300818198
 20
785.79579123231554
 40
0.983152745989506
 50
309.18585214171208
 51
356.38192474370345
  0
ARC
  8
_0-2_決定
  6
CONTINUOUS
 62
    7
 10
834.08743196420369
 20
787.0390596401021
 40
2.6063467968446563
 50
284.32493686898675
 51
309.70039382686895
  0
ARC
  8
_0-2_決定
  6
CONTINUOUS
 62
    7
 10
833.35185204045024
 20
789.71280852244092
 40
5.3792049429603219
 50
269.57867324439729
 51
284.86995814370289
  0
ARC
  8
_0-2_決定
  6
CONTINUOUS
 62
    7
 10
833.22861908167795
 20
789.60443167712333
 40
5.2713468445511609
 50
248.68250374357103
 51
270.90954881298228
  0
ARC
  8
_0-2_決定
  6
CONTINUOUS
 62
    7
 10
831.73141727187931
 20
786.09751927636557
 40
1.4650028700003772
 50
194.37734331524013
 51
253.3760512565984
  0
ARC
  8
_0-2_決定
  6
CONTINUOUS
 62
    7
 10
831.24189026722831
 20
785.6548795282597
 40
0.9329338243530173
 50
127.62860890917732
 51
175.15047175895103
  0
ARC
  8
_0-2_決定
  6
CONTINUOUS
 62
    7
 10
832.42479157599632
 20
784.18875827185525
 40
2.8165979873255016
 50
104.65292302566654
 51
128.47717932848943
  0
ARC
  8
_0-2_決定
  6
CONTINUOUS
 62
    7
 10
833.30018400422182
 20
781.29365591807755
 40
5.8401056599336414
 50
89.881170237503298
 51
105.77698278258468
  0
ARC
  8
_0-2_決定
  6
CONTINUOUS
 62
    7
 10
833.42843677748851
 20
782.55282427203974
 40
4.5823967702149773
 50
67.089967754462705
 51
91.452313649542987
  0
ARC
  8
_0-2_決定
  6
CONTINUOUS
 62
    7
 10
834.7632413375743
 20
785.47572076890424
 40
1.3735092308357406
 50
10.827956696251533
 51
70.916859898686482
  0
ARC
  8
_0-2_決定
  6
CONTINUOUS
 62
    7
 10
856.13110300818198
 20
812.39578923231556
 40
0.983152745989506
 50
309.18585214171208
 51
356.38192474370345
  0
ARC
  8
_0-2_決定
  6
CONTINUOUS
 62
    7
 10
855.08743196420369
 20
813.63905764010212
 40
2.6063467968446563
 50
284.32493686898675
 51
309.70039382686895
  0
ARC
  8
_0-2_決定
  6
CONTINUOUS
 62
    7
 10
854.35185204044933
 20
816.31280652244072
 40
5.3792049429604569
 50
269.57867324440861
 51
284.8699581437142
  0
ARC
  8
_0-2_決定
  6
CONTINUOUS
 62
    7
 10
854.22861908167874
 20
816.20442967712336
 40
5.2713468445512914
 50
248.68250374356316
 51
270.90954881297438
  0
ARC
  8
_0-2_決定
  6
CONTINUOUS
 62
    7
 10
852.7314172718792
 20
812.6975172763656
 40
1.4650028700003772
 50
194.37734331524013
 51
253.3760512565984
  0
ARC
  8
_0-2_決定
  6
CONTINUOUS
 62
    7
 10
852.3909320018015
 20
812.22474479069433
 40
1.0841294535077535
 50
130.12227875529547
 51
174.229528476311
  0
ARC
  8
_0-2_決定
  6
CONTINUOUS
 62
    7
 10
853.7005872949436
 20
810.80607866413629
 40
3.0141742050145326
 50
107.93725269249475
 51
131.78077963733628
  0
ARC
  8
_0-2_決定
  6
CONTINUOUS
 62
    7
 10
854.32894904615637
 20
809.14434171609537
 40
4.789434252760377
 50
90.199217590538055
 51
108.96667185650414
  0
ARC
  8
_0-2_決定
  6
CONTINUOUS
 62
    7
 10
854.43924664813096
 20
810.4796056652176
 40
3.4564734773140948
 50
43.840591838270051
 51
92.104850823385078
  0
ARC
  8
_0-2_決定
  6
CONTINUOUS
 62
    7
 10
856.15422768252188
 20
812.31439084434078
 40
0.9582640301060531
 50
1.1574080243435489
 51
35.71248962139191
  0
ARC
  8
_0-2_決定
  6
CONTINUOUS
 62
    7
 10
905.29182486994273
 20
1104.6588974652309
 40
10.823961379616375
 50
345.52705763644042
 51
1.4550294825575987
  0
ARC
  8
_0-2_決定
  6
CONTINUOUS
 62
    7
 10
913.15720466421283
 20
1102.5151829801725
 40
2.6746810253895492
 50
318.23797085436814
 51
347.88297301801595
  0
ARC
  8
_0-2_決定
  6
CONTINUOUS
 62
    7
 10
914.69313469513679
 20
1101.1598983351482
 40
0.6264484374499526
 50
271.75280953865587
 51
317.13510002215492
  0
ARC
  8
_0-2_決定
  6
CONTINUOUS
 62
    7
 10
914.80339887060779
 20
1101.3277417600825
 40
0.7992081698372945
 50
212.89054707004541
 51
263.45455977664051
  0
ARC
  8
_0-2_決定
  6
CONTINUOUS
 62
    7
 10
917.06424690433664
 20
1102.8642465954513
 40
3.532593843683645
 50
192.26603391535676
 51
213.90423343026686
  0
ARC
  8
_0-2_決定
  6
CONTINUOUS
 62
    7
 10
924.74791336809517
 20
1104.7243405885856
 40
11.437534232684834
 50
178.95094995601673
 51
193.19396285836626
  0
ARC
  8
_0-2_決定
  6
CONTINUOUS
 62
    7
 10
924.15459194570474
 20
1105.0981557840371
 40
10.843542250105225
 50
165.1691175491782
 51
180.86876763718405
  0
ARC
  8
_0-2_決定
  6
CONTINUOUS
 62
    7
 10
916.40614545861808
 20
1107.3068183900286
 40
2.7920127660923217
 50
138.58540418929357
 51
168.2844934565403
  0
ARC
  8
_0-2_決定
  6
CONTINUOUS
 62
    7
 10
914.7255133581416
 20
1108.7699271175338
 40
0.5639707994408637
 50
91.342900282240393
 51
137.1125903536747
  0
ARC
  8
_0-2_決定
  6
CONTINUOUS
 62
    7
 10
914.60396677017968
 20
1108.5357665151
 40
0.8052960728412952
 50
31.267514771211317
 51
82.269063092808281
  0
ARC
  8
_0-2_決定
  6
CONTINUOUS
 62
    7
 10
912.1136727592534
 20
1106.9512335647082
 40
3.7568192805932026
 50
11.710501188600821
 51
32.210626851607223
  0
ARC
  8
_0-2_決定
  6
CONTINUOUS
 62
    7
 10
904.77717201330108
 20
1105.037397787366
 40
11.335598118638483
 50
359.47606967650097
 51
13.656527564983483
  0
ARC
  8
_0-2_決定
  6
CONTINUOUS
 62
    7
 10
934.67000771357164
 20
1066.5693312516369
 40
10.843534982513756
 50
345.16911284699574
 51
0.868762935001641
  0
ARC
  8
_0-2_決定
  6
CONTINUOUS
 62
    7
 10
942.41844694739427
 20
1064.36066964564
 40
2.7920127660920739
 50
318.58540418931648
 51
348.28449345656321
  0
ARC
  8
_0-2_決定
  6
CONTINUOUS
 62
    7
 10
944.09907904787076
 20
1062.8975609181364
 40
0.5639707994415301
 50
271.34290028220994
 51
317.11259035364424
  0
ARC
  8
_0-2_決定
  6
CONTINUOUS
 62
    7
 10
944.24471815877098
 20
1063.2065165269369
 40
0.8827602627376407
 50
213.9325592529448
 51
261.37255374816732
  0
ARC
  8
_0-2_決定
  6
CONTINUOUS
 62
    7
 10
946.62082853114725
 20
1064.9830365141825
 40
3.8487214929754296
 50
195.51185599877161
 51
216.13020041489449
  0
ARC
  8
_0-2_決定
  6
CONTINUOUS
 62
    7
 10
951.88502854392937
 20
1066.6635606208438
 40
9.3729950978025727
 50
179.57098102818844
 51
196.80462299560472
  0
ARC
  8
_0-2_決定
  6
CONTINUOUS
 62
    7
 10
952.0546989042316
 20
1066.7966509229318
 40
9.5426100578865363
 50
164.20731390938926
 51
180.37771464467889
  0
ARC
  8
_0-2_決定
  6
CONTINUOUS
 62
    7
 10
946.57383286849324
 20
1068.5263507035777
 40
3.8018078742584294
 50
142.63288690481488
 51
166.81166862409154
  0
ARC
  8
_0-2_決定
  6
CONTINUOUS
 62
    7
 10
944.15620396818611
 20
1070.3791151895002
 40
0.755904128273334
 50
93.329981121863412
 51
143.02719909811628
  0
ARC
  8
_0-2_決定
  6
CONTINUOUS
 62
    7
 10
944.00396677017966
 20
1070.3357665151
 40
0.8052960728412952
 50
31.267514771211317
 51
82.269063092808281
  0
ARC
  8
_0-2_決定
  6
CONTINUOUS
 62
    7
 10
941.51367275925338
 20
1068.7512335647082
 40
3.7568192805932026
 50
11.710501188600821
 51
32.210626851607223
  0
ARC
  8
_0-2_決定
  6
CONTINUOUS
 62
    7
 10
934.17717201330163
 20
1066.8373977873639
 40
11.335598118638748
 50
359.47606967651257
 51
13.656527564995047
  0
ARC
  8
_0-2_決定
  6
CONTINUOUS
 62
    7
 10
859.19201823350761
 20
1021.7309691857844
 40
11.263135903667285
 50
155.87941049440542
 51
171.51039826428823
  0
ARC
  8
_0-2_決定
  6
CONTINUOUS
 62
    7
 10
850.93013829611345
 20
1022.8828888272079
 40
2.9228323866347843
 50
169.93407367419024
 51
198.12245365875015
  0
ARC
  8
_0-2_決定
  6
CONTINUOUS
 62
    7
 10
848.88647821982067
 20
1022.207166667956
 40
0.7703952885103055
 50
197.6372456360665
 51
240.94156808901079
  0
ARC
  8
_0-2_決定
  6
CONTINUOUS
 62
    7
 10
848.62660483382001
 20
1022.5037978050977
 40
0.9767644921652733
 50
263.2793988489417
 51
309.83474390237859
  0
ARC
  8
_0-2_決定
  6
CONTINUOUS
 62
    7
 10
846.38786474365133
 20
1025.3177016779741
 40
4.5723904755272571
 50
308.78961643323748
 51
327.68978415895117
  0
ARC
  8
_0-2_決定
  6
CONTINUOUS
 62
    7
 10
838.07384513095849
 20
1031.144739863314
 40
14.721549723049208
 50
325.81761406398562
 51
335.90111846921764
  0
ARC
  8
_0-2_決定
  6
CONTINUOUS
 62
    7
 10
842.22663359234753
 20
1029.5158183734154
 40
10.267721120710384
 50
334.73652164852894
 51
350.45807008874976
  0
ARC
  8
_0-2_決定
  6
CONTINUOUS
 62
    7
 10
849.16959836306069
 20
1028.4794064087694
 40
3.2515643354820405
 50
348.18687086405089
 51
14.868180020389438
  0
ARC
  8
_0-2_決定
  6
CONTINUOUS
 62
    7
 10
851.73820273898286
 20
1029.1674655282875
 40
0.592436489842767
 50
14.294836321124526
 51
72.91080162440862
  0
ARC
  8
_0-2_決定
  6
CONTINUOUS
 62
    7
 10
851.62504925019732
 20
1028.9716261339381
 40
0.8144544217385461
 50
69.34828775331853
 51
120.44989715423921
  0
ARC
  8
_0-2_決定
  6
CONTINUOUS
 62
    7
 10
852.73759292024295
 20
1027.0363389448369
 40
3.0467098433388982
 50
120.04217516046427
 51
143.37933948252976
  0
ARC
  8
_0-2_決定
  6
CONTINUOUS
 62
    7
 10
857.1021608659637
 20
1023.4866762738343
 40
8.6706218710439042
 50
141.75724276796879
 51
160.83085214522629
  0
ARC
  8
_0-2_決定
  6
CONTINUOUS
 62
    7
 10
773.936161234883
 20
906.99377962929384
 40
10.770384074145088
 50
158.54225598099384
 51
174.67274851151794
  0
ARC
  8
_0-2_決定
  6
CONTINUOUS
 62
    7
 10
765.05291173513478
 20
907.64284747931924
 40
1.8737632349859714
 50
169.20649598293886
 51
224.31861294072183
  0
ARC
  8
_0-2_決定
  6
CONTINUOUS
 62
    7
 10
763.82016808137223
 20
907.17798745031109
 40
0.8511038823118521
 50
262.71868430669167
 51
308.69859135136488
  0
ARC
  8
_0-2_決定
  6
CONTINUOUS
 62
    7
 10
761.6475355668058
 20
910.27850965403354
 40
4.6356422020152088
 50
305.69504409880625
 51
324.3049559012245
  0
ARC
  8
_0-2_決定
  6
CONTINUOUS
 62
    7
 10
756.48468867670829
 20
914.02954887554324
 40
11.017240556511016
 50
324.12826560041896
 51
338.17561582882615
  0
ARC
  8
_0-2_決定
  6
CONTINUOUS
 62
    7
 10
758.47046484474959
 20
913.78350818014837
 40
9.0966190484230349
 50
334.96271724187733
 51
351.72159164495514
  0
ARC
  8
_0-2_決定
  6
CONTINUOUS
 62
    7
 10
764.80770849913915
 20
913.06954687541179
 40
2.7303874743788148
 50
347.39603744111139
 51
32.42946545231738
  0
ARC
  8
_0-2_決定
  6
CONTINUOUS
 62
    7
 10
766.97056040532425
 20
913.40069820856593
 40
1.1418796816994221
 50
82.869671311055995
 51
125.20281562484482
  0
ARC
  8
_0-2_決定
  6
CONTINUOUS
 62
    7
 10
768.72208448458082
 20
910.7686749997265
 40
4.3031161287095152
 50
124.05646067807621
 51
143.74012709148542
  0
ARC
  8
_0-2_決定
  6
CONTINUOUS
 62
    7
 10
773.47054599601563
 20
907.11943943689585
 40
10.29121194002828
 50
142.99371430487741
 51
158.24506997253874
  0
ARC
  8
_0-2_決定
  6
CONTINUOUS
 62
    7
 10
913.57120728234122
 20
990.49226667285836
 40
5.5412441635265219
 50
321.90820888016776
 51
0.4288849637406971
  0
ARC
  8
_0-2_決定
  6
CONTINUOUS
 62
    7
 10
915.92694938950558
 20
988.72452289078296
 40
2.5973993586343784
 50
274.09202513363107
 51
320.53919081324585
  0
ARC
  8
_0-2_決定
  6
CONTINUOUS
 62
    7
 10
916.22345944442941
 20
988.49322692771636
 40
2.362099098112318
 50
206.64966990203882
 51
267.3025949863553
  0
ARC
  8
_0-2_決定
  6
CONTINUOUS
 62
    7
 10
919.00916506783176
 20
990.35067891843369
 40
5.6998094757424491
 50
178.15946145623076
 51
210.7811267438756
  0
ARC
  8
_0-2_決定
  6
CONTINUOUS
 62
    7
 10
919.09690556491114
 20
990.63733528045816
 40
5.7855368300908561
 50
143.0670959760476
 51
181.02593798978702
  0
ARC
  8
_0-2_決定
  6
CONTINUOUS
 62
    7
 10
916.23644066148245
 20
992.63545610088363
 40
2.3016393706119049
 50
93.091886166226359
 51
140.03821618796138
  0
ARC
  8
_0-2_決定
  6
CONTINUOUS
 62
    7
 10
916.05592179561711
 20
992.73658238436246
 40
2.1978857367332703
 50
55.769125828194539
 51
88.530237567376886
  0
ARC
  8
_0-2_決定
  6
CONTINUOUS
 62
    7
 10
915.00664961847122
 20
991.28514848655584
 40
3.9884713354475587
 50
11.696849112018086
 51
55.035882890091806
  0
ARC
  8
_0-2_決定
  6
CONTINUOUS
 62
    7
 10
913.05529980668837
 20
990.55002753112774
 40
6.0570182817327627
 50
359.84597695239069
 51
14.765542114219899
  0
ARC
  8
_0-2_決定
  6
CONTINUOUS
 62
    7
 10
961.79563785182097
 20
1166.21405343998
 40
4.11839593880965
 50
1.665374937336433
 51
69.583691820817407
  0
ARC
  8
_0-2_決定
  6
CONTINUOUS
 62
    7
 10
960.19423122638557
 20
1163.4165359709718
 40
7.3176657695415237
 50
65.470083393147533
 51
90.641547356720849
  0
ARC
  8
_0-2_決定
  6
CONTINUOUS
 62
    7
 10
960.00656457912498
 20
1163.5229552152553
 40
7.2115629311627591
 50
89.159933439948489
 51
123.25206393803894
  0
ARC
  8
_0-2_決定
  6
CONTINUOUS
 62
    7
 10
958.45007332764624
 20
1166.1779255653901
 40
4.1407099163885972
 50
125.38543346510312
 51
177.84341551315819
  0
ARC
  8
_0-2_決定
  6
CONTINUOUS
 62
    7
 10
958.06650648588914
 20
1166.4129363895634
 40
3.755045464202408
 50
181.2084493885622
 51
229.59016975299667
  0
ARC
  8
_0-2_決定
  6
CONTINUOUS
 62
    7
 10
959.90141924337081
 20
1168.355145006002
 40
6.424863623902338
 50
228.35839461662164
 51
271.88090065407886
  0
ARC
  8
_0-2_決定
  6
CONTINUOUS
 62
    7
 10
960.16945729444615
 20
1168.5866166722096
 40
6.6531192121777485
 50
269.50773021178372
 51
319.8161585280107
  0
ARC
  8
_0-2_決定
  6
CONTINUOUS
 62
    7
 10
962.28616213217492
 20
1166.3801386878092
 40
3.6264288705701087
 50
324.87720907432276
 51
359.2669514016772
  0
ARC
  8
_0-2_決定
  6
CONTINUOUS
 62
    7
 10
968.79804691818606
 20
853.41364089789522
 40
8.1205589048565265
 50
2.2591404206828751
 51
90.605051947645876
  0
ARC
  8
_0-2_決定
  6
CONTINUOUS
 62
    7
 10
968.91678042283786
 20
853.10851791493496
 40
8.4277102495549592
 50
91.390335798952279
 51
175.745471832715
  0
ARC
  8
_0-2_決定
  6
CONTINUOUS
 62
    7
 10
968.68083691175741
 20
854.11093294241914
 40
8.1772464318006488
 50
182.64377899518996
 51
270.22041337314067
  0
ARC
  8
_0-2_決定
  6
CONTINUOUS
 62
    7
 10
968.46948245555723
 20
854.39926706002461
 40
8.469001542650842
 50
271.64293216269368
 51
355.49287546897966
  0
ARC
  8
_0-2_決定
  6
CONTINUOUS
 62
    7
 10
939.19732106065169
 20
911.44349787921647
 40
3.3167914384241137
 50
306.97578318243984
 51
358.10376704296357
  0
ARC
  8
_0-2_決定
  6
CONTINUOUS
 62
    7
 10
936.34277451899891
 20
914.67664526975511
 40
7.62406403475884
 50
278.36790804827785
 51
309.50020064548039
  0
ARC
  8
_0-2_決定
  6
CONTINUOUS
 62
    7
 10
935.32416323225675
 20
918.35576980482927
 40
11.42202895167966
 50
269.94047197598633
 51
280.73800163151225
  0
ARC
  8
_0-2_決定
  6
CONTINUOUS
 62
    7
 10
935.16719815048418
 20
917.83400285952007
 40
10.901221530592169
 50
243.08343213026851
 51
270.76264402989239
  0
ARC
  8
_0-2_決定
  6
CONTINUOUS
 62
    7
 10
932.27964995543346
 20
912.0346354357323
 40
4.4232367530103671
 50
189.11728849179724
 51
242.42797711961686
  0
ARC
  8
_0-2_決定
  6
CONTINUOUS
 62
    7
 10
931.21039329603036
 20
911.21727059867999
 40
3.3001532072368844
 50
126.39404370053954
 51
177.9773685879031
  0
ARC
  8
_0-2_決定
  6
CONTINUOUS
 62
    7
 10
934.12948829539971
 20
907.87563027509918
 40
7.7307442827704174
 50
97.859921957655047
 51
129.115269597658
  0
ARC
  8
_0-2_決定
  6
CONTINUOUS
 62
    7
 10
935.28957613425177
 20
903.34421178787693
 40
12.389556062098839
 50
89.894930474263631
 51
100.3094000304414
  0
ARC
  8
_0-2_決定
  6
CONTINUOUS
 62
    7
 10
935.4313235883501
 20
905.3830815397788
 40
10.351349832610383
 50
62.367308801596678
 51
90.658843265055523
  0
ARC
  8
_0-2_決定
  6
CONTINUOUS
 62
    7
 10
938.13346122038581
 20
910.65041044628947
 40
4.4318331055032996
 50
8.8697202081124473
 51
61.732956316482444
  0
ARC
  8
_0-2_決定
  6
CONTINUOUS
 62
    7
 10
837.67804077883568
 20
921.12708075058185
 40
29.279058427000582
 50
147.32572416767633
 51
157.07135827246415
  0
ARC
  8
_0-2_決定
  6
CONTINUOUS
 62
    7
 10
817.49164522991691
 20
934.29859500712701
 40
5.1797482067524347
 50
127.02904644031267
 51
149.41999877271235
  0
ARC
  8
_0-2_決定
  6
CONTINUOUS
 62
    7
 10
814.72516069256676
 20
938.03628757420734
 40
0.5314925738273904
 50
69.384303629819769
 51
131.59865039483478
  0
ARC
  8
_0-2_決定
  6
CONTINUOUS
 62
    7
 10
814.67491597216394
 20
938.07359268911591
 40
0.5177745543618903
 50
2.230575238446602
 51
62.711809343413201
  0
ARC
  8
_0-2_決定
  6
CONTINUOUS
 62
    7
 10
810.96959018254893
 20
937.63275690471744
 40
4.2477962600003174
 50
347.22878283789589
 51
6.230241315752866
  0
ARC
  8
_0-2_決定
  6
CONTINUOUS
 62
    7
 10
791.84748966388611
 20
941.5243150496309
 40
23.76101267189658
 50
334.60363858529826
 51
348.27010724120208
  0
ARC
  8
_0-2_決定
  6
CONTINUOUS
 62
    7
 10
786.16581808081094
 20
942.28699073591861
 40
29.272939291869527
 50
328.22832542465545
 51
338.02657587320709
  0
ARC
  8
_0-2_決定
  6
CONTINUOUS
 62
    7
 10
806.0773640608744
 20
929.67912936187133
 40
5.711404364495861
 50
309.52645172313828
 51
330.58120037697313
  0
ARC
  8
_0-2_決定
  6
CONTINUOUS
 62
    7
 10
809.29904517664227
 20
925.68911713082252
 40
0.5859269532648688
 50
251.4144318650383
 51
314.85361274779552
  0
ARC
  8
_0-2_決定
  6
CONTINUOUS
 62
    7
 10
809.56825626107786
 20
925.73717359959574
 40
0.75632095719723
 50
181.77498583243249
 51
232.924765727715
  0
ARC
  8
_0-2_決定
  6
CONTINUOUS
 62
    7
 10
813.91782227211593
 20
926.02597210246358
 40
5.1150621231540327
 50
166.11161338283642
 51
183.49952880174928
  0
ARC
  8
_0-2_決定
  6
CONTINUOUS
 62
    7
 10
835.45740272775356
 20
921.35204127408906
 40
27.154202189598003
 50
155.68296033289485
 51
167.44712899948016
  0
ARC
  8
_0-2_決定
  6
CONTINUOUS
 62
    7
 10
931.99317582522838
 20
844.25286739561272
 40
7.7257140266864059
 50
272.36734807815526
 51
357.6326519218469
  0
ARC
  8
_0-2_決定
  6
CONTINUOUS
 62
    7
 10
932.63141658078439
 20
844.25286739561329
 40
7.7257140266869992
 50
182.36734807815748
 51
267.63265192184917
  0
ARC
  8
_0-2_決定
  6
CONTINUOUS
 62
    7
 10
932.22429882614279
 20
843.82141098850013
 40
7.3128654947458758
 50
89.310530189539463
 51
179.1198206044738
  0
ARC
  8
_0-2_決定
  6
CONTINUOUS
 62
    7
 10
932.37445174834647
 20
843.79485132832372
 40
7.3391588927713656
 50
1.0844038193931624
 51
90.485245386584722
  0
ARC
  8
_0-2_決定
  6
CONTINUOUS
 62
    7
 10
843.63694840850394
 20
869.61263596341951
 40
7.8890319810141669
 50
330.04717864843724
 51
18.637022746763616
  0
ARC
  8
_0-2_決定
  6
CONTINUOUS
 62
    7
 10
840.87302629792498
 20
871.04665686147746
 40
11.000642840239882
 50
287.12527178999687
 51
330.76335847812862
  0
ARC
  8
_0-2_決定
  6
CONTINUOUS
 62
    7
 10
840.53349015088293
 20
871.26367045641928
 40
11.311017184877546
 50
237.59731304586575
 51
288.44535236569385
  0
ARC
  8
_0-2_決定
  6
CONTINUOUS
 62
    7
 10
838.91081064913715
 20
867.82769986373091
 40
7.5551856291125663
 50
197.67553621196816
 51
234.02167175271745
  0
ARC
  8
_0-2_決定
  6
CONTINUOUS
 62
    7
 10
839.18764399750842
 20
868.05485807224898
 40
7.8890319810136162
 50
150.04717864842678
 51
198.63702274675313
  0
ARC
  8
_0-2_決定
  6
CONTINUOUS
 62
    7
 10
841.95156610808885
 20
866.62083717419307
 40
11.00064284023947
 50
107.12527179000378
 51
150.7633584781355
  0
ARC
  8
_0-2_決定
  6
CONTINUOUS
 62
    7
 10
842.26105757981827
 20
866.77172015957558
 40
10.952867566114506
 50
56.963320212092583
 51
108.90517982157816
  0
ARC
  8
_0-2_決定
  6
CONTINUOUS
 62
    7
 10
843.53168449945429
 20
869.41417589054936
 40
8.053678719466788
 50
19.735627031781004
 51
54.291604678044052
  0
ARC
  8
_0-2_決定
  6
CONTINUOUS
 62
    7
 10
803.39904528622526
 20
1075.4469959346159
 40
1.3181272497724539
 50
274.92890538575102
 51
355.07109461424898
  0
ARC
  8
_0-2_決定
  6
CONTINUOUS
 62
    7
 10
803.51274408556355
 20
1075.3341889003921
 40
1.2004459653643322
 50
180.02128141542178
 51
269.97871858457825
  0
ARC
  8
_0-2_決定
  6
CONTINUOUS
 62
    7
 10
803.43352192079669
 20
1075.4125193000448
 40
1.1239876903125336
 50
85.981048636297999
 51
184.01895136372912
  0
ARC
  8
_0-2_決定
  6
CONTINUOUS
 62
    7
 10
803.50024425589538
 20
1075.3216890707245
 40
1.2121138842318515
 50
0.5697910805249432
 51
89.430208919447935
  0
ARC
  8
_0-2_決定
  6
CONTINUOUS
 62
    7
 10
877.95829578703831
 20
1032.0517856907848
 40
2.3569581156335699
 50
297.10819654690766
 51
357.12932412252349
  0
ARC
  8
_0-2_決定
  6
CONTINUOUS
 62
    7
 10
876.78765104579043
 20
1033.7024172190308
 40
4.3693220473928145
 50
269.01180813173357
 51
300.91250237692202
  0
ARC
  8
_0-2_決定
  6
CONTINUOUS
 62
    7
 10
876.69842821349846
 20
1033.2602638903666
 40
3.9265433624857238
 50
224.38489740096469
 51
270.20236091842764
  0
ARC
  8
_0-2_決定
  6
CONTINUOUS
 62
    7
 10
875.52582896157844
 20
1032.0094133276737
 40
2.2148257191892484
 50
181.9578599814316
 51
222.47732855759716
  0
ARC
  8
_0-2_決定
  6
CONTINUOUS
 62
    7
 10
875.98405562312109
 20
1031.7719127849866
 40
2.6766561360322045
 50
119.83777373986679
 51
176.53374886454517
  0
ARC
  8
_0-2_決定
  6
CONTINUOUS
 62
    7
 10
876.75091500158203
 20
1030.9741282599171
 40
3.7598150989134203
 50
90.588521780854251
 51
123.92938680493144
  0
ARC
  8
_0-2_決定
  6
CONTINUOUS
 62
    7
 10
876.70366860851743
 20
1031.0083666820626
 40
3.7253883260710303
 50
14.38272361488777
 51
89.867309082923342
  0
ARC
  8
_0-2_決定
  6
CONTINUOUS
 62
    7
 10
913.02007616147364
 20
1129.7832483668583
 40
1.4930410014243449
 50
320.50922555769523
 51
358.09987297418877
  0
ARC
  8
_0-2_決定
  6
CONTINUOUS
 62
    7
 10
911.60306098265153
 20
1130.9852307309609
 40
3.3510996698464512
 50
297.53604334128988
 51
320.05706085529471
  0
ARC
  8
_0-2_決定
  6
CONTINUOUS
 62
    7
 10
909.93422594705578
 20
1134.1234362216935
 40
6.905383929768619
 50
282.18974044140793
 51
297.77647260242691
  0
ARC
  8
_0-2_決定
  6
CONTINUOUS
 62
    7
 10
909.18184247766135
 20
1137.4230534086259
 40
10.289545422532386
 50
269.61273912553349
 51
282.40527278943841
  0
ARC
  8
_0-2_決定
  6
CONTINUOUS
 62
    7
 10
908.94802643159096
 20
1135.710271276532
 40
8.5781012776737704
 50
240.10268193453535
 51
271.09727545188241
  0
ARC
  8
_0-2_決定
  6
CONTINUOUS
 62
    7
 10
905.7469023542842
 20
1130.0259498022365
 40
2.0554821808195061
 50
188.17283963634173
 51
238.47973973789038
  0
ARC
  8
_0-2_決定
  6
CONTINUOUS
 62
    7
 10
905.10714988549466
 20
1129.7005040950557
 40
1.3952496627979158
 50
139.11564369058948
 51
178.63491801727838
  0
ARC
  8
_0-2_決定
  6
CONTINUOUS
 62
    7
 10
906.3547293721291
 20
1128.513091892828
 40
3.1167184100055874
 50
114.29715180379382
 51
137.62388258949719
  0
ARC
  8
_0-2_決定
  6
CONTINUOUS
 62
    7
 10
908.15277554273734
 20
1124.8329285379871
 40
7.2118218532561862
 50
100.06583245672537
 51
115.28638494056406
  0
ARC
  8
_0-2_決定
  6
CONTINUOUS
 62
    7
 10
909.07237406271975
 20
1120.1558787750387
 40
11.977930772722926
 50
89.809034262600747
 51
100.48673538568791
  0
ARC
  8
_0-2_決定
  6
CONTINUOUS
 62
    7
 10
909.361817812906
 20
1123.0206120374103
 40
9.1165463471746992
 50
61.782545215645946
 51
91.568392260575848
  0
ARC
  8
_0-2_決定
  6
CONTINUOUS
 62
    7
 10
912.74193264827829
 20
1129.5344207557355
 40
1.7815488991540489
 50
6.4237839173754638
 51
58.518600664315926
  0
ARC
  8
_0-2_決定
  6
CONTINUOUS
 62
    7
 10
944.05258842456419
 20
1153.1523400863191
 40
3.0597642949112624
 50
308.37950135962353
 51
359.6517574580115
  0
ARC
  8
_0-2_決定
  6
CONTINUOUS
 62
    7
 10
945.28204745148685
 20
1151.6626484768019
 40
1.1293106402819861
 50
271.53485944395322
 51
306.40595617302557
  0
ARC
  8
_0-2_決定
  6
CONTINUOUS
 62
    7
 10
945.3717273294285
 20
1152.152226021627
 40
1.6195737996002548
 50
230.99088096501328
 51
267.89702859584952
  0
ARC
  8
_0-2_決定
  6
CONTINUOUS
 62
    7
 10
946.17920570104445
 20
1153.1033795704948
 40
2.8670702832109036
 50
179.39320290971227
 51
230.41633470646823
  0
ARC
  8
_0-2_決定
  6
CONTINUOUS
 62
    7
 10
945.85993621895909
 20
1153.0440430045414
 40
2.5492186534831389
 50
102.40535543016378
 51
177.98350238531123
  0
ARC
  8
_0-2_決定
  6
CONTINUOUS
 62
    7
 10
945.18142719548564
 20
1154.1260325801591
 40
1.4137805252129922
 50
46.629105294682475
 51
84.688714831892639
  0
ARC
  8
_0-2_決定
  6
CONTINUOUS
 62
    7
 10
944.25582589501573
 20
1153.0143313863146
 40
2.8589651551170006
 50
2.3937938981445996
 51
48.444782779663242
  0
ARC
  8
_0-2_決定
  6
CONTINUOUS
 62
    7
 10
980.50908866637826
 20
1131.2410971125605
 40
2.6048536100311752
 50
305.24533522097016
 51
2.0382485664187286
  0
ARC
  8
_0-2_決定
  6
CONTINUOUS
 62
    7
 10
981.30554955073364
 20
1130.4110833322243
 40
1.4773557103335917
 50
270.26157644309086
 51
298.57996981197846
  0
ARC
  8
_0-2_決定
  6
CONTINUOUS
 62
    7
 10
981.39146369448497
 20
1130.6881552649029
 40
1.7561976372389607
 50
197.03240408922616
 51
267.41622729882317
  0
ARC
  8
_0-2_決定
  6
CONTINUOUS
 62
    7
 10
982.71688270093307
 20
1131.2890168967901
 40
3.2049006017269051
 50
179.2003804557628
 51
200.36443360794581
  0
ARC
  8
_0-2_決定
  6
CONTINUOUS
 62
    7
 10
982.50262313222493
 20
1131.3995895175321
 40
2.9910538053411848
 50
128.70477424177531
 51
181.26143880199493
  0
ARC
  8
_0-2_決定
  6
CONTINUOUS
 62
    7
 10
981.32793256249329
 20
1132.6245725955787
 40
1.3092638209306355
 50
90.684379488407899
 51
122.09470117966687
  0
ARC
  8
_0-2_決定
  6
CONTINUOUS
 62
    7
 10
981.26309438046576
 20
1132.5057434614814
 40
1.4288468621524375
 50
48.370450243172257
 51
88.02673078419275
  0
ARC
  8
_0-2_決定
  6
CONTINUOUS
 62
    7
 10
980.28426050036785
 20
1131.4982830480258
 40
2.8328162744507663
 50
356.67018354286512
 51
47.108929996905054
  0
ARC
  8
_0-2_決定
  6
CONTINUOUS
 62
    7
 10
948.58181364339316
 20
1088.0294514459561
 40
2.1326312480197323
 50
293.50286621335817
 51
357.42781064383882
  0
ARC
  8
_0-2_決定
  6
CONTINUOUS
 62
    7
 10
947.23039815533923
 20
1090.2800457411463
 40
4.747771857667181
 50
268.57460685358058
 51
297.63097302894226
  0
ARC
  8
_0-2_決定
  6
CONTINUOUS
 62
    7
 10
947.01708967196396
 20
1090.4487742410877
 40
4.9159532350400212
 50
230.53227577807536
 51
271.10970817029892
  0
ARC
  8
_0-2_決定
  6
CONTINUOUS
 62
    7
 10
945.17492348859378
 20
1088.0063397566164
 40
1.8640414940377212
 50
182.2319991136535
 51
226.52093811970019
  0
ARC
  8
_0-2_決定
  6
CONTINUOUS
 62
    7
 10
945.22118999937447
 20
1087.876571539824
 40
1.9097497489744226
 50
144.19819835176443
 51
178.28450095260311
  0
ARC
  8
_0-2_決定
  6
CONTINUOUS
 62
    7
 10
946.82044663841964
 20
1086.5735887984713
 40
3.9708938048624369
 50
85.785120293982985
 51
142.44856261696614
  0
ARC
  8
_0-2_決定
  6
CONTINUOUS
 62
    7
 10
947.16845407996686
 20
1086.2702520465796
 40
4.2638608055516301
 50
46.707235056413978
 51
90.754645265119819
  0
ARC
  8
_0-2_決定
  6
CONTINUOUS
 62
    7
 10
948.52662074912132
 20
1087.846160530745
 40
2.1874295146955651
 50
2.2946790177019243
 51
44.294447490093269
  0
ARC
  8
_0-2_決定
  6
CONTINUOUS
 62
    7
 10
982.92077162902501
 20
1097.1174931953574
 40
7.391540436093452
 50
311.64235955981195
 51
0.1259611584139198
  0
ARC
  8
_0-2_決定
  6
CONTINUOUS
 62
    7
 10
984.81637338912265
 20
1095.3498645051368
 40
4.8170766013203519
 50
271.14098685161235
 51
308.7621945379156
  0
ARC
  8
_0-2_決定
  6
CONTINUOUS
 62
    7
 10
985.04118142268055
 20
1095.6105773324966
 40
5.0784701017059772
 50
207.39648595432701
 51
268.54572606505155
  0
ARC
  8
_0-2_決定
  6
CONTINUOUS
 62
    7
 10
987.02665953970666
 20
1097.0546374850464
 40
7.514781706658149
 50
179.39685581663895
 51
210.2071403502369
  0
ARC
  8
_0-2_決定
  6
CONTINUOUS
 62
    7
 10
986.89059385101189
 20
1097.2153531737174
 40
7.3787509724417948
 50
131.59328682880295
 51
180.6337133279186
  0
ARC
  8
_0-2_決定
  6
CONTINUOUS
 62
    7
 10
984.94759844800228
 20
1098.867454622447
 40
4.8664164573947897
 50
90.415665613197731
 51
127.39348607202497
  0
ARC
  8
_0-2_決定
  6
CONTINUOUS
 62
    7
 10
984.82972178366367
 20
1098.6433387766524
 40
5.091073908625118
 50
28.771245007063875
 51
89.07067572277704
  0
ARC
  8
_0-2_決定
  6
CONTINUOUS
 62
    7
 10
982.78207283566871
 20
1097.3055041807938
 40
7.5321800123345861
 50
358.6933340920308
 51
30.194737356946963
  0
ARC
  8
_0-2_決定
  6
CONTINUOUS
 62
    7
 10
901.79268628072236
 20
1111.6469489091905
 40
0.9265516623483492
 50
305.61847634018955
 51
352.98207855819516
  0
ARC
  8
_0-2_決定
  6
CONTINUOUS
 62
    7
 10
900.13343043776558
 20
1113.7914745483156
 40
3.6375621886491531
 50
285.93803385573921
 51
307.19206849842766
  0
ARC
  8
_0-2_決定
  6
CONTINUOUS
 62
    7
 10
898.65216896388063
 20
1118.6296690359165
 40
8.6970508622859093
 50
269.07848482006949
 51
286.56893664370773
  0
ARC
  8
_0-2_決定
  6
CONTINUOUS
 62
    7
 10
898.41612571962003
 20
1118.6695212202258
 40
8.7363075474278435
 50
253.48232376391098
 51
270.63073261490024
  0
ARC
  8
_0-2_決定
  6
CONTINUOUS
 62
    7
 10
896.73931631475114
 20
1113.544341473332
 40
3.3492792925703463
 50
230.13062857180279
 51
256.05718451633965
  0
ARC
  8
_0-2_決定
  6
CONTINUOUS
 62
    7
 10
895.09449175067289
 20
1111.5748407916681
 40
0.7832744741170145
 50
183.00764398786674
 51
230.12245836628929
  0
ARC
  8
_0-2_決定
  6
CONTINUOUS
 62
    7
 10
895.23190612528936
 20
1111.4205371264798
 40
0.9265516623473792
 50
125.61847634020482
 51
172.98207855821042
  0
ARC
  8
_0-2_決定
  6
CONTINUOUS
 62
    7
 10
896.89116196824784
 20
1109.2760114873511
 40
3.6375621886520819
 50
105.93803385572291
 51
127.19206849841137
  0
ARC
  8
_0-2_決定
  6
CONTINUOUS
 62
    7
 10
898.37242344213223
 20
1104.4378169997531
 40
8.6970508622858453
 50
89.078484820066436
 51
106.56893664370466
  0
ARC
  8
_0-2_決定
  6
CONTINUOUS
 62
    7
 10
898.60846668639397
 20
1104.3979648154439
 40
8.7363075474277743
 50
73.482323763914081
 51
90.630732614903366
  0
ARC
  8
_0-2_決定
  6
CONTINUOUS
 62
    7
 10
900.28527609126229
 20
1109.5231445623378
 40
3.3492792925703463
 50
50.130628571802809
 51
76.057184516339674
  0
ARC
  8
_0-2_決定
  6
CONTINUOUS
 62
    7
 10
901.93010065534054
 20
1111.4926452440025
 40
0.7832744741162194
 50
3.0076439878376102
 51
50.122458366260197
  0
ARC
  8
_0-2_決定
  6
CONTINUOUS
 62
    7
 10
909.31744252051885
 20
1013.166983940614
 40
1.3952496627973276
 50
319.11564369058016
 51
358.63491801726906
  0
ARC
  8
_0-2_決定
  6
CONTINUOUS
 62
    7
 10
908.06986303388271
 20
1014.3543961428416
 40
3.1167184100064125
 50
294.29715180381476
 51
317.62388258951808
  0
ARC
  8
_0-2_決定
  6
CONTINUOUS
 62
    7
 10
906.2718168632756
 20
1018.0345594976825
 40
7.2118218532561862
 50
280.06583245672539
 51
295.28638494056406
  0
ARC
  8
_0-2_決定
  6
CONTINUOUS
 62
    7
 10
905.35221834329434
 20
1022.7116092606309
 40
11.977930772722861
 50
269.80903426259709
 51
280.48673538568426
  0
ARC
  8
_0-2_決定
  6
CONTINUOUS
 62
    7
 10
905.06277459310809
 20
1019.8468759982597
 40
9.1165463471748893
 50
241.78254521564088
 51
271.56839226057082
  0
ARC
  8
_0-2_決定
  6
CONTINUOUS
 62
    7
 10
901.68265975773352
 20
1013.3330672799349
 40
1.7815488991539872
 50
186.42378391740141
 51
238.51860066434188
  0
ARC
  8
_0-2_決定
  6
CONTINUOUS
 62
    7
 10
901.40451624453931
 20
1013.0842396688104
 40
1.4930410014246565
 50
140.50922555766354
 51
178.09987297415711
  0
ARC
  8
_0-2_決定
  6
CONTINUOUS
 62
    7
 10
902.82153142336199
 20
1011.8822573047117
 40
3.3510996698448663
 50
117.53604334133563
 51
140.05706085534041
  0
ARC
  8
_0-2_決定
  6
CONTINUOUS
 62
    7
 10
904.4903664589549
 20
1008.7440518139721
 40
6.9053839297720208
 50
102.18974044138379
 51
117.77647260240281
  0
ARC
  8
_0-2_決定
  6
CONTINUOUS
 62
    7
 10
905.2427499283516
 20
1005.4444346270438
 40
10.289545422532386
 50
89.612739125533523
 51
102.40527278943846
  0
ARC
  8
_0-2_決定
  6
CONTINUOUS
 62
    7
 10
905.47656597442199
 20
1007.1572167591376
 40
8.5781012776738343
 50
60.102681934533649
 51
91.097275451880719
  0
ARC
  8
_0-2_決定
  6
CONTINUOUS
 62
    7
 10
908.67769005172931
 20
1012.8415382334331
 40
2.0554821808193666
 50
8.172839636344305
 51
58.479739737892963
  0
ARC
  8
_0-2_決定
  6
CONTINUOUS
 62
    7
 10
940.32196727378789
 20
1036.4678985181376
 40
2.9910538053411848
 50
308.70477424177534
 51
1.2614388019949021
  0
ARC
  8
_0-2_決定
  6
CONTINUOUS
 62
    7
 10
941.49665784351953
 20
1035.2429154400911
 40
1.3092638209306355
 50
270.6843794884079
 51
302.09470117966686
  0
ARC
  8
_0-2_決定
  6
CONTINUOUS
 62
    7
 10
941.56149602554763
 20
1035.3617445741884
 40
1.4288468621526709
 50
228.37045024314884
 51
268.02673078416933
  0
ARC
  8
_0-2_決定
  6
CONTINUOUS
 62
    7
 10
942.5403299056444
 20
1036.3692049876449
 40
2.832816274450551
 50
176.67018354288138
 51
227.10892999692135
  0
ARC
  8
_0-2_決定
  6
CONTINUOUS
 62
    7
 10
942.31550173963456
 20
1036.6263909231088
 40
2.6048536100318422
 50
125.2453352209628
 51
182.03824856641134
  0
ARC
  8
_0-2_決定
  6
CONTINUOUS
 62
    7
 10
941.51904085527804
 20
1037.4564047034455
 40
1.4773557103333743
 50
90.261576443058146
 51
118.57996981194577
  0
ARC
  8
_0-2_決定
  6
CONTINUOUS
 62
    7
 10
941.43312671152785
 20
1037.1793327707667
 40
1.7561976372389607
 50
17.032404089226173
 51
87.416227298823173
  0
ARC
  8
_0-2_決定
  6
CONTINUOUS
 62
    7
 10
940.10770770507975
 20
1036.5784711388792
 40
3.2049006017269051
 50
359.2003804557628
 51
20.364433607945795
  0
ARC
  8
_0-2_決定
  6
CONTINUOUS
 62
    7
 10
976.57749172535318
 20
1014.7409171882759
 40
2.7348118823429979
 50
306.18979956321226
 51
359.84973900035567
  0
ARC
  8
_0-2_決定
  6
CONTINUOUS
 62
    7
 10
977.49066913320178
 20
1013.6632702551725
 40
1.329701094367487
 50
270.93184841408015
 51
301.84723225394271
  0
ARC
  8
_0-2_決定
  6
CONTINUOUS
 62
    7
 10
977.55454405329431
 20
1013.7972724130154
 40
1.4641371132150218
 50
228.91233979263347
 51
268.34641566867884
  0
ARC
  8
_0-2_決定
  6
CONTINUOUS
 62
    7
 10
978.39174121719509
 20
1014.6797809847396
 40
2.6799903766079938
 50
178.84621961881004
 51
227.82186293461848
  0
ARC
  8
_0-2_決定
  6
CONTINUOUS
 62
    7
 10
978.70262313222497
 20
1014.7995915175327
 40
2.9910538053409135
 50
128.70477424178645
 51
181.26143880200607
  0
ARC
  8
_0-2_決定
  6
CONTINUOUS
 62
    7
 10
977.5279325624939
 20
1016.0245745955785
 40
1.3092638209307839
 50
90.68437948842994
 51
122.0947011796889
  0
ARC
  8
_0-2_決定
  6
CONTINUOUS
 62
    7
 10
977.46309438046524
 20
1015.9057454614824
 40
1.4288468621518153
 50
48.370450243144191
 51
88.026730784164684
  0
ARC
  8
_0-2_決定
  6
CONTINUOUS
 62
    7
 10
976.48426050036733
 20
1014.8982850480249
 40
2.832816274451015
 50
356.67018354287762
 51
47.108929996917574
  0
ARC
  8
_0-2_決定
  6
CONTINUOUS
 62
    7
 10
944.55829578703799
 20
971.65178569078398
 40
2.3569581156333808
 50
297.10819654692114
 51
357.12932412253696
  0
ARC
  8
_0-2_決定
  6
CONTINUOUS
 62
    7
 10
943.38765104579068
 20
973.30241721903064
 40
4.3693220473927488
 50
269.01180813173028
 51
300.91250237691872
  0
ARC
  8
_0-2_決定
  6
CONTINUOUS
 62
    7
 10
943.25613832604517
 20
973.19723598909059
 40
4.263860805552131
 50
226.70723505642482
 51
270.75464526513065
  0
ARC
  8
_0-2_決定
  6
CONTINUOUS
 62
    7
 10
941.89797165689129
 20
971.62132750492424
 40
2.1874295146955651
 50
182.29467901770192
 51
224.29444749009326
  0
ARC
  8
_0-2_決定
  6
CONTINUOUS
 62
    7
 10
941.84277876262001
 20
971.43803658971365
 40
2.132631248020064
 50
113.50286621336427
 51
177.42781064384494
  0
ARC
  8
_0-2_決定
  6
CONTINUOUS
 62
    7
 10
943.19419425067338
 20
969.1874422945225
 40
4.7477718576682841
 50
88.574606853577478
 51
117.63097302893917
  0
ARC
  8
_0-2_決定
  6
CONTINUOUS
 62
    7
 10
943.43288795922035
 20
969.46302753966597
 40
4.4723435848861239
 50
48.910194882449396
 51
91.5451040524039
  0
ARC
  8
_0-2_決定
  6
CONTINUOUS
 62
    7
 10
944.98589555149749
 20
971.49570167028492
 40
1.9267762626800247
 50
1.1313534149692082
 51
43.983139854457555
  0
ARC
  8
_0-2_決定
  6
CONTINUOUS
 62
    7
 10
979.12077162902506
 20
980.51749519535633
 40
7.3915404360931678
 50
311.64235955981684
 51
0.1259611584188175
  0
ARC
  8
_0-2_決定
  6
CONTINUOUS
 62
    7
 10
981.01637338912269
 20
978.74986650513756
 40
4.8170766013211797
 50
271.14098685160877
 51
308.76219453791202
  0
ARC
  8
_0-2_決定
  6
CONTINUOUS
 62
    7
 10
981.24118142268003
 20
979.01057933249604
 40
5.0784701017054301
 50
207.39648595432502
 51
268.54572606504956
  0
ARC
  8
_0-2_決定
  6
CONTINUOUS
 62
    7
 10
983.22665953970727
 20
980.45463948504505
 40
7.5147817066581339
 50
179.39685581663053
 51
210.20714035022849
  0
ARC
  8
_0-2_決定
  6
CONTINUOUS
 62
    7
 10
983.45628603356886
 20
980.59365795515305
 40
7.7442235912885309
 50
132.82265611600155
 51
180.44327138162726
  0
ARC
  8
_0-2_決定
  6
CONTINUOUS
 62
    7
 10
981.18879304312088
 20
982.57112557148184
 40
4.7632337821397357
 50
90.920225485625096
 51
128.98295590390285
  0
ARC
  8
_0-2_決定
  6
CONTINUOUS
 62
    7
 10
981.00230104804837
 20
982.33269556089624
 40
5.0022589062227807
 50
28.163981790602787
 51
88.740038923660947
  0
ARC
  8
_0-2_決定
  6
CONTINUOUS
 62
    7
 10
978.64355929667965
 20
980.67850261472017
 40
7.8700663140722931
 50
358.94607405283466
 51
30.676598705005844
  0
ARC
  8
_0-2_決定
  6
CONTINUOUS
 62
    7
 10
897.94213886838463
 20
995.1901116470691
 40
0.9717934198230366
 50
308.89295229984504
 51
356.67482458551478
  0
ARC
  8
_0-2_決定
  6
CONTINUOUS
 62
    7
 10
896.68385541865632
 20
996.74353941566528
 40
2.9708956772110957
 50
284.99034469319838
 51
308.9701167432512
  0
ARC
  8
_0-2_決定
  6
CONTINUOUS
 62
    7
 10
894.94718069408975
 20
1002.851440589686
 40
9.320655636480053
 50
268.55596908892039
 51
285.59110626101062
  0
ARC
  8
_0-2_決定
  6
CONTINUOUS
 62
    7
 10
894.4774117119232
 20
1002.851440589684
 40
9.3206556364781488
 50
254.4088937389879
 51
271.44403091107813
  0
ARC
  8
_0-2_決定
  6
CONTINUOUS
 62
    7
 10
892.5890016111407
 20
996.47506765808828
 40
2.6734257122870848
 50
227.19212602776921
 51
256.66290010055451
  0
ARC
  8
_0-2_決定
  6
CONTINUOUS
 62
    7
 10
891.40985551812321
 20
995.14562473062506
 40
0.8976379290829171
 50
180.75829825559697
 51
224.74365442991635
  0
ARC
  8
_0-2_決定
  6
CONTINUOUS
 62
    7
 10
891.31309268970426
 20
995.03842306057436
 40
0.8064498054081066
 50
123.13330836029962
 51
173.21179848642686
  0
ARC
  8
_0-2_決定
  6
CONTINUOUS
 62
    7
 10
892.82754034903576
 20
992.87569099415123
 40
3.4463793047092368
 50
102.99961589152468
 51
124.5644449548934
  0
ARC
  8
_0-2_決定
  6
CONTINUOUS
 62
    7
 10
894.54159053742671
 20
986.10466858598465
 40
10.430473414262305
 50
89.062252453520571
 51
103.80722584856721
  0
ARC
  8
_0-2_決定
  6
CONTINUOUS
 62
    7
 10
894.91903818327387
 20
986.63563963885144
 40
9.9002642560622984
 50
74.454787101869229
 51
91.196564425165704
  0
ARC
  8
_0-2_決定
  6
CONTINUOUS
 62
    7
 10
897.00588143891309
 20
993.71883997533871
 40
2.5194016060674338
 50
46.744890546034867
 51
77.007638687372435
  0
ARC
  8
_0-2_決定
  6
CONTINUOUS
 62
    7
 10
898.30013801278938
 20
995.11996293631285
 40
0.612313314913651
 50
1.2897348071659318
 51
45.107446220195953
  0
ARC
  8
_0-2_決定
  6
CONTINUOUS
 62
    7
 10
754.72913215053018
 20
1113.5169090703112
 40
4.5868247042319368
 50
272.28860565917716
 51
357.71139434081545
  0
ARC
  8
_0-2_決定
  6
CONTINUOUS
 62
    7
 10
755.09546425548228
 20
1113.5169090703107
 40
4.5868247042313435
 50
182.28860565917714
 51
267.71139434081545
  0
ARC
  8
_0-2_決定
  6
CONTINUOUS
 62
    7
 10
755.09546425548251
 20
1113.1505769653588
 40
4.5868247042314181
 50
92.288605659185478
 51
177.7113943408238
  0
ARC
  8
_0-2_決定
  6
CONTINUOUS
 62
    7
 10
754.72913215052984
 20
1113.1505769653584
 40
4.5868247042320114
 50
2.2886056591836246
 51
87.71139434082194
  0
ARC
  8
_0-2_決定
  6
CONTINUOUS
 62
    7
 10
743.78270413878511
 20
963.81261450740931
 40
0.9329338243522293
 50
307.62860890917557
 51
355.15047175894927
  0
ARC
  8
_0-2_決定
  6
CONTINUOUS
 62
    7
 10
742.59980283001687
 20
965.27873576381489
 40
2.8165979873261171
 50
284.65292302566024
 51
308.47717932848315
  0
ARC
  8
_0-2_決定
  6
CONTINUOUS
 62
    7
 10
741.72441040179024
 20
968.173838117591
 40
5.8401056599327603
 50
269.88117023751465
 51
285.77698278259606
  0
ARC
  8
_0-2_決定
  6
CONTINUOUS
 62
    7
 10
741.59615762852525
 20
966.9146697636304
 40
4.5823967702157642
 50
247.08996775445604
 51
271.45231364953634
  0
ARC
  8
_0-2_決定
  6
CONTINUOUS
 62
    7
 10
740.26135306843742
 20
963.99177326676613
 40
1.3735092308358681
 50
190.82795669629388
 51
250.91685989872883
  0
ARC
  8
_0-2_決定
  6
CONTINUOUS
 62
    7
 10
739.89349139783121
 20
963.67170280335301
 40
0.9831527459906246
 50
129.18585214167584
 51
176.38192474366716
  0
ARC
  8
_0-2_決定
  6
CONTINUOUS
 62
    7
 10
740.93716244180882
 20
962.42843439556941
 40
2.606346796842927
 50
104.32493686900614
 51
129.7003938268883
  0
ARC
  8
_0-2_決定
  6
CONTINUOUS
 62
    7
 10
741.67274236556125
 20
959.75468551322456
 40
5.379204942964428
 50
89.578673244380283
 51
104.86995814368592
  0
ARC
  8
_0-2_決定
  6
CONTINUOUS
 62
    7
 10
741.7959753243349
 20
959.8630623585467
 40
5.2713468445504352
 50
68.68250374356964
 51
90.909548812980887
  0
ARC
  8
_0-2_決定
  6
CONTINUOUS
 62
    7
 10
743.29317713413332
 20
963.36997475930366
 40
1.4650028700005848
 50
14.377343315232292
 51
73.376051256590571
  0
ARC
  8
_0-2_決定
  6
CONTINUOUS
 62
    7
 10
764.78270413878477
 20
990.4126145074099
 40
0.9329338243530173
 50
307.62860890917733
 51
355.15047175895103
  0
ARC
  8
_0-2_決定
  6
CONTINUOUS
 62
    7
 10
763.59980283001676
 20
991.87873576381492
 40
2.8165979873261171
 50
284.65292302566024
 51
308.47717932848315
  0
ARC
  8
_0-2_決定
  6
CONTINUOUS
 62
    7
 10
762.72441040179024
 20
994.77383811759091
 40
5.8401056599327603
 50
269.88117023751465
 51
285.77698278259606
  0
ARC
  8
_0-2_決定
  6
CONTINUOUS
 62
    7
 10
762.59615762852582
 20
993.51466976363076
 40
4.5823967702158903
 50
247.08996775444774
 51
271.45231364952804
  0
ARC
  8
_0-2_決定
  6
CONTINUOUS
 62
    7
 10
761.26135306843764
 20
990.59177326676627
 40
1.373509230836083
 50
190.82795669628615
 51
250.9168598987211
  0
ARC
  8
_0-2_決定
  6
CONTINUOUS
 62
    7
 10
761.08111430963788
 20
990.24688588896254
 40
1.172039077586907
 50
132.30126513387651
 51
175.74994694123316
  0
ARC
  8
_0-2_決定
  6
CONTINUOUS
 62
    7
 10
762.14622355622532
 20
989.10160773891994
 40
2.7360072449662192
 50
107.30670179973836
 51
132.6565769379323
  0
ARC
  8
_0-2_決定
  6
CONTINUOUS
 62
    7
 10
762.69309604066189
 20
987.61601312709308
 40
4.3177745892263735
 50
89.74519131007024
 51
108.37058494720343
  0
ARC
  8
_0-2_決定
  6
CONTINUOUS
 62
    7
 10
762.8130302243602
 20
987.97510085137105
 40
3.9599255771801651
 50
46.630807449868392
 51
91.457639088863374
  0
ARC
  8
_0-2_決定
  6
CONTINUOUS
 62
    7
 10
764.86069719338525
 20
990.33011389911962
 40
0.8516087509007862
 50
0.2443004577932747
 51
37.942683543240321
  0
ARC
  8
_0-2_決定
  6
CONTINUOUS
 62
    7
 10
774.87000246030811
 20
1154.1693302516337
 40
10.843542250105351
 50
345.16911754917271
 51
0.8687676371785976
  0
ARC
  8
_0-2_決定
  6
CONTINUOUS
 62
    7
 10
782.61844894739534
 20
1151.9606676456417
 40
2.7920127660918266
 50
318.58540418927572
 51
348.28449345652245
  0
ARC
  8
_0-2_決定
  6
CONTINUOUS
 62
    7
 10
784.29908104787023
 20
1150.4975589181358
 40
0.5639707994410885
 50
271.34290028229117
 51
317.11259035372547
  0
ARC
  8
_0-2_決定
  6
CONTINUOUS
 62
    7
 10
784.42062763583294
 20
1150.7317195205696
 40
0.8052960728412952
 50
211.26751477121132
 51
262.26906309280827
  0
ARC
  8
_0-2_決定
  6
CONTINUOUS
 62
    7
 10
786.9109216467607
 20
1152.3162524709608
 40
3.7568192805940153
 50
191.7105011885827
 51
212.2106268515891
  0
ARC
  8
_0-2_決定
  6
CONTINUOUS
 62
    7
 10
794.2474223927095
 20
1154.2300882483073
 40
11.335598118637161
 50
179.4760696765193
 51
193.65652756500182
  0
ARC
  8
_0-2_決定
  6
CONTINUOUS
 62
    7
 10
793.75459394570407
 20
1154.4981557840331
 40
10.843542250105214
 50
165.16911754915603
 51
180.86876763716191
  0
ARC
  8
_0-2_決定
  6
CONTINUOUS
 62
    7
 10
786.00614745861833
 20
1156.7068183900303
 40
2.7920127660918261
 50
138.58540418932665
 51
168.28449345657339
  0
ARC
  8
_0-2_決定
  6
CONTINUOUS
 62
    7
 10
784.3255153581415
 20
1158.169927117533
 40
0.5639707994418633
 50
91.342900282194691
 51
137.112590353629
  0
ARC
  8
_0-2_決定
  6
CONTINUOUS
 62
    7
 10
784.20396877017993
 20
1157.9357665150999
 40
0.8052960728412952
 50
31.267514771211317
 51
82.269063092808281
  0
ARC
  8
_0-2_決定
  6
CONTINUOUS
 62
    7
 10
781.71367475925331
 20
1156.3512335647081
 40
3.7568192805932026
 50
11.710501188600821
 51
32.210626851607223
  0
ARC
  8
_0-2_決定
  6
CONTINUOUS
 62
    7
 10
774.37717401330133
 20
1154.4373977873661
 40
11.335598118638483
 50
359.47606967650097
 51
13.656527564983483
  0
ARC
  8
_0-2_決定
  6
CONTINUOUS
 62
    7
 10
812.01883557376254
 20
1108.6905479395537
 40
9.2823468478554148
 50
60.054943106213869
 51
76.965859296593308
  0
ARC
  8
_0-2_決定
  6
CONTINUOUS
 62
    7
 10
815.11078999695064
 20
1113.8266236629331
 40
3.2905304272993687
 50
35.420873522743435
 51
62.065103068585657
  0
ARC
  8
_0-2_決定
  6
CONTINUOUS
 62
    7
 10
817.16141728914295
 20
1115.2955668350623
 40
0.7681204948612343
 50
347.83808566805766
 51
34.781779279988008
  0
ARC
  8
_0-2_決定
  6
CONTINUOUS
 62
    7
 10
817.20845211850838
 20
1115.3877563233973
 40
0.7482794064154665
 50
287.40642090515917
 51
340.15582862465192
  0
ARC
  8
_0-2_決定
  6
CONTINUOUS
 62
    7
 10
816.36345258277117
 20
1118.0245079797239
 40
3.5171091523750269
 50
266.55810103554836
 51
287.69193166223641
  0
ARC
  8
_0-2_決定
  6
CONTINUOUS
 62
    7
 10
816.57443612180032
 20
1127.1801041830256
 40
12.673393609823906
 50
255.08412694514232
 51
268.09118247402137
  0
ARC
  8
_0-2_決定
  6
CONTINUOUS
 62
    7
 10
815.86131583052429
 20
1124.5499329497275
 40
9.9482963200556664
 50
239.09894567233761
 51
255.15372394640121
  0
ARC
  8
_0-2_決定
  6
CONTINUOUS
 62
    7
 10
812.30256222256776
 20
1118.8772387197434
 40
3.2562134704584933
 50
214.9100112497471
 51
241.56938934244965
  0
ARC
  8
_0-2_決定
  6
CONTINUOUS
 62
    7
 10
810.1718922190463
 20
1117.4121108676904
 40
0.6707150258825154
 50
169.55177208728884
 51
216.43746149654876
  0
ARC
  8
_0-2_決定
  6
CONTINUOUS
 62
    7
 10
810.23005657106773
 20
1117.2553100090718
 40
0.769871427766563
 50
106.43039372209716
 51
158.79771821706734
  0
ARC
  8
_0-2_決定
  6
CONTINUOUS
 62
    7
 10
811.10333688353739
 20
1114.4903037385279
 40
3.6693939807827531
 50
86.735405806589313
 51
107.29759768288326
  0
ARC
  8
_0-2_決定
  6
CONTINUOUS
 62
    7
 10
811.05727782779638
 20
1106.9102738497702
 40
11.246360936987292
 50
74.237808518183755
 51
88.700660261913725
  0
ARC
  8
_0-2_決定
  6
CONTINUOUS
 62
    7
 10
783.1712092823409
 20
1039.8922666728597
 40
5.5412441635269394
 50
321.90820888015514
 51
0.4288849637280481
  0
ARC
  8
_0-2_決定
  6
CONTINUOUS
 62
    7
 10
785.52695138950583
 20
1038.1245228907819
 40
2.5973993586329325
 50
274.09202513363857
 51
320.53919081325336
  0
ARC
  8
_0-2_決定
  6
CONTINUOUS
 62
    7
 10
785.82346144442931
 20
1037.893226927717
 40
2.3620990981124779
 50
206.64966990204539
 51
267.30259498636184
  0
ARC
  8
_0-2_決定
  6
CONTINUOUS
 62
    7
 10
788.60916706783109
 20
1039.7506789184354
 40
5.6998094757425832
 50
178.15946145624619
 51
210.78112674389104
  0
ARC
  8
_0-2_決定
  6
CONTINUOUS
 62
    7
 10
788.69690756491082
 20
1040.037335280457
 40
5.7855368300916741
 50
143.06709597603657
 51
181.025937989776
  0
ARC
  8
_0-2_決定
  6
CONTINUOUS
 62
    7
 10
785.83644266148235
 20
1042.0354561008835
 40
2.3016393706121447
 50
93.091886166218416
 51
140.03821618795345
  0
ARC
  8
_0-2_決定
  6
CONTINUOUS
 62
    7
 10
785.65592379561713
 20
1042.1365823843632
 40
2.1978857367327906
 50
55.769125828190504
 51
88.530237567372851
  0
ARC
  8
_0-2_決定
  6
CONTINUOUS
 62
    7
 10
784.60665161847146
 20
1040.685148486556
 40
3.9884713354473984
 50
11.696849112019606
 51
55.035882890093326
  0
ARC
  8
_0-2_決定
  6
CONTINUOUS
 62
    7
 10
782.65530180668725
 20
1039.9500275311279
 40
6.0570182817338472
 50
359.84597695238938
 51
14.765542114218585
  0
ARC
  8
_0-2_決定
  6
CONTINUOUS
 62
    7
 10
794.57974972584589
 20
1055.8531766023684
 40
26.334043136931111
 50
342.77211330112317
 51
0.6104527940576676
  0
ARC
  8
_0-2_決定
  6
CONTINUOUS
 62
    7
 10
810.15330086625886
 20
1051.2854685179354
 40
10.109462238839729
 50
327.63487973693003
 51
341.3568412894345
  0
ARC
  8
_0-2_決定
  6
CONTINUOUS
 62
    7
 10
815.15242104030199
 20
1048.0709186440854
 40
4.166329592210495
 50
305.84665341181505
 51
328.17245421421666
  0
ARC
  8
_0-2_決定
  6
CONTINUOUS
 62
    7
 10
816.47533214895304
 20
1046.2446431799954
 40
1.9112556802532141
 50
271.10824050285339
 51
305.76165714297252
  0
ARC
  8
_0-2_決定
  6
CONTINUOUS
 62
    7
 10
816.55967058456645
 20
1046.2758621625162
 40
1.9426948155073758
 50
234.52739160943858
 51
268.60271074474451
  0
ARC
  8
_0-2_決定
  6
CONTINUOUS
 62
    7
 10
817.79426421873131
 20
1047.96563541757
 40
4.0353624678977367
 50
213.57877817081012
 51
234.17461640103625
  0
ARC
  8
_0-2_決定
  6
CONTINUOUS
 62
    7
 10
822.06190501935544
 20
1050.838127663681
 40
9.1796308404692954
 50
200.29761380626155
 51
213.78343401280816
  0
ARC
  8
_0-2_決定
  6
CONTINUOUS
 62
    7
 10
830.27181486163784
 20
1053.929256466839
 40
17.952108081687083
 50
190.70780943210869
 51
200.46099290168792
  0
ARC
  8
_0-2_決定
  6
CONTINUOUS
 62
    7
 10
840.41389935691484
 20
1055.9958086640481
 40
28.301937289037198
 50
179.72075402044615
 51
191.00371104608308
  0
ARC
  8
_0-2_決定
  6
CONTINUOUS
 62
    7
 10
837.49922676054268
 20
1056.3798980551046
 40
25.388121886094567
 50
162.45387590899978
 51
180.5555255795885
  0
ARC
  8
_0-2_決定
  6
CONTINUOUS
 62
    7
 10
822.74881490005328
 20
1060.8547081817578
 40
9.9765710808135637
 50
147.09988832354304
 51
161.41869496398465
  0
ARC
  8
_0-2_決定
  6
CONTINUOUS
 62
    7
 10
817.73006224792425
 20
1064.0761176165756
 40
4.0129959862433813
 50
124.23670318815556
 51
146.79562527136434
  0
ARC
  8
_0-2_決定
  6
CONTINUOUS
 62
    7
 10
816.56563571450624
 20
1065.8100047473654
 40
1.9244775455698164
 50
91.58817424584177
 51
124.6193518231731
  0
ARC
  8
_0-2_決定
  6
CONTINUOUS
 62
    7
 10
816.46319025462617
 20
1065.7864191726958
 40
1.9479429530767713
 50
54.57469101797119
 51
88.555411336162166
  0
ARC
  8
_0-2_決定
  6
CONTINUOUS
 62
    7
 10
815.21651561909607
 20
1064.0885674563815
 40
4.054222657375826
 50
33.627202840420743
 51
54.12619173144968
  0
ARC
  8
_0-2_決定
  6
CONTINUOUS
 62
    7
 10
811.02247344132115
 20
1061.2265702460163
 40
9.1315639757835143
 50
20.5618525512287
 51
34.00656203603431
  0
ARC
  8
_0-2_決定
  6
CONTINUOUS
 62
    7
 10
803.03075870199905
 20
1058.1905467843123
 40
17.680498530122534
 50
10.899658538284806
 51
20.677777637945145
  0
ARC
  8
_0-2_決定
  6
CONTINUOUS
 62
    7
 10
793.75062010376212
 20
1056.2432130527241
 40
27.161898689480704
 50
359.76908560621541
 51
11.231737334180691
  0
ARC
  8
_0-2_決定
  6
CONTINUOUS
 62
    7
 10
808.79732306065216
 20
960.84349587921622
 40
3.316791438423822
 50
306.97578318243717
 51
358.10376704296095
  0
ARC
  8
_0-2_決定
  6
CONTINUOUS
 62
    7
 10
805.94277651899858
 20
964.07664326975521
 40
7.624064034759054
 50
278.36790804828149
 51
309.50020064548403
  0
ARC
  8
_0-2_決定
  6
CONTINUOUS
 62
    7
 10
804.92416523225961
 20
967.75576780483539
 40
11.422028951685393
 50
269.94047197596842
 51
280.73800163149434
  0
ARC
  8
_0-2_決定
  6
CONTINUOUS
 62
    7
 10
804.76720015048363
 20
967.23400085951789
 40
10.901221530589719
 50
243.0834321302687
 51
270.76264402989256
  0
ARC
  8
_0-2_決定
  6
CONTINUOUS
 62
    7
 10
801.87965195543313
 20
961.43463343573217
 40
4.4232367530101104
 50
189.11728849179963
 51
242.42797711961924
  0
ARC
  8
_0-2_決定
  6
CONTINUOUS
 62
    7
 10
800.86537600705378
 20
960.67772192125346
 40
3.3535457872745056
 50
128.18297755300262
 51
179.04279335567395
  0
ARC
  8
_0-2_決定
  6
CONTINUOUS
 62
    7
 10
802.78621694064009
 20
958.60727894714273
 40
6.1726987418307919
 50
113.8299834651245
 51
130.31801828546821
  0
ARC
  8
_0-2_決定
  6
CONTINUOUS
 62
    7
 10
804.56591546591972
 20
954.38475438753471
 40
10.754570217857498
 50
88.15430078611486
 51
113.41429494900257
  0
ARC
  8
_0-2_決定
  6
CONTINUOUS
 62
    7
 10
805.08343957095803
 20
954.51133187755886
 40
10.623791709673533
 50
62.722688453672475
 51
90.923032238401078
  0
ARC
  8
_0-2_決定
  6
CONTINUOUS
 62
    7
 10
807.91394283473096
 20
960.25192899439503
 40
4.2259122658632009
 50
6.5467964203262889
 51
61.161210581060793
  0
ARC
  8
_0-2_決定
  6
CONTINUOUS
 62
    7
 10
801.80466316283264
 20
893.64714969801355
 40
7.514173616332533
 50
270.82074819678269
 51
357.60960259722822
  0
ARC
  8
_0-2_決定
  6
CONTINUOUS
 62
    7
 10
802.17566214764679
 20
893.80720440538221
 40
7.6779755695000791
 50
183.53535005356747
 51
268.03429915241713
  0
ARC
  8
_0-2_決定
  6
CONTINUOUS
 62
    7
 10
801.8865674034322
 20
893.35947781740879
 40
7.3743140911137175
 50
89.800080496657813
 51
180.19991950334443
  0
ARC
  8
_0-2_決定
  6
CONTINUOUS
 62
    7
 10
801.92113379467719
 20
893.34258260950548
 40
7.3911696894762411
 50
359.93150715595959
 51
90.068492844042581
  0
ARC
  8
_0-2_決定
  6
CONTINUOUS
 62
    7
 10
747.50315655112843
 20
1081.4558638829039
 40
2.4122348568279413
 50
297.37409736401634
 51
357.09812565485191
  0
ARC
  8
_0-2_決定
  6
CONTINUOUS
 62
    7
 10
746.53005290854503
 20
1082.7611828770932
 40
4.0274789942978666
 50
269.74741693494707
 51
301.13187413568266
  0
ARC
  8
_0-2_決定
  6
CONTINUOUS
 62
    7
 10
746.45614032604476
 20
1082.9972339890905
 40
4.263860805552131
 50
226.70723505642482
 51
270.75464526513065
  0
ARC
  8
_0-2_決定
  6
CONTINUOUS
 62
    7
 10
745.0979736568911
 20
1081.421325504924
 40
2.1874295146954088
 50
182.2946790176924
 51
224.29444749008374
  0
ARC
  8
_0-2_決定
  6
CONTINUOUS
 62
    7
 10
745.47520346588328
 20
1081.2779474449519
 40
2.5635125379910977
 50
121.06778479360237
 51
178.75284272880839
  0
ARC
  8
_0-2_決定
  6
CONTINUOUS
 62
    7
 10
746.41563539884032
 20
1079.9299918327351
 40
4.2048623906066007
 50
88.682749131641131
 51
122.56572003075131
  0
ARC
  8
_0-2_決定
  6
CONTINUOUS
 62
    7
 10
746.50785586757229
 20
1080.6640630390941
 40
3.4696828225672531
 50
11.128437769705757
 51
89.926642533594688
  0
ARC
  8
_0-2_決定
  6
CONTINUOUS
 62
    7
 10
898.12098884362797
 20
809.64222018807482
 40
5.6101996334769186
 50
322.84420314905503
 51
38.488196791308063
  0
ARC
  8
_0-2_決定
  6
CONTINUOUS
 62
    7
 10
892.55414097948176
 20
813.14890623830138
 40
12.178168210660985
 50
301.03258093953184
 51
325.51501976283402
  0
ARC
  8
_0-2_決定
  6
CONTINUOUS
 62
    7
 10
886.56408502687782
 20
822.00260150348981
 40
22.85976624619893
 50
277.41004407489163
 51
302.45741721894547
  0
ARC
  8
_0-2_決定
  6
CONTINUOUS
 62
    7
 10
879.83984232784735
 20
821.08357147042852
 40
23.803596948481047
 50
266.9475449568115
 51
293.97538992496857
  0
ARC
  8
_0-2_決定
  6
CONTINUOUS
 62
    7
 10
879.49542897878416
 20
809.04765111320955
 40
11.770160552905484
 50
240.79472300569867
 51
265.5016766900207
  0
ARC
  8
_0-2_決定
  6
CONTINUOUS
 62
    7
 10
876.7088620127322
 20
803.54175743211329
 40
5.6102767042193822
 50
175.99348409760901
 51
238.19762088989711
  0
ARC
  8
_0-2_決定
  6
CONTINUOUS
 62
    7
 10
875.68635203970814
 20
807.3819292368438
 40
5.7281713847231224
 50
141.67938402193352
 51
217.01105517353412
  0
ARC
  8
_0-2_決定
  6
CONTINUOUS
 62
    7
 10
881.48185665689027
 20
803.6789528951806
 40
12.589959971986994
 50
120.07664908794474
 51
144.8137308203552
  0
ARC
  8
_0-2_決定
  6
CONTINUOUS
 62
    7
 10
887.08402516904243
 20
795.10024798101108
 40
22.827756168696602
 50
97.480023484889188
 51
121.45367507080012
  0
ARC
  8
_0-2_決定
  6
CONTINUOUS
 62
    7
 10
893.86257061431763
 20
795.73327195391835
 40
24.064263008325856
 50
87.452198511147444
 51
113.90218944403472
  0
ARC
  8
_0-2_決定
  6
CONTINUOUS
 62
    7
 10
894.07495430545168
 20
807.65108835726005
 40
12.15293742805053
 50
61.722606888483476
 51
85.954648098073562
  0
ARC
  8
_0-2_決定
  6
CONTINUOUS
 62
    7
 10
897.05310026855386
 20
813.62891079095107
 40
5.4816062803660346
 50
354.81730010469204
 51
59.535531624674384
  0
ARC
  8
_0-2_決定
  6
CONTINUOUS
 62
    7
 10
925.73526446022584
 20
764.74637690467171
 40
4.2204619450663463
 50
273.49154975233029
 51
340.44513805870031
  0
ARC
  8
_0-2_決定
  6
CONTINUOUS
 62
    7
 10
925.11067060359665
 20
769.61254657463314
 40
9.121503646595901
 50
247.03876087392479
 51
275.54649858303702
  0
ARC
  8
_0-2_決定
  6
CONTINUOUS
 62
    7
 10
927.69237785641451
 20
777.29872705600405
 40
17.217059017117329
 50
224.02315373089289
 51
249.10675929851539
  0
ARC
  8
_0-2_決定
  6
CONTINUOUS
 62
    7
 10
924.60969604493869
 20
781.87130231505932
 40
18.971882164911442
 50
220.1683996293753
 51
240.6553386752756
  0
ARC
  8
_0-2_決定
  6
CONTINUOUS
 62
    7
 10
917.88271140253698
 20
776.13305515977936
 40
10.130169430953886
 50
193.00298276526021
 51
219.9096785613763
  0
ARC
  8
_0-2_決定
  6
CONTINUOUS
 62
    7
 10
912.01985437516214
 20
774.54261066233812
 40
4.0663316230332578
 50
117.97656165813459
 51
189.75329402013759
  0
ARC
  8
_0-2_決定
  6
CONTINUOUS
 62
    7
 10
914.00785216421468
 20
776.92812302443372
 40
4.0778536367643792
 50
94.438147950292191
 51
162.80335571448114
  0
ARC
  8
_0-2_決定
  6
CONTINUOUS
 62
    7
 10
914.64404655815656
 20
772.1318877706583
 40
8.9128229816784792
 50
66.959962049188505
 51
96.129982596465894
  0
ARC
  8
_0-2_決定
  6
CONTINUOUS
 62
    7
 10
912.03795343923161
 20
764.13039024810269
 40
17.311552476396685
 50
43.897687941967966
 51
69.387915683093254
  0
ARC
  8
_0-2_決定
  6
CONTINUOUS
 62
    7
 10
915.21489636107333
 20
759.59619572061342
 40
18.971882164909488
 50
40.1683996293673
 51
60.6553386752676
  0
ARC
  8
_0-2_決定
  6
CONTINUOUS
 62
    7
 10
921.9418810034756
 20
765.33444287588736
 40
10.130169430954973
 50
13.002982765272577
 51
39.909678561388667
  0
ARC
  8
_0-2_決定
  6
CONTINUOUS
 62
    7
 10
927.80473803085044
 20
766.92488737333201
 40
4.0663316230334665
 50
297.97656165812083
 51
9.7532940201238194
  0
ARC
  8
_0-2_決定
  6
CONTINUOUS
 62
    7
 10
876.45325246249911
 20
746.69380269603812
 40
13.161612642638094
 50
342.30690768068513
 51
7.1576980632226057
  0
ARC
  8
_0-2_決定
  6
CONTINUOUS
 62
    7
 10
883.2236206826542
 20
744.71667929943692
 40
6.1130895775650043
 50
322.48207449081195
 51
340.6755070601389
  0
ARC
  8
_0-2_決定
  6
CONTINUOUS
 62
    7
 10
886.1114288157188
 20
742.42792807471176
 40
2.4293765615302738
 50
250.795212742655
 51
323.81825003957533
  0
ARC
  8
_0-2_決定
  6
CONTINUOUS
 62
    7
 10
884.44652275677186
 20
741.92635386116706
 40
1.9907274510953039
 50
229.4487885439774
 51
295.77912515348203
  0
ARC
  8
_0-2_決定
  6
CONTINUOUS
 62
    7
 10
885.6800573828599
 20
743.30900329067981
 40
3.8434455748457195
 50
208.18361259788614
 51
228.87674743173676
  0
ARC
  8
_0-2_決定
  6
CONTINUOUS
 62
    7
 10
888.79578598775822
 20
745.11897574587067
 40
7.4456462587227943
 50
194.03142289386153
 51
209.13651558970653
  0
ARC
  8
_0-2_決定
  6
CONTINUOUS
 62
    7
 10
894.65193143606257
 20
746.50791339245279
 40
13.464009205355087
 50
172.20618545824146
 51
193.72353716005568
  0
ARC
  8
_0-2_決定
  6
CONTINUOUS
 62
    7
 10
894.94702877612269
 20
750.07989276153262
 40
13.746088545983955
 50
162.84787119316363
 51
187.29790891154701
  0
ARC
  8
_0-2_決定
  6
CONTINUOUS
 62
    7
 10
887.25357793270689
 20
752.25763241739605
 40
5.7556372679671286
 50
142.09351772779988
 51
160.97615798691109
  0
ARC
  8
_0-2_決定
  6
CONTINUOUS
 62
    7
 10
884.50709849629959
 20
754.42525447383127
 40
2.25700965637688
 50
69.099005512125331
 51
142.67533149339044
  0
ARC
  8
_0-2_決定
  6
CONTINUOUS
 62
    7
 10
886.19354375324576
 20
754.67497976971481
 40
2.0570902660212069
 50
50.127853641836374
 51
115.36575713271537
  0
ARC
  8
_0-2_決定
  6
CONTINUOUS
 62
    7
 10
884.95416360989793
 20
753.20697185691245
 40
3.9783028331490291
 50
29.62860683837668
 51
49.982535346121068
  0
ARC
  8
_0-2_決定
  6
CONTINUOUS
 62
    7
 10
882.04692500277872
 20
751.36858993202338
 40
7.4160087773017844
 50
15.526595483053365
 51
30.870585544238679
  0
ARC
  8
_0-2_決定
  6
CONTINUOUS
 62
    7
 10
876.86922211779404
 20
750.04801521160516
 40
12.758762906617306
 50
352.27839196594323
 51
15.016379338979265
  0
ARC
  8
_0-2_決定
  6
CONTINUOUS
 62
    7
 10
828.60656271462517
 20
755.10069290233901
 40
6.2746978539787257
 50
279.59360993688807
 51
315.89616805892439
  0
ARC
  8
_0-2_決定
  6
CONTINUOUS
 62
    7
 10
827.751509739374
 20
759.26042987979622
 40
10.519828612653665
 50
253.88917848388363
 51
280.40972384238853
  0
ARC
  8
_0-2_決定
  6
CONTINUOUS
 62
    7
 10
829.88129496538909
 20
768.13635412567783
 40
19.642598223933366
 50
226.30697492107066
 51
255.10531046743552
  0
ARC
  8
_0-2_決定
  6
CONTINUOUS
 62
    7
 10
831.44961210745862
 20
770.45875820579886
 40
22.410136119716036
 50
199.40334221620165
 51
227.50955155553567
  0
ARC
  8
_0-2_決定
  6
CONTINUOUS
 62
    7
 10
820.01670362687855
 20
766.00008834562368
 40
10.153507138500181
 50
170.16886170658222
 51
197.10471605581907
  0
ARC
  8
_0-2_決定
  6
CONTINUOUS
 62
    7
 10
815.71890840165395
 20
766.50544391851099
 40
5.8373053180669263
 50
139.01705801187498
 51
167.85283963396907
  0
ARC
  8
_0-2_決定
  6
CONTINUOUS
 62
    7
 10
815.80735382684225
 20
765.98710480988245
 40
6.2529065986871037
 50
99.528136065648894
 51
135.96164193015625
  0
ARC
  8
_0-2_決定
  6
CONTINUOUS
 62
    7
 10
816.63866599340452
 20
761.94564420905272
 40
10.377318175526542
 50
73.463634632174148
 51
100.36106279785963
  0
ARC
  8
_0-2_決定
  6
CONTINUOUS
 62
    7
 10
814.39977834690035
 20
753.1767647942504
 40
19.423896645162543
 50
45.092747693572491
 51
74.494767740559837
  0
ARC
  8
_0-2_決定
  6
CONTINUOUS
 62
    7
 10
813.82619660774571
 20
750.82325316501567
 40
21.532317995733568
 50
19.903778351532686
 51
48.434758265364238
  0
ARC
  8
_0-2_決定
  6
CONTINUOUS
 62
    7
 10
824.33059943920171
 20
755.03700943415333
 40
10.228133821494454
 50
350.98169286581651
 51
17.741452424239053
  0
ARC
  8
_0-2_決定
  6
CONTINUOUS
 62
    7
 10
828.68470277722963
 20
754.57101691488219
 40
5.8590279447778411
 50
319.08546704987327
 51
348.80754232912534
  0
ARC
  8
_0-2_決定
  6
CONTINUOUS
 62
    7
 10
795.34476174181123
 20
814.1337597448512
 40
4.2073009408314039
 50
273.37294381685444
 51
340.56374399417621
  0
ARC
  8
_0-2_決定
  6
CONTINUOUS
 62
    7
 10
794.80718799576516
 20
818.91308577438485
 40
9.0135965375867801
 50
246.07839602477588
 51
274.99695955916809
  0
ARC
  8
_0-2_決定
  6
CONTINUOUS
 62
    7
 10
797.44823715934581
 20
826.59610830599627
 40
17.121928522590284
 50
222.93247516950001
 51
248.42541922357867
  0
ARC
  8
_0-2_決定
  6
CONTINUOUS
 62
    7
 10
792.75376022389401
 20
829.74554042440764
 40
16.759407821997399
 50
210.76123478320687
 51
242.10295758511577
  0
ARC
  8
_0-2_決定
  6
CONTINUOUS
 62
    7
 10
784.22196294433377
 20
824.27167996609967
 40
6.6370289081429403
 50
174.79535373570801
 51
207.82451121232057
  0
ARC
  8
_0-2_決定
  6
CONTINUOUS
 62
    7
 10
781.46539416107885
 20
824.24552970596415
 40
3.9039730343644932
 50
116.68302630738751
 51
170.73984879653364
  0
ARC
  8
_0-2_決定
  6
CONTINUOUS
 62
    7
 10
783.51476471317801
 20
826.56066483697259
 40
3.9793056384291536
 50
93.204840835323765
 51
162.85471309813698
  0
ARC
  8
_0-2_決定
  6
CONTINUOUS
 62
    7
 10
784.01249426571724
 20
822.84874661700565
 40
7.7186730420124414
 50
80.154705426230876
 51
95.353809441957722
  0
ARC
  8
_0-2_決定
  6
CONTINUOUS
 62
    7
 10
783.09606759527446
 20
817.28337990918612
 40
13.35886586157396
 50
56.89524988654221
 51
80.363505574772162
  0
ARC
  8
_0-2_決定
  6
CONTINUOUS
 62
    7
 10
779.89981156865042
 20
811.37407005191199
 40
20.062184031431961
 50
44.893354357212303
 51
58.466417769243584
  0
ARC
  8
_0-2_決定
  6
CONTINUOUS
 62
    7
 10
786.2708361821185
 20
810.72195361126205
 40
16.759407821997399
 50
30.761234783206877
 51
62.102957585115782
  0
ARC
  8
_0-2_決定
  6
CONTINUOUS
 62
    7
 10
794.80263346167908
 20
816.19581406956968
 40
6.637028908143038
 50
354.79535373571224
 51
27.824511212324801
  0
ARC
  8
_0-2_決定
  6
CONTINUOUS
 62
    7
 10
797.55920224493343
 20
816.22196432970577
 40
3.903973034364931
 50
296.68302630738651
 51
350.73984879653267
  0
ARC
  8
_0-2_決定
  6
CONTINUOUS
 62
    7
 10
746.05325900116918
 20
796.29380169603792
 40
13.161608014737693
 50
342.30690582321461
 51
7.157696205752111
  0
ARC
  8
_0-2_決定
  6
CONTINUOUS
 62
    7
 10
752.82362268265217
 20
794.31667929943785
 40
6.1130895775670124
 50
322.48207449081258
 51
340.67550706013947
  0
ARC
  8
_0-2_決定
  6
CONTINUOUS
 62
    7
 10
755.71143081571813
 20
792.02792807471212
 40
2.4293765615309582
 50
250.79521274264999
 51
323.81825003957033
  0
ARC
  8
_0-2_決定
  6
CONTINUOUS
 62
    7
 10
754.0465247567713
 20
791.52635386116629
 40
1.9907274510945312
 50
229.44878854397447
 51
295.77912515347913
  0
ARC
  8
_0-2_決定
  6
CONTINUOUS
 62
    7
 10
755.28005938285958
 20
792.90900329067972
 40
3.8434455748457195
 50
208.18361259788614
 51
228.87674743173676
  0
ARC
  8
_0-2_決定
  6
CONTINUOUS
 62
    7
 10
758.39578798775824
 20
794.71897574586933
 40
7.4456462587223964
 50
194.0314228938538
 51
209.13651558969877
  0
ARC
  8
_0-2_決定
  6
CONTINUOUS
 62
    7
 10
764.25192817325865
 20
796.10791239245543
 40
13.464003855558527
 50
172.20618663736713
 51
193.72353833918132
  0
ARC
  8
_0-2_決定
  6
CONTINUOUS
 62
    7
 10
764.54703077612294
 20
799.67989076153208
 40
13.746088545985348
 50
162.84787119316132
 51
187.29790891154468
  0
ARC
  8
_0-2_決定
  6
CONTINUOUS
 62
    7
 10
756.85357993270486
 20
801.85763041739335
 40
5.7556372679668435
 50
142.0935177277689
 51
160.97615798688011
  0
ARC
  8
_0-2_決定
  6
CONTINUOUS
 62
    7
 10
754.10710049629984
 20
804.0252524738321
 40
2.2570096563760975
 50
69.09900551214352
 51
142.67533149340863
  0
ARC
  8
_0-2_決定
  6
CONTINUOUS
 62
    7
 10
755.79354575324544
 20
804.27497776971393
 40
2.0570902660222865
 50
50.127853641832786
 51
115.36575713271179
  0
ARC
  8
_0-2_決定
  6
CONTINUOUS
 62
    7
 10
754.55416560989897
 20
802.8069698569127
 40
3.9783028331484118
 50
29.628606838384098
 51
49.982535346128486
  0
ARC
  8
_0-2_決定
  6
CONTINUOUS
 62
    7
 10
751.64692700277692
 20
800.9685879320233
 40
7.416008777303742
 50
15.52659548304689
 51
30.870585544232203
  0
ARC
  8
_0-2_決定
  6
CONTINUOUS
 62
    7
 10
746.46922411779428
 20
799.64801321160485
 40
12.758762906617306
 50
352.27839196594323
 51
15.016379338979265
  0
ARC
  8
_0-2_決定
  6
CONTINUOUS
 62
    7
 10
945.47000046030973
 20
810.16933425163643
 40
10.843542250104697
 50
345.16911754915566
 51
0.8687676371615576
  0
ARC
  8
_0-2_決定
  6
CONTINUOUS
 62
    7
 10
953.21844694739525
 20
807.96067164563988
 40
2.7920127660913296
 50
318.5854041893088
 51
348.28449345655554
  0
ARC
  8
_0-2_決定
  6
CONTINUOUS
 62
    7
 10
954.8990790478706
 20
806.49756291813696
 40
0.5639707994424214
 50
271.34290028223023
 51
317.11259035366453
  0
ARC
  8
_0-2_決定
  6
CONTINUOUS
 62
    7
 10
955.02062563583252
 20
806.73172352056952
 40
0.8052960728412952
 50
211.26751477121132
 51
262.26906309280827
  0
ARC
  8
_0-2_決定
  6
CONTINUOUS
 62
    7
 10
957.5109196467605
 20
808.31625647095984
 40
3.7568192805937168
 50
191.71050118857141
 51
212.21062685157781
  0
ARC
  8
_0-2_決定
  6
CONTINUOUS
 62
    7
 10
964.84742039270941
 20
810.23009224830366
 40
11.335598118636197
 50
179.47606967650231
 51
193.65652756498483
  0
ARC
  8
_0-2_決定
  6
CONTINUOUS
 62
    7
 10
964.35459194570456
 20
810.49815978403694
 40
10.843542250105225
 50
165.1691175491782
 51
180.86876763718405
  0
ARC
  8
_0-2_決定
  6
CONTINUOUS
 62
    7
 10
956.6061454586179
 20
812.70682239002872
 40
2.7920127660923217
 50
138.58540418929357
 51
168.2844934565403
  0
ARC
  8
_0-2_決定
  6
CONTINUOUS
 62
    7
 10
954.92551335814198
 20
814.16993111753391
 40
0.5639707994409385
 50
91.342900282257318
 51
137.11259035369164
  0
ARC
  8
_0-2_決定
  6
CONTINUOUS
 62
    7
 10
954.8039667701795
 20
813.93577051509988
 40
0.8052960728412952
 50
31.267514771211317
 51
82.269063092808281
  0
ARC
  8
_0-2_決定
  6
CONTINUOUS
 62
    7
 10
952.31367275925265
 20
812.35123756470807
 40
3.7568192805935743
 50
11.710501188598544
 51
32.21062685160495
  0
ARC
  8
_0-2_決定
  6
CONTINUOUS
 62
    7
 10
944.97717201330147
 20
810.4374017873613
 40
11.335598118639009
 50
359.47606967652411
 51
13.656527565006607
  0
ARC
  8
_0-2_決定
  6
CONTINUOUS
 62
    7
 10
975.57764983220693
 20
771.95678117639909
 40
10.136189330289863
 50
344.65097305340299
 51
1.0003784736067076
  0
ARC
  8
_0-2_決定
  6
CONTINUOUS
 62
    7
 10
982.54248453715945
 20
769.90841424492965
 40
2.8805954781551502
 50
318.87272661230628
 51
347.27191768569162
  0
ARC
  8
_0-2_決定
  6
CONTINUOUS
 62
    7
 10
984.07929865507867
 20
768.58731090625179
 40
0.8541993933159528
 50
272.21374084402669
 51
317.82004611216149
  0
ARC
  8
_0-2_決定
  6
CONTINUOUS
 62
    7
 10
984.22062363583279
 20
768.53172552056947
 40
0.8052960728412952
 50
211.26751477121132
 51
262.26906309280827
  0
ARC
  8
_0-2_決定
  6
CONTINUOUS
 62
    7
 10
986.71091764676021
 20
770.11625847096161
 40
3.7568192805943141
 50
191.71050118859401
 51
212.21062685160041
  0
ARC
  8
_0-2_決定
  6
CONTINUOUS
 62
    7
 10
994.04741839270912
 20
772.03009424830361
 40
11.335598118636197
 50
179.47606967650231
 51
193.65652756498483
  0
ARC
  8
_0-2_決定
  6
CONTINUOUS
 62
    7
 10
993.55458994570483
 20
772.29816178403462
 40
10.843542250105481
 50
165.16911754916728
 51
180.86876763717314
  0
ARC
  8
_0-2_決定
  6
CONTINUOUS
 62
    7
 10
985.80614345861818
 20
774.50682439002867
 40
2.7920127660923217
 50
138.58540418929357
 51
168.2844934565403
  0
ARC
  8
_0-2_決定
  6
CONTINUOUS
 62
    7
 10
984.12551135814226
 20
775.96993311753386
 40
0.5639707994409385
 50
91.342900282257318
 51
137.11259035369164
  0
ARC
  8
_0-2_決定
  6
CONTINUOUS
 62
    7
 10
984.0452985860037
 20
775.58497951905167
 40
0.9511319438009373
 50
38.244589831946591
 51
85.96086810614716
  0
ARC
  8
_0-2_決定
  6
CONTINUOUS
 62
    7
 10
982.39877188952903
 20
774.31620170030988
 40
3.029757597887857
 50
14.47961996590913
 51
37.81406250523662
  0
ARC
  8
_0-2_決定
  6
CONTINUOUS
 62
    7
 10
975.87229404268612
 20
772.35647008554793
 40
9.8425204002383015
 50
358.70337414019161
 51
16.026118349777313
  0
ARC
  8
_0-2_決定
  6
CONTINUOUS
 62
    7
 10
808.79732306065216
 20
1312.6434918792165
 40
3.3167914384239676
 50
306.97578318243848
 51
358.10376704296226
  0
ARC
  8
_0-2_決定
  6
CONTINUOUS
 62
    7
 10
805.94277651899893
 20
1315.8766392697553
 40
7.6240640347589466
 50
278.36790804827967
 51
309.50020064548221
  0
ARC
  8
_0-2_決定
  6
CONTINUOUS
 62
    7
 10
804.92416523225756
 20
1319.5557638048354
 40
11.422028951685606
 50
269.94047197597973
 51
280.73800163150565
  0
ARC
  8
_0-2_決定
  6
CONTINUOUS
 62
    7
 10
804.76720015048409
 20
1319.0339968595181
 40
10.901221530589854
 50
243.08343213026563
 51
270.76264402988949
  0
ARC
  8
_0-2_決定
  6
CONTINUOUS
 62
    7
 10
801.87965195543347
 20
1313.2346294357326
 40
4.4232367530102392
 50
189.1172884917984
 51
242.42797711961802
  0
ARC
  8
_0-2_決定
  6
CONTINUOUS
 62
    7
 10
800.86537600705356
 20
1312.4777179212535
 40
3.3535457872740611
 50
128.18297755299886
 51
179.0427933556702
  0
ARC
  8
_0-2_決定
  6
CONTINUOUS
 62
    7
 10
802.78621694064009
 20
1310.4072749471427
 40
6.1726987418307919
 50
113.8299834651245
 51
130.31801828546821
  0
ARC
  8
_0-2_決定
  6
CONTINUOUS
 62
    7
 10
804.56591546592085
 20
1306.1847503875347
 40
10.754570217857742
 50
88.154300786121667
 51
113.41429494900937
  0
ARC
  8
_0-2_決定
  6
CONTINUOUS
 62
    7
 10
805.08343957095667
 20
1306.3113278775588
 40
10.623791709673867
 50
62.722688453664816
 51
90.923032238393418
  0
ARC
  8
_0-2_決定
  6
CONTINUOUS
 62
    7
 10
807.91394283473153
 20
1312.0519249943948
 40
4.2259122658626858
 50
6.5467964203309705
 51
61.161210581065468
  0
ARC
  8
_0-2_決定
  6
CONTINUOUS
 62
    7
 10
801.80466316283264
 20
1245.4471436980136
 40
7.5141736163326076
 50
270.82074819678326
 51
357.60960259722879
  0
ARC
  8
_0-2_決定
  6
CONTINUOUS
 62
    7
 10
802.17566214764702
 20
1245.6071984053822
 40
7.6779755695001519
 50
183.5353500535669
 51
268.03429915241657
  0
ARC
  8
_0-2_決定
  6
CONTINUOUS
 62
    7
 10
801.88577831163514
 20
1245.160260909206
 40
7.3735277999736049
 50
89.793927524804872
 51
180.20607247519735
  0
ARC
  8
_0-2_決定
  6
CONTINUOUS
 62
    7
 10
801.92191466050167
 20
1245.14335747533
 40
7.3903897990282914
 50
359.92544607269576
 51
90.074553927306397
  0
ARC
  8
_0-2_決定
  6
CONTINUOUS
 62
    7
 10
840.4392500291035
 20
627.6314243033554
 40
5.2435738636839631
 50
340.18285787713563
 51
39.034297860242511
  0
ARC
  8
_0-2_決定
  6
CONTINUOUS
 62
    7
 10
837.04866031534266
 20
628.91367163533948
 40
8.8682596136913947
 50
310.53537156151754
 51
339.81565012457588
  0
ARC
  8
_0-2_決定
  6
CONTINUOUS
 62
    7
 10
831.50150219211378
 20
634.63408103530674
 40
16.828365497016019
 50
291.65808695319259
 51
312.23141859920668
  0
ARC
  8
_0-2_決定
  6
CONTINUOUS
 62
    7
 10
828.46735714683268
 20
641.114728215588
 40
23.97512315580197
 50
277.2965050782916
 51
292.68133481848724
  0
ARC
  8
_0-2_決定
  6
CONTINUOUS
 62
    7
 10
821.52196042762762
 20
638.78248487347241
 40
23.661255100158701
 50
268.13593246183456
 51
294.9750403411806
  0
ARC
  8
_0-2_決定
  6
CONTINUOUS
 62
    7
 10
821.48295742659548
 20
626.95476828351707
 40
11.843576828668565
 50
241.8331064860235
 51
266.46303720539908
  0
ARC
  8
_0-2_決定
  6
CONTINUOUS
 62
    7
 10
818.73817300614348
 20
621.37963836509937
 40
5.6370083440951664
 50
176.39835044293505
 51
239.6782377839985
  0
ARC
  8
_0-2_決定
  6
CONTINUOUS
 62
    7
 10
817.74545338848407
 20
625.21170393358011
 40
5.7932964240454421
 50
141.80724937220447
 51
216.89431827852934
  0
ARC
  8
_0-2_決定
  6
CONTINUOUS
 62
    7
 10
823.38715722009078
 20
621.68381802759347
 40
12.429251687207042
 50
120.85663169055523
 51
145.10793632447718
  0
ARC
  8
_0-2_決定
  6
CONTINUOUS
 62
    7
 10
828.52739822982949
 20
614.01217546938062
 40
21.65665999703997
 50
96.402809361276013
 51
122.12118224979018
  0
ARC
  8
_0-2_決定
  6
CONTINUOUS
 62
    7
 10
836.03226880837178
 20
614.21545496563829
 40
23.513306092092169
 50
87.952637187590128
 51
114.95381255617882
  0
ARC
  8
_0-2_決定
  6
CONTINUOUS
 62
    7
 10
836.11002520124111
 20
625.96392672801085
 40
11.774524530607358
 50
62.140627624539505
 51
86.288132335993396
  0
ARC
  8
_0-2_決定
  6
CONTINUOUS
 62
    7
 10
838.69921124486928
 20
631.32784175706274
 40
5.8264280859948014
 50
356.12163949773549
 51
60.001465756108161
  0
ARC
  8
_0-2_決定
  6
CONTINUOUS
 62
    7
 10
891.00325330695512
 20
685.67137374992376
 40
27.666578045009217
 50
283.18161311352503
 51
300.42118020052516
  0
ARC
  8
_0-2_決定
  6
CONTINUOUS
 62
    7
 10
902.09571832800407
 20
666.46216887894866
 40
5.4876437298851988
 50
302.10556855634405
 51
321.8688564352841
  0
ARC
  8
_0-2_決定
  6
CONTINUOUS
 62
    7
 10
905.398184538019
 20
663.93321458339756
 40
1.3293244628201919
 50
319.71852899622456
 51
8.6764430958732799
  0
ARC
  8
_0-2_決定
  6
CONTINUOUS
 62
    7
 10
905.66320596285209
 20
663.7325678016947
 40
1.1231815081150065
 50
20.92728806279402
 51
63.047136928896307
  0
ARC
  8
_0-2_決定
  6
CONTINUOUS
 62
    7
 10
904.26640994901391
 20
660.9742125763396
 40
4.2150345986818802
 50
63.117400973570334
 51
82.558761420668205
  0
ARC
  8
_0-2_決定
  6
CONTINUOUS
 62
    7
 10
902.88776613327741
 20
651.79650916210994
 40
13.49517219425746
 50
81.801166531369262
 51
92.954030547537116
  0
ARC
  8
_0-2_決定
  6
CONTINUOUS
 62
    7
 10
903.41428829564052
 20
635.6619295053498
 40
29.637022784255329
 50
92.363086320920814
 51
104.66275215475922
  0
ARC
  8
_0-2_決定
  6
CONTINUOUS
 62
    7
 10
902.32142251910432
 20
637.99510239090534
 40
27.107216866988907
 50
103.67629472941641
 51
121.06876747027789
  0
ARC
  8
_0-2_決定
  6
CONTINUOUS
 62
    7
 10
891.17262274475422
 20
656.78402644940411
 40
5.2621190500616457
 50
122.66788665964057
 51
142.96042104567363
  0
ARC
  8
_0-2_決定
  6
CONTINUOUS
 62
    7
 10
888.00516046884525
 20
659.14733463634605
 40
1.3103877181882284
 50
142.01879957676883
 51
189.38064552484997
  0
ARC
  8
_0-2_決定
  6
CONTINUOUS
 62
    7
 10
887.82039127688904
 20
659.28946516919291
 40
1.1637900370078667
 50
197.79736300214427
 51
240.78145072285105
  0
ARC
  8
_0-2_決定
  6
CONTINUOUS
 62
    7
 10
889.06140821952874
 20
661.45480415680709
 40
3.6595061635815402
 50
240.37246926112374
 51
261.68671512189042
  0
ARC
  8
_0-2_決定
  6
CONTINUOUS
 62
    7
 10
890.29840077870972
 20
669.30047434003086
 40
11.601933852600661
 50
261.24410837892214
 51
272.93421596875709
  0
ARC
  8
_0-2_決定
  6
CONTINUOUS
 62
    7
 10
889.59974011840075
 20
686.56336872683346
 40
28.878558537212587
 50
272.56532047781985
 51
285.48990542360616
  0
ARC
  8
_0-2_決定
  6
CONTINUOUS
 62
    7
 10
874.18270213878486
 20
720.0126185074098
 40
0.9329338243522293
 50
307.62860890917557
 51
355.15047175894927
  0
ARC
  8
_0-2_決定
  6
CONTINUOUS
 62
    7
 10
872.99980083001572
 20
721.47873976381447
 40
2.8165979873258093
 50
284.65292302567906
 51
308.47717932850196
  0
ARC
  8
_0-2_決定
  6
CONTINUOUS
 62
    7
 10
872.12440840178942
 20
724.37384211759104
 40
5.8401056599329024
 50
269.88117023752466
 51
285.77698278260607
  0
ARC
  8
_0-2_決定
  6
CONTINUOUS
 62
    7
 10
871.99615562852614
 20
723.11467376363134
 40
4.5823967702166764
 50
247.08996775444103
 51
271.45231364952133
  0
ARC
  8
_0-2_決定
  6
CONTINUOUS
 62
    7
 10
870.66135106843774
 20
720.1917772667656
 40
1.3735092308353112
 50
190.82795669626705
 51
250.916859898702
  0
ARC
  8
_0-2_決定
  6
CONTINUOUS
 62
    7
 10
870.29348939783063
 20
719.87170680335362
 40
0.9831527459896684
 50
129.18585214169369
 51
176.38192474368503
  0
ARC
  8
_0-2_決定
  6
CONTINUOUS
 62
    7
 10
871.33716044180858
 20
718.62843839556967
 40
2.6063467968423506
 50
104.3249368690126
 51
129.70039382689478
  0
ARC
  8
_0-2_決定
  6
CONTINUOUS
 62
    7
 10
872.07274036556328
 20
715.95468951322346
 40
5.3792049429657567
 50
89.578673244401429
 51
104.86995814370707
  0
ARC
  8
_0-2_決定
  6
CONTINUOUS
 62
    7
 10
872.19597332433352
 20
716.06306635854685
 40
5.2713468445506972
 50
68.682503743553866
 51
90.909548812965113
  0
ARC
  8
_0-2_決定
  6
CONTINUOUS
 62
    7
 10
873.69317513413364
 20
719.56997875930392
 40
1.4650028699999686
 50
14.377343315239798
 51
73.376051256598075
  0
ARC
  8
_0-2_決定
  6
CONTINUOUS
 62
    7
 10
774.45088780025321
 20
712.66347068972868
 40
11.297302172087598
 50
158.88213802583243
 51
174.15608234431267
  0
ARC
  8
_0-2_決定
  6
CONTINUOUS
 62
    7
 10
765.82096719079209
 20
713.4027397592954
 40
2.6408488215800787
 50
171.04635746166974
 51
201.99324604161274
  0
ARC
  8
_0-2_決定
  6
CONTINUOUS
 62
    7
 10
763.8378380912161
 20
712.63261888208967
 40
0.5144233713525521
 50
205.18018911850194
 51
255.87489118480369
  0
ARC
  8
_0-2_決定
  6
CONTINUOUS
 62
    7
 10
763.95638353608638
 20
712.65655435471103
 40
0.5769775299709633
 50
244.97325211849488
 51
303.19798144148797
  0
ARC
  8
_0-2_決定
  6
CONTINUOUS
 62
    7
 10
762.50181714299379
 20
715.03665684546831
 40
3.3661319661280995
 50
301.73349870749405
 51
323.0613768875005
  0
ARC
  8
_0-2_決定
  6
CONTINUOUS
 62
    7
 10
756.26683035626854
 20
720.11577724284962
 40
11.406260613893659
 50
321.4906023924467
 51
336.31477183601021
  0
ARC
  8
_0-2_決定
  6
CONTINUOUS
 62
    7
 10
759.83489290886291
 20
718.838316566858
 40
7.6301291120116197
 50
334.33588923376834
 51
6.7394663501879517
  0
ARC
  8
_0-2_決定
  6
CONTINUOUS
 62
    7
 10
766.89438153533865
 20
719.65781151708484
 40
0.5234540845839614
 50
8.3413346011184579
 51
65.398460690387239
  0
ARC
  8
_0-2_決定
  6
CONTINUOUS
 62
    7
 10
766.82549163135661
 20
719.36649235374773
 40
0.8191097595117262
 50
69.503861716484195
 51
120.29432319108072
  0
ARC
  8
_0-2_決定
  6
CONTINUOUS
 62
    7
 10
768.02603521382571
 20
717.21254471248358
 40
3.284910534101138
 50
119.42326844143305
 51
141.58242832920524
  0
ARC
  8
_0-2_決定
  6
CONTINUOUS
 62
    7
 10
773.60396009102885
 20
712.54162230848829
 40
10.55946194173586
 50
140.53175634213483
 51
156.60911242819702
  0
ARC
  8
_0-2_決定
  6
CONTINUOUS
 62
    7
 10
968.74375253747189
 20
659.15656409325095
 40
8.1772454358207707
 50
2.6437863316269876
 51
90.220420709577724
  0
ARC
  8
_0-2_決定
  6
CONTINUOUS
 62
    7
 10
968.95510483691396
 20
658.86822997564479
 40
8.4690005111361213
 50
91.642924826252695
 51
175.49286813253866
  0
ARC
  8
_0-2_決定
  6
CONTINUOUS
 62
    7
 10
968.83125551480305
 20
659.85818636242675
 40
8.3252853164316036
 50
182.23337500874587
 51
269.18126372834536
  0
ARC
  8
_0-2_決定
  6
CONTINUOUS
 62
    7
 10
968.45451645573348
 20
660.00047320878991
 40
8.4706454314768198
 50
271.74388808092573
 51
356.84147318198706
  0
ARC
  8
_0-2_決定
  6
CONTINUOUS
 62
    7
 10
939.19732106065226
 20
717.04349987921637
 40
3.316791438423822
 50
306.97578318243717
 51
358.10376704296095
  0
ARC
  8
_0-2_決定
  6
CONTINUOUS
 62
    7
 10
936.34277451899777
 20
720.27664726975502
 40
7.624064034759269
 50
278.36790804828513
 51
309.50020064548767
  0
ARC
  8
_0-2_決定
  6
CONTINUOUS
 62
    7
 10
935.32416323226016
 20
723.95577180482917
 40
11.422028951679376
 50
269.94047197597126
 51
280.73800163149713
  0
ARC
  8
_0-2_決定
  6
CONTINUOUS
 62
    7
 10
935.16719815048361
 20
723.43400485951997
 40
10.901221530592036
 50
243.08343213027155
 51
270.7626440298954
  0
ARC
  8
_0-2_決定
  6
CONTINUOUS
 62
    7
 10
932.27964995543346
 20
717.6346374357322
 40
4.4232367530103671
 50
189.11728849179724
 51
242.42797711961686
  0
ARC
  8
_0-2_決定
  6
CONTINUOUS
 62
    7
 10
931.26537400705331
 20
716.87772592125327
 40
3.3535457872742098
 50
128.18297755300009
 51
179.04279335567145
  0
ARC
  8
_0-2_決定
  6
CONTINUOUS
 62
    7
 10
933.18621494063962
 20
714.80728294714254
 40
6.1726987418307919
 50
113.8299834651245
 51
130.31801828546821
  0
ARC
  8
_0-2_決定
  6
CONTINUOUS
 62
    7
 10
934.9659134659214
 20
710.58475838753225
 40
10.754570217860294
 50
88.154300786119066
 51
113.41429494900679
  0
ARC
  8
_0-2_決定
  6
CONTINUOUS
 62
    7
 10
935.48343757095779
 20
710.71133587755889
 40
10.623791709673799
 50
62.72268845366635
 51
90.923032238394967
  0
ARC
  8
_0-2_決定
  6
CONTINUOUS
 62
    7
 10
938.31394083473185
 20
716.45193299439597
 40
4.2259122658622523
 50
6.5467964203146733
 51
61.161210581049176
  0
ARC
  8
_0-2_決定
  6
CONTINUOUS
 62
    7
 10
836.42447484925981
 20
727.73254689427461
 40
27.736276489523561
 50
148.04087721784728
 51
157.97546780418466
  0
ARC
  8
_0-2_決定
  6
CONTINUOUS
 62
    7
 10
818.71931672430628
 20
738.98953354710159
 40
6.7586534485486478
 50
130.69677292596563
 51
149.55960915773753
  0
ARC
  8
_0-2_決定
  6
CONTINUOUS
 62
    7
 10
814.82982546346784
 20
743.63049285293982
 40
0.7080755512157976
 50
83.311321249846372
 51
136.96128560671684
  0
ARC
  8
_0-2_決定
  6
CONTINUOUS
 62
    7
 10
814.45634014493498
 20
743.73032243607349
 40
0.7563209571973812
 50
1.7749858324546066
 51
52.92476572773711
  0
ARC
  8
_0-2_決定
  6
CONTINUOUS
 62
    7
 10
810.10670711919829
 20
743.44153002545204
 40
5.1151286410279662
 50
346.11172731605643
 51
3.4994148685101543
  0
ARC
  8
_0-2_決定
  6
CONTINUOUS
 62
    7
 10
788.56718397177679
 20
748.11545376157881
 40
27.154211446714385
 50
335.6829668437835
 51
347.44713551036881
  0
ARC
  8
_0-2_決定
  6
CONTINUOUS
 62
    7
 10
785.32603974423637
 20
748.89654111983873
 40
30.435818658233259
 50
327.21016877053182
 51
336.85560021722182
  0
ARC
  8
_0-2_決定
  6
CONTINUOUS
 62
    7
 10
806.09724317620646
 20
735.25048520998382
 40
5.5885442769076787
 50
308.44898494863605
 51
329.49600693289386
  0
ARC
  8
_0-2_決定
  6
CONTINUOUS
 62
    7
 10
809.19775597632929
 20
731.27867347691699
 40
0.5515847143707565
 50
261.08718426447291
 51
312.76784186382963
  0
ARC
  8
_0-2_決定
  6
CONTINUOUS
 62
    7
 10
809.5682562610782
 20
731.33717559959564
 40
0.7563209571975225
 50
181.77498583242098
 51
232.92476572770349
  0
ARC
  8
_0-2_決定
  6
CONTINUOUS
 62
    7
 10
813.91782227211593
 20
731.62597410246372
 40
5.1150621231540327
 50
166.11161338283642
 51
183.49952880174928
  0
ARC
  8
_0-2_決定
  6
CONTINUOUS
 62
    7
 10
835.45741243423572
 20
726.9520442740893
 40
27.154211446714818
 50
155.68296684378072
 51
167.44713551036602
  0
CIRCLE
  8
_0-2_決定
  6
CONTINUOUS
 62
    7
 10
932.29229620300657
 20
649.57375101783498
 40
7.3399999999999999
  0
ARC
  8
_0-2_決定
  6
CONTINUOUS
 62
    7
 10
843.63694840850462
 20
675.21263796341941
 40
7.8890319810134804
 50
330.04717864843673
 51
18.637022746763122
  0
ARC
  8
_0-2_決定
  6
CONTINUOUS
 62
    7
 10
840.87302629792418
 20
676.64665886147736
 40
11.000642840240362
 50
287.12527179
 51
330.76335847813175
  0
ARC
  8
_0-2_決定
  6
CONTINUOUS
 62
    7
 10
840.63324555471559
 20
676.63444409905424
 40
11.06202470626959
 50
236.65260869813577
 51
288.33087131278671
  0
ARC
  8
_0-2_決定
  6
CONTINUOUS
 62
    7
 10
839.1877921102523
 20
673.728624240317
 40
7.8497430779935318
 50
197.76355642753796
 51
233.80548879279752
  0
ARC
  8
_0-2_決定
  6
CONTINUOUS
 62
    7
 10
839.18764399750876
 20
673.85486007224904
 40
7.8890319810139609
 50
150.04717864842704
 51
198.63702274675339
  0
ARC
  8
_0-2_決定
  6
CONTINUOUS
 62
    7
 10
841.95156610808851
 20
672.42083917419336
 40
11.000642840239227
 50
107.12527179000222
 51
150.76335847813397
  0
ARC
  8
_0-2_決定
  6
CONTINUOUS
 62
    7
 10
842.05737966796528
 20
672.90667040385893
 40
10.570330596456873
 50
43.283258468273857
 51
108.44895600519865
  0
ARC
  8
_0-2_決定
  6
CONTINUOUS
 62
    7
 10
843.58160160231841
 20
675.09377188687097
 40
7.9800275952427411
 50
19.318739358165711
 51
39.351794590375086
  0
ARC
  8
_0-2_決定
  6
CONTINUOUS
 62
    7
 10
865.95968767555291
 20
590.26375101783492
 40
3.0415123074532864
 50
346.11274075160151
 51
13.887259248398509
  0
ARC
  8
_0-2_決定
  6
CONTINUOUS
 62
    7
 10
864.27093222745782
 20
589.88440467205305
 40
4.7720969047600779
 50
13.442250521714355
 51
32.575489643951073
  0
ARC
  8
_0-2_決定
  6
CONTINUOUS
 62
    7
 10
861.26044562159279
 20
587.85467802363667
 40
8.4022851061649781
 50
33.186071263371765
 51
47.543001882790463
  0
ARC
  8
_0-2_決定
  6
CONTINUOUS
 62
    7
 10
856.44855962179372
 20
582.74925346356849
 40
15.41753539508446
 50
47.157307226139871
 51
69.323732604233427
  0
ARC
  8
_0-2_決定
  6
CONTINUOUS
 62
    7
 10
853.55119863911477
 20
576.38680232991715
 40
22.398016526569783
 50
68.13608209532606
 51
76.151471390050801
  0
ARC
  8
_0-2_決定
  6
CONTINUOUS
 62
    7
 10
853.63036521637468
 20
578.12404124402212
 40
20.695102806697022
 50
75.213015211996677
 51
95.206723343281141
  0
ARC
  8
_0-2_決定
  6
CONTINUOUS
 62
    7
 10
852.65920148587611
 20
589.10119657383018
 40
9.6751528312895569
 50
95.378544495902588
 51
122.13875619978499
  0
ARC
  8
_0-2_決定
  6
CONTINUOUS
 62
    7
 10
849.62317015395115
 20
594.30598391001615
 40
3.6582155660018771
 50
125.24141664602205
 51
163.68322777001185
  0
ARC
  8
_0-2_決定
  6
CONTINUOUS
 62
    7
 10
849.06490473045949
 20
594.60375101783461
 40
3.0415123074532864
 50
166.11274075160148
 51
193.88725924839849
  0
ARC
  8
_0-2_決定
  6
CONTINUOUS
 62
    7
 10
850.75366017855629
 20
594.98309736361568
 40
4.7720969047613169
 50
193.44225052169688
 51
212.57548964393359
  0
ARC
  8
_0-2_決定
  6
CONTINUOUS
 62
    7
 10
853.76414678441733
 20
597.01282401203639
 40
8.402285106165456
 50
213.18607126339953
 51
227.54300188281823
  0
ARC
  8
_0-2_決定
  6
CONTINUOUS
 62
    7
 10
858.57603278421948
 20
602.11824857210308
 40
15.417535395085714
 50
227.15730722614276
 51
249.32373260423634
  0
ARC
  8
_0-2_決定
  6
CONTINUOUS
 62
    7
 10
861.47339376689843
 20
608.48069970574454
 40
22.398016526562042
 50
248.13608209531969
 51
256.15147139004443
  0
ARC
  8
_0-2_決定
  6
CONTINUOUS
 62
    7
 10
861.39422718963829
 20
606.74346079164741
 40
20.695102806697093
 50
255.21301521199439
 51
275.2067233432789
  0
ARC
  8
_0-2_決定
  6
CONTINUOUS
 62
    7
 10
862.36539092013629
 20
595.7663054618406
 40
9.6751528312907205
 50
275.37854449590026
 51
302.13875619978268
  0
ARC
  8
_0-2_決定
  6
CONTINUOUS
 62
    7
 10
865.40142225206125
 20
590.56151812565258
 40
3.6582155660017261
 50
305.24141664603701
 51
343.6832277700268
  0
ARC
  8
_0-2_決定
  6
CONTINUOUS
 62
    7
 10
885.12913015053016
 20
517.91691907031077
 40
4.5868247042313435
 50
272.28860565918455
 51
357.71139434082284
  0
ARC
  8
_0-2_決定
  6
CONTINUOUS
 62
    7
 10
885.49546225548283
 20
517.91691907031156
 40
4.5868247042319368
 50
182.28860565918453
 51
267.71139434082284
  0
ARC
  8
_0-2_決定
  6
CONTINUOUS
 62
    7
 10
885.49546225548227
 20
517.55058696535832
 40
4.5868247042317885
 50
92.288605659175303
 51
177.71139434081363
  0
ARC
  8
_0-2_決定
  6
CONTINUOUS
 62
    7
 10
885.12913015053073
 20
517.55058696535889
 40
4.5868247042311951
 50
2.2886056591790065
 51
87.711394340817321
  0
ARC
  8
_0-2_決定
  6
CONTINUOUS
 62
    7
 10
905.27000046030935
 20
558.56933825163264
 40
10.843542250104193
 50
345.16911754917749
 51
0.8687676371833862
  0
ARC
  8
_0-2_決定
  6
CONTINUOUS
 62
    7
 10
913.01844694739486
 20
556.36067564564212
 40
2.7920127660923217
 50
318.5854041892681
 51
348.28449345651484
  0
ARC
  8
_0-2_決定
  6
CONTINUOUS
 62
    7
 10
914.69907904787021
 20
554.89756691813579
 40
0.5639707994410885
 50
271.34290028229117
 51
317.11259035372547
  0
ARC
  8
_0-2_決定
  6
CONTINUOUS
 62
    7
 10
914.8206256358327
 20
555.13172752056971
 40
0.8052960728412952
 50
211.26751477121132
 51
262.26906309280827
  0
ARC
  8
_0-2_決定
  6
CONTINUOUS
 62
    7
 10
917.31091964675898
 20
556.71626047095981
 40
3.7568192805922358
 50
191.71050118858051
 51
212.21062685158691
  0
ARC
  8
_0-2_決定
  6
CONTINUOUS
 62
    7
 10
924.64742039271187
 20
558.63009624830352
 40
11.335598118638483
 50
179.476069676501
 51
193.65652756498349
  0
ARC
  8
_0-2_決定
  6
CONTINUOUS
 62
    7
 10
924.15459194570474
 20
558.89816378403714
 40
10.843542250105225
 50
165.1691175491782
 51
180.86876763718405
  0
ARC
  8
_0-2_決定
  6
CONTINUOUS
 62
    7
 10
916.40614545861752
 20
561.10682639002857
 40
2.7920127660918261
 50
138.58540418928848
 51
168.28449345653522
  0
ARC
  8
_0-2_決定
  6
CONTINUOUS
 62
    7
 10
914.72551335814217
 20
562.56993511753399
 40
0.5639707994410885
 50
91.342900282291183
 51
137.11259035372549
  0
ARC
  8
_0-2_決定
  6
CONTINUOUS
 62
    7
 10
914.60396677017968
 20
562.33577451510007
 40
0.8052960728412952
 50
31.267514771211317
 51
82.269063092808281
  0
ARC
  8
_0-2_決定
  6
CONTINUOUS
 62
    7
 10
912.11367275925284
 20
560.75124156470827
 40
3.7568192805935743
 50
11.710501188598544
 51
32.21062685160495
  0
ARC
  8
_0-2_決定
  6
CONTINUOUS
 62
    7
 10
904.77717201330108
 20
558.83740578736604
 40
11.335598118638483
 50
359.47606967650097
 51
13.656527564983483
  0
ARC
  8
_0-2_決定
  6
CONTINUOUS
 62
    7
 10
934.69182486994328
 20
520.45890746523139
 40
10.823961379616375
 50
345.52705763644042
 51
1.4550294825575987
  0
ARC
  8
_0-2_決定
  6
CONTINUOUS
 62
    7
 10
942.5572046642128
 20
518.31519298017304
 40
2.6746810253900444
 50
318.23797085437354
 51
347.88297301802135
  0
ARC
  8
_0-2_決定
  6
CONTINUOUS
 62
    7
 10
944.09313469513677
 20
516.95990833514895
 40
0.6264484374506234
 50
271.75280953862796
 51
317.13510002212701
  0
ARC
  8
_0-2_決定
  6
CONTINUOUS
 62
    7
 10
944.21772926696804
 20
517.22922107243744
 40
0.901653574156626
 50
216.43235943610492
 51
263.28486945983059
  0
ARC
  8
_0-2_決定
  6
CONTINUOUS
 62
    7
 10
946.32588417901161
 20
518.81907592129414
 40
3.542064124452506
 50
195.47897516783763
 51
216.87160479565659
  0
ARC
  8
_0-2_決定
  6
CONTINUOUS
 62
    7
 10
951.82591310339717
 20
520.57838475215431
 40
9.3149127245090799
 50
179.04428962763853
 51
196.87921215436333
  0
ARC
  8
_0-2_決定
  6
CONTINUOUS
 62
    7
 10
951.24807440539769
 20
520.82992350122208
 40
8.7363075474277743
 50
163.48232376391408
 51
180.63073261490337
  0
ARC
  8
_0-2_決定
  6
CONTINUOUS
 62
    7
 10
946.12289465850324
 20
522.50673290609041
 40
3.3492792925697805
 50
140.1306285717979
 51
166.05718451633476
  0
ARC
  8
_0-2_決定
  6
CONTINUOUS
 62
    7
 10
944.15339397683965
 20
524.15155747016922
 40
0.7832744741163784
 50
93.007643987889949
 51
140.12245836631254
  0
ARC
  8
_0-2_決定
  6
CONTINUOUS
 62
    7
 10
944.01697424574536
 20
524.13295653113698
 40
0.8064498054086376
 50
33.133308360238821
 51
83.21179848636605
  0
ARC
  8
_0-2_決定
  6
CONTINUOUS
 62
    7
 10
941.85424217932507
 20
522.61850887180492
 40
3.4463793047074582
 50
12.999615891551509
 51
34.564444954920233
  0
ARC
  8
_0-2_決定
  6
CONTINUOUS
 62
    7
 10
935.08321977115543
 20
520.90445868341453
 40
10.430473414263409
 50
359.06225245351987
 51
13.807225848566537
  0
ARC
  8
_0-2_決定
  6
CONTINUOUS
 62
    7
 10
962.15808392012377
 20
620.25455764610695
 40
3.7550454642025795
 50
1.2084493885492562
 51
49.590169752983726
  0
ARC
  8
_0-2_決定
  6
CONTINUOUS
 62
    7
 10
960.32317216264175
 20
618.31235153475586
 40
6.4248610873421121
 50
48.358386436855504
 51
91.880892474312731
  0
ARC
  8
_0-2_決定
  6
CONTINUOUS
 62
    7
 10
960.05513411156642
 20
618.08087523393829
 40
6.6531213502126176
 50
89.507721757809293
 51
139.8161500740363
  0
ARC
  8
_0-2_決定
  6
CONTINUOUS
 62
    7
 10
957.93842827383799
 20
620.28735534785949
 40
3.626428870570404
 50
144.8772090743083
 51
179.26695140166277
  0
ARC
  8
_0-2_決定
  6
CONTINUOUS
 62
    7
 10
958.06650648588914
 20
620.41294438956334
 40
3.7550454642022508
 50
181.20844938856337
 51
229.59016975299784
  0
ARC
  8
_0-2_決定
  6
CONTINUOUS
 62
    7
 10
959.90141924337081
 20
622.35515300600196
 40
6.424863623902338
 50
228.35839461662164
 51
271.88090065407886
  0
ARC
  8
_0-2_決定
  6
CONTINUOUS
 62
    7
 10
960.16945729444615
 20
622.5866246722095
 40
6.6531192121778187
 50
269.50773021178497
 51
319.81615852801201
  0
ARC
  8
_0-2_決定
  6
CONTINUOUS
 62
    7
 10
962.28616213217549
 20
620.38014668780943
 40
3.6264288705696512
 50
324.87720907432043
 51
359.26695140167487
  0
ARC
  8
_0-2_決定
  6
CONTINUOUS
 62
    7
 10
803.29065355997136
 20
529.33801785472167
 40
1.4216510461314393
 50
278.96937422607846
 51
359.82803648392985
  0
ARC
  8
_0-2_決定
  6
CONTINUOUS
 62
    7
 10
803.54402507930274
 20
529.17523119751718
 40
1.2418855145398242
 50
172.66650354276379
 51
268.5360857472279
  0
ARC
  8
_0-2_決定
  6
CONTINUOUS
 62
    7
 10
803.52435215011724
 20
529.32169707072444
 40
1.2121138842318515
 50
90.569791080552079
 51
179.43020891947506
  0
ARC
  8
_0-2_決定
  6
CONTINUOUS
 62
    7
 10
803.39904528622492
 20
529.22049810105398
 40
1.3181272497727656
 50
4.9289053857374245
 51
85.071094614235406
  0
ARC
  8
_0-2_決定
  6
CONTINUOUS
 62
    7
 10
913.11744252051881
 20
583.56698994061423
 40
1.3952496627977198
 50
319.11564369058635
 51
358.63491801727525
  0
ARC
  8
_0-2_決定
  6
CONTINUOUS
 62
    7
 10
911.8698630338821
 20
584.75440214284288
 40
3.1167184100075502
 50
294.29715180379958
 51
317.6238825895029
  0
ARC
  8
_0-2_決定
  6
CONTINUOUS
 62
    7
 10
910.07181686327556
 20
588.43456549767814
 40
7.211821853252097
 50
280.06583245673573
 51
295.28638494057441
  0
ARC
  8
_0-2_決定
  6
CONTINUOUS
 62
    7
 10
909.15221834329543
 20
593.11161526063711
 40
11.977930772728806
 50
269.8090342625872
 51
280.48673538567436
  0
ARC
  8
_0-2_決定
  6
CONTINUOUS
 62
    7
 10
908.86277459310691
 20
590.24688199825857
 40
9.1165463471736849
 50
241.78254521564264
 51
271.56839226057258
  0
ARC
  8
_0-2_決定
  6
CONTINUOUS
 62
    7
 10
905.48265975773404
 20
583.73307327993427
 40
1.7815488991539126
 50
186.42378391737824
 51
238.51860066431874
  0
ARC
  8
_0-2_決定
  6
CONTINUOUS
 62
    7
 10
905.20451624453869
 20
583.48424566881147
 40
1.4930410014239324
 50
140.50922555768923
 51
178.0998729741828
  0
ARC
  8
_0-2_決定
  6
CONTINUOUS
 62
    7
 10
906.62153142336251
 20
582.28226330471023
 40
3.3510996698460009
 50
117.53604334132002
 51
140.05706085532481
  0
ARC
  8
_0-2_決定
  6
CONTINUOUS
 62
    7
 10
908.29036645895542
 20
579.14405781397431
 40
6.9053839297700526
 50
102.18974044138974
 51
117.77647260240876
  0
ARC
  8
_0-2_決定
  6
CONTINUOUS
 62
    7
 10
909.04274992835212
 20
575.84444062704631
 40
10.289545422529983
 50
89.612739125542063
 51
102.405272789447
  0
ARC
  8
_0-2_決定
  6
CONTINUOUS
 62
    7
 10
909.27656597442194
 20
577.55722275913695
 40
8.5781012776747332
 50
60.102681934538836
 51
91.097275451885935
  0
ARC
  8
_0-2_決定
  6
CONTINUOUS
 62
    7
 10
912.4776900517287
 20
583.24154423343327
 40
2.055482180819646
 50
8.1728396363391909
 51
58.479739737887847
  0
ARC
  8
_0-2_決定
  6
CONTINUOUS
 62
    7
 10
944.05258842456476
 20
606.95234808631892
 40
3.059764294910968
 50
308.37950135962086
 51
359.65175745800877
  0
ARC
  8
_0-2_決定
  6
CONTINUOUS
 62
    7
 10
945.28204745148628
 20
605.46265647680184
 40
1.1293106402821405
 50
271.53485944397596
 51
306.40595617304831
  0
ARC
  8
_0-2_決定
  6
CONTINUOUS
 62
    7
 10
945.37172732942906
 20
605.95223402162708
 40
1.6195737996004125
 50
230.99088096499841
 51
267.89702859583468
  0
ARC
  8
_0-2_決定
  6
CONTINUOUS
 62
    7
 10
946.17920570104388
 20
606.90338757049471
 40
2.8670702832106043
 50
179.39320290971509
 51
230.41633470647105
  0
ARC
  8
_0-2_決定
  6
CONTINUOUS
 62
    7
 10
946.24168655629489
 20
606.92405844651898
 40
2.9294063883109498
 50
126.66837745329177
 51
179.81042424003641
  0
ARC
  8
_0-2_決定
  6
CONTINUOUS
 62
    7
 10
945.3389353644917
 20
608.02665827776718
 40
1.5073281567364092
 50
91.012646769391111
 51
124.17220235500112
  0
ARC
  8
_0-2_決定
  6
CONTINUOUS
 62
    7
 10
945.20528251553401
 20
608.1761087297034
 40
1.3618533371220245
 50
47.101625299132508
 51
85.493082798896836
  0
ARC
  8
_0-2_決定
  6
CONTINUOUS
 62
    7
 10
944.08091231858236
 20
606.94189556839979
 40
3.031394825562634
 50
359.84606131444747
 51
47.412694146844061
  0
ARC
  8
_0-2_決定
  6
CONTINUOUS
 62
    7
 10
980.12196527378762
 20
585.26790451813622
 40
2.9910538053406421
 50
308.70477424179762
 51
1.2614388020171878
  0
ARC
  8
_0-2_決定
  6
CONTINUOUS
 62
    7
 10
981.29665584351926
 20
584.0429214400931
 40
1.3092638209326501
 50
270.68437948838198
 51
302.09470117964094
  0
ARC
  8
_0-2_決定
  6
CONTINUOUS
 62
    7
 10
981.36149402554736
 20
584.16175057418661
 40
1.4288468621511927
 50
228.37045024311612
 51
268.02673078413659
  0
ARC
  8
_0-2_決定
  6
CONTINUOUS
 62
    7
 10
982.34032790564413
 20
585.16921098764533
 40
2.8328162744506447
 50
176.67018354289519
 51
227.10892999693513
  0
ARC
  8
_0-2_決定
  6
CONTINUOUS
 62
    7
 10
982.11549973963372
 20
585.42639692310934
 40
2.6048536100317108
 50
125.24533522097605
 51
182.03824856642458
  0
ARC
  8
_0-2_決定
  6
CONTINUOUS
 62
    7
 10
981.3190388552772
 20
586.25641070344534
 40
1.4773557103333024
 50
90.261576443047232
 51
118.57996981193486
  0
ARC
  8
_0-2_決定
  6
CONTINUOUS
 62
    7
 10
981.23312471152815
 20
585.97933877076605
 40
1.7561976372394381
 50
17.032404089258602
 51
87.416227298855603
  0
ARC
  8
_0-2_決定
  6
CONTINUOUS
 62
    7
 10
979.90770570507834
 20
585.37847713888266
 40
3.2049006017279034
 50
359.20038045570357
 51
20.364433607886564
  0
ARC
  8
_0-2_決定
  6
CONTINUOUS
 62
    7
 10
948.35829578703795
 20
542.05179169078383
 40
2.3569581156333808
 50
297.10819654692114
 51
357.12932412253696
  0
ARC
  8
_0-2_決定
  6
CONTINUOUS
 62
    7
 10
947.18765104579063
 20
543.70242321903174
 40
4.369322047393748
 50
269.01180813172675
 51
300.9125023769152
  0
ARC
  8
_0-2_決定
  6
CONTINUOUS
 62
    7
 10
947.06944128900716
 20
544.04017345153261
 40
4.7066175400247081
 50
228.52525453597508
 51
270.52169941825548
  0
ARC
  8
_0-2_決定
  6
CONTINUOUS
 62
    7
 10
945.41758793268457
 20
542.02838954388608
 40
2.1074177843185615
 50
182.5738666274485
 51
225.94871507745501
  0
ARC
  8
_0-2_決定
  6
CONTINUOUS
 62
    7
 10
945.05216014586381
 20
541.89321080270963
 40
1.7403361884116588
 50
142.45472609386462
 51
178.6652042498398
  0
ARC
  8
_0-2_決定
  6
CONTINUOUS
 62
    7
 10
945.92983867556711
 20
541.22357271686474
 40
2.8442951619978767
 50
118.05081505511713
 51
142.53348045611517
  0
ARC
  8
_0-2_決定
  6
CONTINUOUS
 62
    7
 10
947.01541735320063
 20
539.14864218702132
 40
5.1860137966378783
 50
88.929607145479878
 51
117.85538836202814
  0
ARC
  8
_0-2_決定
  6
CONTINUOUS
 62
    7
 10
947.23288795922031
 20
539.86303353966446
 40
4.4723435848875956
 50
48.910194882456175
 51
91.545104052410679
  0
ARC
  8
_0-2_決定
  6
CONTINUOUS
 62
    7
 10
948.78589555149745
 20
541.89570767028533
 40
1.926776262679726
 50
1.1313534149478413
 51
43.983139854436189
  0
ARC
  8
_0-2_決定
  6
CONTINUOUS
 62
    7
 10
982.56830237244401
 20
551.07383808051657
 40
7.7442235912885309
 50
312.82265611600155
 51
0.4432713816272467
  0
ARC
  8
_0-2_決定
  6
CONTINUOUS
 62
    7
 10
984.83579536289199
 20
549.09637046418777
 40
4.7632337821397357
 50
270.92022548562511
 51
308.98295590390285
  0
ARC
  8
_0-2_決定
  6
CONTINUOUS
 62
    7
 10
985.02228735796393
 20
549.33480047477371
 40
5.0022589062229672
 50
208.1639817906117
 51
268.74003892366983
  0
ARC
  8
_0-2_決定
  6
CONTINUOUS
 62
    7
 10
987.38102910933378
 20
550.98899342095035
 40
7.8700663140735649
 50
178.94607405284003
 51
210.67659870501123
  0
ARC
  8
_0-2_決定
  6
CONTINUOUS
 62
    7
 10
986.90381677698724
 20
551.15000084031215
 40
7.3915404360937353
 50
131.64235955980703
 51
180.12596115840904
  0
ARC
  8
_0-2_決定
  6
CONTINUOUS
 62
    7
 10
985.00821501689018
 20
552.91762953053205
 40
4.8170766013211797
 50
91.140986851608787
 51
128.76219453791202
  0
ARC
  8
_0-2_決定
  6
CONTINUOUS
 62
    7
 10
984.78340698333284
 20
552.65691670317358
 40
5.0784701017054301
 50
27.39648595432498
 51
88.545726065049521
  0
ARC
  8
_0-2_決定
  6
CONTINUOUS
 62
    7
 10
982.7979288663056
 20
551.21285655062456
 40
7.5147817066581339
 50
359.39685581663053
 51
30.207140350228475
  0
ARC
  8
_0-2_決定
  6
CONTINUOUS
 62
    7
 10
901.74213886838459
 20
565.5901176470685
 40
0.97179341982334
 50
308.89295229990074
 51
356.67482458557049
  0
ARC
  8
_0-2_決定
  6
CONTINUOUS
 62
    7
 10
900.48385541865628
 20
567.14354541566661
 40
2.9708956772123152
 50
284.99034469318639
 51
308.97011674323926
  0
ARC
  8
_0-2_決定
  6
CONTINUOUS
 62
    7
 10
898.74718069408971
 20
573.25144658968395
 40
9.3206556364781488
 50
268.55596908892187
 51
285.5911062610121
  0
ARC
  8
_0-2_決定
  6
CONTINUOUS
 62
    7
 10
898.27741171192315
 20
573.25144658968759
 40
9.320655636481959
 50
254.4088937389908
 51
271.44403091108109
  0
ARC
  8
_0-2_決定
  6
CONTINUOUS
 62
    7
 10
896.38900161114066
 20
566.87507365808733
 40
2.6734257122860989
 50
227.19212602775789
 51
256.6629001005432
  0
ARC
  8
_0-2_決定
  6
CONTINUOUS
 62
    7
 10
895.20985551812373
 20
565.54563073062536
 40
0.8976379290836169
 50
180.75829825557824
 51
224.74365442989762
  0
ARC
  8
_0-2_決定
  6
CONTINUOUS
 62
    7
 10
895.11309268970422
 20
565.43842906057432
 40
0.8064498054084605
 50
123.13330836025912
 51
173.21179848638633
  0
ARC
  8
_0-2_決定
  6
CONTINUOUS
 62
    7
 10
896.62754034903571
 20
563.27569699415312
 40
3.4463793047078459
 50
102.99961589153486
 51
124.56444495490358
  0
ARC
  8
_0-2_決定
  6
CONTINUOUS
 62
    7
 10
898.34159053742496
 20
556.50467458598268
 40
10.430473414264263
 50
89.062252453507128
 51
103.80722584855377
  0
ARC
  8
_0-2_決定
  6
CONTINUOUS
 62
    7
 10
898.71903818327496
 20
557.03564563885334
 40
9.9002642560602432
 50
74.454787101873436
 51
91.196564425169896
  0
ARC
  8
_0-2_決定
  6
CONTINUOUS
 62
    7
 10
900.80588143891248
 20
564.11884597533867
 40
2.5194016060676914
 50
46.744890546023953
 51
77.007638687361521
  0
ARC
  8
_0-2_決定
  6
CONTINUOUS
 62
    7
 10
902.10013801279047
 20
565.51996893631303
 40
0.6123133149129509
 50
1.2897348071940034
 51
45.107446220224027
  0
ARC
  8
_0-2_決定
  6
CONTINUOUS
 62
    7
 10
754.72913215052984
 20
567.31691707031143
 40
4.5868247042320842
 50
272.28860565917898
 51
357.71139434081732
  0
ARC
  8
_0-2_決定
  6
CONTINUOUS
 62
    7
 10
755.09546425548251
 20
567.31691707031086
 40
4.5868247042314918
 50
182.28860565917526
 51
267.71139434081357
  0
ARC
  8
_0-2_決定
  6
CONTINUOUS
 62
    7
 10
755.09546425548228
 20
566.95058496535933
 40
4.5868247042313435
 50
92.288605659184569
 51
177.71139434082286
  0
ARC
  8
_0-2_決定
  6
CONTINUOUS
 62
    7
 10
754.72913215053018
 20
566.95058496535842
 40
4.5868247042319368
 50
2.2886056591845532
 51
87.711394340822864
  0
ARC
  8
_0-2_決定
  6
CONTINUOUS
 62
    7
 10
774.87000246030811
 20
607.96933825163376
 40
10.843542250105351
 50
345.16911754917271
 51
0.8687676371785976
  0
ARC
  8
_0-2_決定
  6
CONTINUOUS
 62
    7
 10
782.61844894739454
 20
605.76067564564153
 40
2.7920127660925704
 50
318.58540418928339
 51
348.28449345653013
  0
ARC
  8
_0-2_決定
  6
CONTINUOUS
 62
    7
 10
784.29908104787069
 20
604.29756691813577
 40
0.5639707994409385
 50
271.34290028225735
 51
317.11259035369164
  0
ARC
  8
_0-2_決定
  6
CONTINUOUS
 62
    7
 10
784.42062763583294
 20
604.53172752056969
 40
0.8052960728412952
 50
211.26751477121132
 51
262.26906309280827
  0
ARC
  8
_0-2_決定
  6
CONTINUOUS
 62
    7
 10
786.91092164675979
 20
606.11626047096092
 40
3.7568192805932754
 50
191.71050118858724
 51
212.21062685159364
  0
ARC
  8
_0-2_決定
  6
CONTINUOUS
 62
    7
 10
794.24742239271131
 20
608.03009624830713
 40
11.335598118638881
 50
179.47606967651831
 51
193.65652756500083
  0
ARC
  8
_0-2_決定
  6
CONTINUOUS
 62
    7
 10
793.7326150484455
 20
608.40861419654266
 40
10.823807389394462
 50
165.52694359748153
 51
181.45514352150573
  0
ARC
  8
_0-2_決定
  6
CONTINUOUS
 62
    7
 10
785.86738974179957
 20
610.55231105549763
 40
2.6746810253892983
 50
138.23797085437874
 51
167.88297301802655
  0
ARC
  8
_0-2_決定
  6
CONTINUOUS
 62
    7
 10
784.33145971087606
 20
611.90759570052091
 40
0.6264484374507759
 50
91.752809538658639
 51
137.1351000221577
  0
ARC
  8
_0-2_決定
  6
CONTINUOUS
 62
    7
 10
784.22119553540426
 20
611.73975227558753
 40
0.7992081698374699
 50
32.890547070025164
 51
83.454559776620229
  0
ARC
  8
_0-2_決定
  6
CONTINUOUS
 62
    7
 10
781.96034750167541
 20
610.20324744021968
 40
3.5325938436833999
 50
12.266033915331741
 51
33.904233430241845
  0
ARC
  8
_0-2_決定
  6
CONTINUOUS
 62
    7
 10
774.27668103791802
 20
608.34315344707943
 40
11.437534232684747
 50
358.95094995603984
 51
13.193962858389385
  0
ARC
  8
_0-2_決定
  6
CONTINUOUS
 62
    7
 10
812.01883557376254
 20
562.49055593955381
 40
9.2823468478554148
 50
60.054943106213869
 51
76.965859296593308
  0
ARC
  8
_0-2_決定
  6
CONTINUOUS
 62
    7
 10
815.11078999695087
 20
567.62663166293328
 40
3.2905304272991658
 50
35.42087352274747
 51
62.065103068589686
  0
ARC
  8
_0-2_決定
  6
CONTINUOUS
 62
    7
 10
817.16141728914204
 20
569.09557483506217
 40
0.768120494862109
 50
347.83808566804458
 51
34.781779279974955
  0
ARC
  8
_0-2_決定
  6
CONTINUOUS
 62
    7
 10
817.20845211850838
 20
569.18776432339723
 40
0.7482794064153557
 50
287.40642090515036
 51
340.15582862464305
  0
ARC
  8
_0-2_決定
  6
CONTINUOUS
 62
    7
 10
816.36345258277061
 20
571.82451597972351
 40
3.5171091523750757
 50
266.55810103555461
 51
287.69193166224267
  0
ARC
  8
_0-2_決定
  6
CONTINUOUS
 62
    7
 10
816.57443612180236
 20
580.98011218302543
 40
12.673393609824178
 50
255.0841269451339
 51
268.09118247401295
  0
ARC
  8
_0-2_決定
  6
CONTINUOUS
 62
    7
 10
817.03044839600523
 20
580.37058429640672
 40
12.216404119501645
 50
236.41297597097318
 51
252.28050605935144
  0
ARC
  8
_0-2_決定
  6
CONTINUOUS
 62
    7
 10
810.89699308295621
 20
571.43354760446846
 40
1.3882864507238846
 50
184.12224666326674
 51
243.25788838871921
  0
ARC
  8
_0-2_決定
  6
CONTINUOUS
 62
    7
 10
810.31329155565368
 20
571.0211179310819
 40
0.8598428914155551
 50
109.07443019228556
 51
158.67896437961616
  0
ARC
  8
_0-2_決定
  6
CONTINUOUS
 62
    7
 10
811.20416534349999
 20
568.52980131867957
 40
3.5056178071087727
 50
88.2323973407171
 51
109.52892096034743
  0
ARC
  8
_0-2_決定
  6
CONTINUOUS
 62
    7
 10
811.33177537027359
 20
564.05282315453269
 40
7.9809516299299705
 50
69.61082867861046
 51
90.139828010589468
  0
ARC
  8
_0-2_決定
  6
CONTINUOUS
 62
    7
 10
747.55971671775933
 20
535.36488853382264
 40
2.3527875360147825
 50
299.33263672563419
 51
359.2417078440576
  0
ARC
  8
_0-2_決定
  6
CONTINUOUS
 62
    7
 10
746.59783349197505
 20
536.87172061140143
 40
4.1388535420984898
 50
268.81581700550896
 51
300.72258005507456
  0
ARC
  8
_0-2_決定
  6
CONTINUOUS
 62
    7
 10
746.36862043167389
 20
537.02948278136068
 40
4.298133860891447
 50
227.63464424043983
 51
271.91563689722597
  0
ARC
  8
_0-2_決定
  6
CONTINUOUS
 62
    7
 10
745.12042119257421
 20
535.32331106794209
 40
2.2081476693402928
 50
179.72910901567226
 51
221.72200871547693
  0
ARC
  8
_0-2_決定
  6
CONTINUOUS
 62
    7
 10
745.26629861897504
 20
535.21571034488466
 40
2.3569581156338435
 50
117.10819654690377
 51
177.12932412251956
  0
ARC
  8
_0-2_決定
  6
CONTINUOUS
 62
    7
 10
746.43694336022259
 20
533.56507881663879
 40
4.3693220473927488
 50
89.011808131730291
 51
120.91250237691874
  0
ARC
  8
_0-2_決定
  6
CONTINUOUS
 62
    7
 10
746.52616619251467
 20
534.00723214530342
 40
3.9265433624853174
 50
44.384897400965045
 51
90.202360918427985
  0
ARC
  8
_0-2_決定
  6
CONTINUOUS
 62
    7
 10
747.69876544443434
 20
535.25808270799598
 40
2.214825719189438
 50
1.9578599814295532
 51
42.477328557595143
  0
ARC
  8
_0-2_決定
  6
CONTINUOUS
 62
    7
 10
801.65019668043192
 20
699.39585054040913
 40
7.6665831339898203
 50
271.95918281513173
 51
358.04081718486606
  0
ARC
  8
_0-2_決定
  6
CONTINUOUS
 62
    7
 10
802.19141070421097
 20
699.41286151903932
 40
7.6841832743947567
 50
182.08161184767636
 51
267.91838815232143
  0
ARC
  8
_0-2_決定
  6
CONTINUOUS
 62
    7
 10
801.84495638719852
 20
699.00018366185941
 40
7.3338745387768514
 50
89.473885729555931
 51
178.95646506446394
  0
ARC
  8
_0-2_決定
  6
CONTINUOUS
 62
    7
 10
801.9630172095907
 20
698.98309910793523
 40
7.3508248867413508
 50
1.174318325285038
 51
90.395330880699476
  0
ARC
  8
_0-2_決定
  6
CONTINUOUS
 62
    7
 10
1086.920986843628
 20
591.44222418807465
 40
5.6101996334766877
 50
322.84420314905509
 51
38.488196791308091
  0
ARC
  8
_0-2_決定
  6
CONTINUOUS
 62
    7
 10
1081.3541389794818
 20
594.94891023830019
 40
12.178168210660012
 50
301.0325809395361
 51
325.51501976283834
  0
ARC
  8
_0-2_決定
  6
CONTINUOUS
 62
    7
 10
1075.3640830268778
 20
603.80260550349112
 40
22.859766246200163
 50
277.41004407489049
 51
302.45741721894433
  0
ARC
  8
_0-2_決定
  6
CONTINUOUS
 62
    7
 10
1068.6398403278474
 20
602.88357547042642
 40
23.803596948478653
 50
266.94754495681252
 51
293.97538992496959
  0
ARC
  8
_0-2_決定
  6
CONTINUOUS
 62
    7
 10
1068.2954269787847
 20
590.84765511320973
 40
11.770160552905484
 50
240.79472300569867
 51
265.5016766900207
  0
ARC
  8
_0-2_決定
  6
CONTINUOUS
 62
    7
 10
1065.5088600127328
 20
585.34176143211346
 40
5.6102767042193822
 50
175.99348409760901
 51
238.19762088989711
  0
ARC
  8
_0-2_決定
  6
CONTINUOUS
 62
    7
 10
1064.1589620019427
 20
589.04138311033489
 40
5.3828075809798186
 50
159.64460576647949
 51
217.91420645586561
  0
ARC
  8
_0-2_決定
  6
CONTINUOUS
 62
    7
 10
1067.4984889844354
 20
587.71580799410037
 40
8.9752494391583753
 50
129.97513473354647
 51
159.12643938086043
  0
ARC
  8
_0-2_決定
  6
CONTINUOUS
 62
    7
 10
1073.5351865559096
 20
581.36495676036316
 40
17.728769427141255
 50
111.37943850228837
 51
131.73973364037437
  0
ARC
  8
_0-2_決定
  6
CONTINUOUS
 62
    7
 10
1076.8833804344536
 20
573.99401557330077
 40
25.816645365767773
 50
98.399354998206775
 51
112.33550853106959
  0
ARC
  8
_0-2_決定
  6
CONTINUOUS
 62
    7
 10
1082.6931086498262
 20
578.34116180062585
 40
23.257640533677836
 50
87.340444424255509
 51
114.32692859786317
  0
ARC
  8
_0-2_決定
  6
CONTINUOUS
 62
    7
 10
1082.9097412422095
 20
589.59487257454191
 40
12.009892854200203
 50
61.543813669926443
 51
85.881459540830392
  0
ARC
  8
_0-2_決定
  6
CONTINUOUS
 62
    7
 10
1085.8442428347707
 20
595.42436832303258
 40
5.4900174048741546
 50
354.87290302418489
 51
59.47992870515921
  0
ARC
  8
_0-2_決定
  6
CONTINUOUS
 62
    7
 10
1137.6372451144528
 20
649.80892793037071
 40
27.885864850843831
 50
283.84937637036762
 51
301.03060281408432
  0
ARC
  8
_0-2_決定
  6
CONTINUOUS
 62
    7
 10
1149.4820221896289
 20
629.97551857329324
 40
4.7854176427113808
 50
301.92076021975578
 51
323.57008984836733
  0
ARC
  8
_0-2_決定
  6
CONTINUOUS
 62
    7
 10
1152.5351727988682
 20
627.73335288376597
 40
0.9974576392419296
 50
323.04911796600584
 51
11.590115050378753
  0
ARC
  8
_0-2_決定
  6
CONTINUOUS
 62
    7
 10
1152.3459333984567
 20
627.56193667304569
 40
1.224189024596003
 50
17.681352119007816
 51
59.226066314402409
  0
ARC
  8
_0-2_決定
  6
CONTINUOUS
 62
    7
 10
1151.0888310216239
 20
625.38368512181455
 40
3.7390843417082431
 50
59.753409495559659
 51
80.712253150859155
  0
ARC
  8
_0-2_決定
  6
CONTINUOUS
 62
    7
 10
1149.5621176841985
 20
617.96169169588961
 40
11.314393746684452
 50
79.148089270143444
 51
91.163909979701259
  0
ARC
  8
_0-2_決定
  6
CONTINUOUS
 62
    7
 10
1149.8810600009169
 20
603.13216669593669
 40
26.14734359270421
 50
91.202584398108925
 51
105.45724051765828
  0
ARC
  8
_0-2_決定
  6
CONTINUOUS
 62
    7
 10
1148.9418980221017
 20
602.686434029937
 40
26.346556037011311
 50
103.22981481161834
 51
120.89889105669474
  0
ARC
  8
_0-2_決定
  6
CONTINUOUS
 62
    7
 10
1138.3632005394115
 20
620.60718619960323
 40
5.5382081764186442
 50
122.19668177242571
 51
141.77774321915618
  0
ARC
  8
_0-2_決定
  6
CONTINUOUS
 62
    7
 10
1135.085850061419
 20
623.15005342008624
 40
1.3904847786395198
 50
140.54054555490788
 51
188.94921703901414
  0
ARC
  8
_0-2_決定
  6
CONTINUOUS
 62
    7
 10
1134.8203872768886
 20
623.28946516919314
 40
1.1637900370078667
 50
197.79736300214427
 51
240.78145072285105
  0
ARC
  8
_0-2_決定
  6
CONTINUOUS
 62
    7
 10
1136.0614042195284
 20
625.4548041568089
 40
3.6595061635829937
 50
240.37246926113156
 51
261.68671512189826
  0
ARC
  8
_0-2_決定
  6
CONTINUOUS
 62
    7
 10
1137.2983967787109
 20
633.30047434002813
 40
11.601933852597943
 50
261.24410837891452
 51
272.93421596874953
  0
ARC
  8
_0-2_決定
  6
CONTINUOUS
 62
    7
 10
1136.5997361183986
 20
650.56336872683346
 40
28.87855853721279
 50
272.56532047782235
 51
285.48990542360866
  0
ARC
  8
_0-2_決定
  6
CONTINUOUS
 62
    7
 10
1019.8097249455276
 20
676.30731039603972
 40
9.8502313293528747
 50
154.59144639061546
 51
171.32068573675207
  0
ARC
  8
_0-2_決定
  6
CONTINUOUS
 62
    7
 10
1012.8837076010115
 20
677.23988498391918
 40
2.8654512144772508
 50
168.85513282254891
 51
197.59391239047605
  0
ARC
  8
_0-2_決定
  6
CONTINUOUS
 62
    7
 10
1010.8895658961995
 20
676.609698584993
 40
0.7741070648342598
 50
197.74626657493624
 51
240.83254715005239
  0
ARC
  8
_0-2_決定
  6
CONTINUOUS
 62
    7
 10
1010.6209138603344
 20
676.98124474706583
 40
1.053112307740911
 50
264.07989497865418
 51
308.20878258189202
  0
ARC
  8
_0-2_決定
  6
CONTINUOUS
 62
    7
 10
1008.7254329490167
 20
679.67182447847961
 40
4.343196656135448
 50
305.90213011309214
 51
325.21037434104284
  0
ARC
  8
_0-2_決定
  6
CONTINUOUS
 62
    7
 10
1004.5086137476426
 20
682.73994139199488
 40
9.5575065410603326
 50
324.52856524524742
 51
340.3992885384784
  0
ARC
  8
_0-2_決定
  6
CONTINUOUS
 62
    7
 10
1004.6148634604839
 20
683.76018763963179
 40
9.8502313293543828
 50
334.59144639060628
 51
351.32068573674286
  0
ARC
  8
_0-2_決定
  6
CONTINUOUS
 62
    7
 10
1011.5408808050012
 20
682.82761305174915
 40
2.8654512144767446
 50
348.85513282257244
 51
17.593912390499597
  0
ARC
  8
_0-2_決定
  6
CONTINUOUS
 62
    7
 10
1013.5350225098131
 20
683.45779945067738
 40
0.77410706483377
 50
17.746266574891894
 51
60.832547150008068
  0
ARC
  8
_0-2_決定
  6
CONTINUOUS
 62
    7
 10
1013.640974835501
 20
683.45826206039817
 40
0.727940127243024
 50
68.116405954130215
 51
122.27245186134385
  0
ARC
  8
_0-2_決定
  6
CONTINUOUS
 62
    7
 10
1014.815897423224
 20
681.5728968600431
 40
2.9494264773690269
 50
122.01478321663491
 51
145.25736172008868
  0
ARC
  8
_0-2_決定
  6
CONTINUOUS
 62
    7
 10
1022.1638875720873
 20
676.17420556701313
 40
12.06664710856929
 50
144.07657790119592
 51
158.82063835289767
  0
ARC
  8
_0-2_決定
  6
CONTINUOUS
 62
    7
 10
1216.1643137323854
 20
610.37818390769485
 40
8.1557330220843429
 50
2.4987274517052227
 51
90.365464916623552
  0
ARC
  8
_0-2_決定
  6
CONTINUOUS
 62
    7
 10
1216.3167784228381
 20
610.10852191493552
 40
8.4277102495543446
 50
91.390335798956244
 51
175.74547183271898
  0
ARC
  8
_0-2_決定
  6
CONTINUOUS
 62
    7
 10
1216.0265394878274
 20
611.05385713777434
 40
8.120558904856372
 50
182.25914042067984
 51
270.60505194764283
  0
ARC
  8
_0-2_決定
  6
CONTINUOUS
 62
    7
 10
1215.8532763488101
 20
611.41630614660448
 40
8.4865087477329162
 50
271.74899015980532
 51
355.38681747186797
  0
ARC
  8
_0-2_決定
  6
CONTINUOUS
 62
    7
 10
1081.9726291233314
 20
691.50543945509207
 40
26.669625954931785
 50
146.58148503545635
 51
156.51447435209499
  0
ARC
  8
_0-2_決定
  6
CONTINUOUS
 62
    7
 10
1065.78816907533
 20
702.47247757617833
 40
7.1248941470464766
 50
129.95887430454789
 51
148.5139152935898
  0
ARC
  8
_0-2_決定
  6
CONTINUOUS
 62
    7
 10
1061.7269385592203
 20
707.45749377108552
 40
0.701197456811789
 50
74.672166932646277
 51
137.21862486917485
  0
ARC
  8
_0-2_決定
  6
CONTINUOUS
 62
    7
 10
1061.5791644895785
 20
707.69064789918048
 40
0.554359096003097
 50
356.18349478139334
 51
53.063634790915231
  0
ARC
  8
_0-2_決定
  6
CONTINUOUS
 62
    7
 10
1055.9840302935827
 20
707.49868042252865
 40
6.1502191318011334
 50
346.02823810608726
 51
1.4447806652226307
  0
ARC
  8
_0-2_決定
  6
CONTINUOUS
 62
    7
 10
1035.5489810488866
 20
711.73292885499086
 40
27.015624433358134
 50
336.43818050931634
 51
347.77806523229043
  0
ARC
  8
_0-2_決定
  6
CONTINUOUS
 62
    7
 10
1035.969521406043
 20
711.01015905847191
 40
26.345865458390811
 50
327.75546727677107
 51
337.51345487655544
  0
ARC
  8
_0-2_決定
  6
CONTINUOUS
 62
    7
 10
1050.6346537924514
 20
701.47295339000129
 40
8.8572938069103007
 50
312.79673060553705
 51
329.32124484241302
  0
ARC
  8
_0-2_決定
  6
CONTINUOUS
 62
    7
 10
1056.1816687091577
 20
695.30515637899293
 40
0.5756033308537136
 50
263.07760577411938
 51
324.84737217506495
  0
ARC
  8
_0-2_決定
  6
CONTINUOUS
 62
    7
 10
1056.5930617932027
 20
695.37727596414948
 40
0.8032835155889357
 50
184.53592118653978
 51
233.23724234721334
  0
ARC
  8
_0-2_決定
  6
CONTINUOUS
 62
    7
 10
1060.7429758869603
 20
695.89203414703229
 40
4.9843417646153867
 50
168.87516940616007
 51
186.66248137779826
  0
ARC
  8
_0-2_決定
  6
CONTINUOUS
 62
    7
 10
1078.1203733322832
 20
692.75374686734176
 40
22.642379860381148
 50
155.52680391821747
 51
169.56753276238524
  0
CIRCLE
  8
_0-2_決定
  6
CONTINUOUS
 62
    7
 10
1179.1922922030062
 20
613.5337510178349
 40
7.3399999999999999
  0
ARC
  8
_0-2_決定
  6
CONTINUOUS
 62
    7
 10
1089.7244409532163
 20
639.35439611849301
 40
8.718794545442206
 50
315.96288467159002
 51
15.836878658385153
  0
ARC
  8
_0-2_決定
  6
CONTINUOUS
 62
    7
 10
1087.6390782177566
 20
640.84554763226288
 40
11.260808851457739
 50
287.9648796029154
 51
317.88456465728416
  0
ARC
  8
_0-2_決定
  6
CONTINUOUS
 62
    7
 10
1087.5078817951203
 20
640.96290325809207
 40
11.413252255548947
 50
237.71847212951479
 51
288.40968376336934
  0
ARC
  8
_0-2_決定
  6
CONTINUOUS
 62
    7
 10
1086.0675843142762
 20
637.85865712325074
 40
8.0316574845292408
 50
199.83244777885781
 51
234.57634817992431
  0
ARC
  8
_0-2_決定
  6
CONTINUOUS
 62
    7
 10
1086.9001454527972
 20
637.51310591717595
 40
8.7187945454427567
 50
135.96288467158323
 51
195.83687865837837
  0
ARC
  8
_0-2_決定
  6
CONTINUOUS
 62
    7
 10
1088.9855091882555
 20
636.0219506608679
 40
11.260812103097987
 50
107.96486888962302
 51
137.88455394399176
  0
ARC
  8
_0-2_決定
  6
CONTINUOUS
 62
    7
 10
1089.1167056108925
 20
635.90460088874272
 40
11.413249936618124
 50
57.718470713357888
 51
108.40968234721242
  0
ARC
  8
_0-2_決定
  6
CONTINUOUS
 62
    7
 10
1090.5570020917362
 20
639.00884491241902
 40
8.0316574845292408
 50
19.832447778857819
 51
54.57634817992431
  0
ARC
  8
_0-2_決定
  6
CONTINUOUS
 62
    7
 10
1112.3105149491983
 20
554.30816008125112
 40
3.4888103820678134
 50
347.1752696991976
 51
37.122913515691025
  0
ARC
  8
_0-2_決定
  6
CONTINUOUS
 62
    7
 10
1108.0765364476758
 20
551.82190752913823
 40
8.3848587014411642
 50
33.204926274414646
 51
47.397712690976903
  0
ARC
  8
_0-2_決定
  6
CONTINUOUS
 62
    7
 10
1102.7846846281761
 20
546.02557175196876
 40
16.233475624627562
 50
47.497939526739728
 51
68.734932724045564
  0
ARC
  8
_0-2_決定
  6
CONTINUOUS
 62
    7
 10
1098.9980963979838
 20
538.28458732206468
 40
24.83120441335565
 50
67.070491282729364
 51
73.83240985254956
  0
ARC
  8
_0-2_決定
  6
CONTINUOUS
 62
    7
 10
1100.6303612163747
 20
542.12404124402076
 40
20.695102806698653
 50
75.213015211997046
 51
95.206723343281524
  0
ARC
  8
_0-2_決定
  6
CONTINUOUS
 62
    7
 10
1099.659198485876
 20
553.10120077786519
 40
9.6751487395000826
 50
95.378552725430225
 51
122.13876442931263
  0
ARC
  8
_0-2_決定
  6
CONTINUOUS
 62
    7
 10
1096.6231681539512
 20
558.30598391001706
 40
3.6582155660013749
 50
125.24141664603304
 51
163.68322777002285
  0
ARC
  8
_0-2_決定
  6
CONTINUOUS
 62
    7
 10
1096.0748243190251
 20
558.60375101783472
 40
3.0511448160189314
 50
166.15745792574322
 51
193.84254207425678
  0
ARC
  8
_0-2_決定
  6
CONTINUOUS
 62
    7
 10
1097.7888961481021
 20
558.99806143287617
 40
4.8098523534771962
 50
193.51804200751863
 51
212.49969815813878
  0
ARC
  8
_0-2_決定
  6
CONTINUOUS
 62
    7
 10
1100.8190935559048
 20
560.98781329238795
 40
8.4347359626569141
 50
212.8395791166005
 51
227.05268459437352
  0
ARC
  8
_0-2_決定
  6
CONTINUOUS
 62
    7
 10
1105.5748539594442
 20
565.97197379886165
 40
15.323502833191258
 50
226.73378495896191
 51
248.71492641188257
  0
ARC
  8
_0-2_決定
  6
CONTINUOUS
 62
    7
 10
1108.2515302001566
 20
571.72290746756266
 40
21.657611845754335
 50
247.63958600642201
 51
255.72776561335928
  0
ARC
  8
_0-2_決定
  6
CONTINUOUS
 62
    7
 10
1108.3088591784917
 20
571.42452481629994
 40
21.382961803738514
 50
255.38178664992353
 51
275.32227196730065
  0
ARC
  8
_0-2_決定
  6
CONTINUOUS
 62
    7
 10
1109.3546480035839
 20
559.21854432974192
 40
9.1330524012940373
 50
275.89264987067196
 51
303.6262915997454
  0
ARC
  8
_0-2_決定
  6
CONTINUOUS
 62
    7
 10
1112.2106051205117
 20
554.50458081327281
 40
3.633775297870951
 50
307.29328875908556
 51
344.50416285244728
  0
ARC
  8
_0-2_決定
  6
CONTINUOUS
 62
    7
 10
1153.5698895017795
 20
522.6708451127397
 40
9.5426100578883108
 50
344.20731390937846
 51
0.3777146446680776
  0
ARC
  8
_0-2_決定
  6
CONTINUOUS
 62
    7
 10
1159.0507555375193
 20
520.94114533209176
 40
3.8018078742584294
 50
322.63288690481488
 51
346.81166862409151
  0
ARC
  8
_0-2_決定
  6
CONTINUOUS
 62
    7
 10
1161.4683844378271
 20
519.08838084617037
 40
0.755904128273611
 50
273.32998112179399
 51
323.02719909804688
  0
ARC
  8
_0-2_決定
  6
CONTINUOUS
 62
    7
 10
1161.6206216358319
 20
519.13172952056959
 40
0.8052960728409335
 50
211.2675147712506
 51
262.26906309284755
  0
ARC
  8
_0-2_決定
  6
CONTINUOUS
 62
    7
 10
1164.1109156467605
 20
520.71626247095969
 40
3.7568192805937168
 50
191.71050118857141
 51
212.21062685157781
  0
ARC
  8
_0-2_決定
  6
CONTINUOUS
 62
    7
 10
1171.4474163927116
 20
522.63009824830374
 40
11.335598118638483
 50
179.476069676501
 51
193.65652756498349
  0
ARC
  8
_0-2_決定
  6
CONTINUOUS
 62
    7
 10
1170.9545879457032
 20
522.89816578403713
 40
10.843542250104193
 50
165.16911754917751
 51
180.8687676371834
  0
ARC
  8
_0-2_決定
  6
CONTINUOUS
 62
    7
 10
1163.2061376869779
 20
525.10682739002857
 40
2.7920092760766213
 50
138.58536837938365
 51
168.28445764663039
  0
ARC
  8
_0-2_決定
  6
CONTINUOUS
 62
    7
 10
1161.5255093581418
 20
526.5699351175341
 40
0.5639707994410885
 50
91.342900282291183
 51
137.11259035372549
  0
ARC
  8
_0-2_決定
  6
CONTINUOUS
 62
    7
 10
1161.3798725231463
 20
526.26098050873179
 40
0.8827589326507058
 50
33.932695563521293
 51
81.372690058743785
  0
ARC
  8
_0-2_決定
  6
CONTINUOUS
 62
    7
 10
1159.0037543772235
 20
524.48446052149029
 40
3.8487265229282541
 50
15.51181976610312
 51
36.130164182226011
  0
ARC
  8
_0-2_決定
  6
CONTINUOUS
 62
    7
 10
1153.7395598620838
 20
522.80393541482204
 40
9.3729950978021765
 50
359.5709810282122
 51
16.804622995628481
  0
ARC
  8
_0-2_決定
  6
CONTINUOUS
 62
    7
 10
1209.1580819201238
 20
584.25455764610558
 40
3.7550454642031754
 50
1.2084493885683771
 51
49.590169753002847
  0
ARC
  8
_0-2_決定
  6
CONTINUOUS
 62
    7
 10
1207.323169162642
 20
582.31234902966696
 40
6.424863623902799
 50
48.358394616630406
 51
91.88090065408764
  0
ARC
  8
_0-2_決定
  6
CONTINUOUS
 62
    7
 10
1207.0234569172549
 20
581.26137930367815
 40
7.4728997546147866
 50
89.318871254673255
 51
122.64537666468496
  0
ARC
  8
_0-2_決定
  6
CONTINUOUS
 62
    7
 10
1205.3846694239951
 20
583.99813947266136
 40
4.285538732490461
 50
123.93446052165163
 51
175.50842130829733
  0
ARC
  8
_0-2_決定
  6
CONTINUOUS
 62
    7
 10
1204.8776384580701
 20
584.36480723415946
 40
3.7654743272391498
 50
180.47255940217818
 51
228.29106435162993
  0
ARC
  8
_0-2_決定
  6
CONTINUOUS
 62
    7
 10
1206.6722930918168
 20
586.39079065546332
 40
6.4720136047257224
 50
228.36374715431646
 51
273.89825393555242
  0
ARC
  8
_0-2_決定
  6
CONTINUOUS
 62
    7
 10
1207.2180238268861
 20
587.1445388204146
 40
7.2115629311629617
 50
269.15993343995399
 51
303.25206393804444
  0
ARC
  8
_0-2_決定
  6
CONTINUOUS
 62
    7
 10
1208.7745150783671
 20
584.48956847028091
 40
4.1407099163887837
 50
305.3854334650843
 51
357.84341551313935
  0
ARC
  8
_0-2_決定
  6
CONTINUOUS
 62
    7
 10
1160.0594535029825
 20
547.6169495800674
 40
1.455218983192569
 50
317.49642900478756
 51
356.72246768270554
  0
ARC
  8
_0-2_決定
  6
CONTINUOUS
 62
    7
 10
1158.4731158849418
 20
548.97610089240357
 40
3.5437016840365976
 50
296.82537731998855
 51
318.62461276428047
  0
ARC
  8
_0-2_決定
  6
CONTINUOUS
 62
    7
 10
1156.2319144893895
 20
553.69553657311576
 40
8.7676133880711156
 50
267.91082637101852
 51
295.97752800587267
  0
ARC
  8
_0-2_決定
  6
CONTINUOUS
 62
    7
 10
1155.7480224315914
 20
553.51027927653297
 40
8.5781012776749996
 50
240.10268193453194
 51
271.097275451879
  0
ARC
  8
_0-2_決定
  6
CONTINUOUS
 62
    7
 10
1152.5468983542833
 20
547.82595780223664
 40
2.0554821808193666
 50
188.17283963634429
 51
238.47973973789294
  0
ARC
  8
_0-2_決定
  6
CONTINUOUS
 62
    7
 10
1151.9071458854937
 20
547.50051209505568
 40
1.3952496627973276
 50
139.11564369058016
 51
178.63491801726906
  0
ARC
  8
_0-2_決定
  6
CONTINUOUS
 62
    7
 10
1153.1547253721305
 20
546.31309989282681
 40
3.1167184100075502
 50
114.29715180379957
 51
137.62388258950293
  0
ARC
  8
_0-2_決定
  6
CONTINUOUS
 62
    7
 10
1154.9527715427371
 20
542.63293653798917
 40
7.2118218532541398
 50
100.06583245673055
 51
115.28638494056923
  0
ARC
  8
_0-2_決定
  6
CONTINUOUS
 62
    7
 10
1155.8723700627172
 20
537.95588677503565
 40
11.977930772725765
 50
89.80903426258854
 51
100.48673538567569
  0
ARC
  8
_0-2_決定
  6
CONTINUOUS
 62
    7
 10
1156.1500076019724
 20
540.26904146344248
 40
9.6676325634390636
 50
62.109984203603915
 51
91.408975966019781
  0
ARC
  8
_0-2_決定
  6
CONTINUOUS
 62
    7
 10
1159.7822309962016
 20
547.31402335086932
 40
1.7439587228257882
 50
7.238139505025682
 51
59.311636464651947
  0
ARC
  8
_0-2_決定
  6
CONTINUOUS
 62
    7
 10
1190.9219632737882
 20
570.86790451813761
 40
2.9910538053408944
 50
308.70477424177272
 51
1.2614388019923011
  0
ARC
  8
_0-2_決定
  6
CONTINUOUS
 62
    7
 10
1192.0966538435187
 20
569.64292144009119
 40
1.3092638209307839
 50
270.6843794884299
 51
302.09470117968891
  0
ARC
  8
_0-2_決定
  6
CONTINUOUS
 62
    7
 10
1192.1614920255474
 20
569.7617505741872
 40
1.4288468621518153
 50
228.37045024314421
 51
268.02673078416473
  0
ARC
  8
_0-2_決定
  6
CONTINUOUS
 62
    7
 10
1193.1403259056447
 20
570.76921098764456
 40
2.8328162744507051
 50
176.67018354288015
 51
227.1089299969201
  0
ARC
  8
_0-2_決定
  6
CONTINUOUS
 62
    7
 10
1192.9154977396342
 20
571.02639692310913
 40
2.604853610031443
 50
125.24533522097309
 51
182.03824856642166
  0
ARC
  8
_0-2_決定
  6
CONTINUOUS
 62
    7
 10
1192.1190368552784
 20
571.85641070344536
 40
1.4773557103334467
 50
90.261576443069032
 51
118.57996981195666
  0
ARC
  8
_0-2_決定
  6
CONTINUOUS
 62
    7
 10
1192.033122711528
 20
571.57933877076641
 40
1.7561976372391994
 50
17.03240408924238
 51
87.416227298839388
  0
ARC
  8
_0-2_決定
  6
CONTINUOUS
 62
    7
 10
1190.707703705079
 20
570.97847713888098
 40
3.2049006017274047
 50
359.20038045573318
 51
20.364433607916176
  0
ARC
  8
_0-2_決定
  6
CONTINUOUS
 62
    7
 10
1227.5090846663788
 20
549.04110511256033
 40
2.6048536100317108
 50
305.24533522097602
 51
2.0382485664245662
  0
ARC
  8
_0-2_決定
  6
CONTINUOUS
 62
    7
 10
1228.3055465507357
 20
548.21108736839517
 40
1.477351751111081
 50
270.26161592722536
 51
298.58000929611302
  0
ARC
  8
_0-2_決定
  6
CONTINUOUS
 62
    7
 10
1228.3914616944844
 20
548.48816326490385
 40
1.756197637239828
 50
197.03240408926845
 51
267.41622729886546
  0
ARC
  8
_0-2_決定
  6
CONTINUOUS
 62
    7
 10
1229.7168807009336
 20
549.08902489678701
 40
3.2049006017279034
 50
179.20038045570357
 51
200.36443360788658
  0
ARC
  8
_0-2_決定
  6
CONTINUOUS
 62
    7
 10
1229.5026211322242
 20
549.19959751753288
 40
2.9910538053409135
 50
128.70477424178645
 51
181.26143880200607
  0
ARC
  8
_0-2_決定
  6
CONTINUOUS
 62
    7
 10
1228.3279305624933
 20
550.42458059557657
 40
1.3092638209326501
 50
90.684379488381978
 51
122.09470117964094
  0
ARC
  8
_0-2_決定
  6
CONTINUOUS
 62
    7
 10
1228.2630913804655
 20
550.30575423481514
 40
1.4288441248970938
 50
48.370406338238318
 51
88.026686879258804
  0
ARC
  8
_0-2_決定
  6
CONTINUOUS
 62
    7
 10
1227.284256500368
 20
549.29829104802457
 40
2.8328162744509546
 50
356.67018354289269
 51
47.108929996932602
  0
ARC
  8
_0-2_決定
  6
CONTINUOUS
 62
    7
 10
1195.1582917870378
 20
520.45179369078403
 40
2.3569581156331418
 50
297.10819654691738
 51
357.12932412253321
  0
ARC
  8
_0-2_決定
  6
CONTINUOUS
 62
    7
 10
1193.9876470457898
 20
522.10242521903103
 40
4.369322047392882
 50
269.01180813173687
 51
300.91250237692532
  0
ARC
  8
_0-2_決定
  6
CONTINUOUS
 62
    7
 10
1193.8561343260449
 20
521.99724398909075
 40
4.263860805552131
 50
226.70723505642482
 51
270.75464526513065
  0
ARC
  8
_0-2_決定
  6
CONTINUOUS
 62
    7
 10
1192.4979676568914
 20
520.42133550492372
 40
2.187429514695252
 50
182.29467901768282
 51
224.29444749007419
  0
ARC
  8
_0-2_決定
  6
CONTINUOUS
 62
    7
 10
1192.4427747626196
 20
520.23804458971347
 40
2.1326312480198428
 50
113.50286621336021
 51
177.42781064384087
  0
ARC
  8
_0-2_決定
  6
CONTINUOUS
 62
    7
 10
1193.7941902506741
 20
517.98745029452368
 40
4.7477718576673098
 50
88.574606853587227
 51
117.63097302894892
  0
ARC
  8
_0-2_決定
  6
CONTINUOUS
 62
    7
 10
1194.0328839592194
 20
518.26303553966522
 40
4.4723435848869926
 50
48.910194882448074
 51
91.545104052402579
  0
ARC
  8
_0-2_決定
  6
CONTINUOUS
 62
    7
 10
1195.5858915514978
 20
520.29570967028553
 40
1.9267762626793672
 50
1.1313534149522748
 51
43.983139854440623
  0
ARC
  8
_0-2_決定
  6
CONTINUOUS
 62
    7
 10
1229.9207676290252
 20
514.91750319535765
 40
7.3915404360937353
 50
311.64235955980706
 51
0.1259611584090225
  0
ARC
  8
_0-2_決定
  6
CONTINUOUS
 62
    7
 10
1231.8163693891222
 20
513.14987450513695
 40
4.8170766013203519
 50
271.14098685161235
 51
308.7621945379156
  0
ARC
  8
_0-2_決定
  6
CONTINUOUS
 62
    7
 10
1232.0411784226803
 20
513.41058563987735
 40
5.078468435011092
 50
207.39647419121076
 51
268.54571430193528
  0
ARC
  8
_0-2_決定
  6
CONTINUOUS
 62
    7
 10
1234.0266575397072
 20
514.85464748504751
 40
7.5147817066586811
 50
179.39685581664631
 51
210.20714035024426
  0
ARC
  8
_0-2_決定
  6
CONTINUOUS
 62
    7
 10
1234.2562830335673
 20
514.99366822135221
 40
7.7442226088509036
 50
132.82267293925472
 51
180.44328820488045
  0
ARC
  8
_0-2_決定
  6
CONTINUOUS
 62
    7
 10
1231.988789043121
 20
516.97113357148123
 40
4.7632337821407047
 50
90.920225485626446
 51
128.98295590390418
  0
ARC
  8
_0-2_決定
  6
CONTINUOUS
 62
    7
 10
1231.8022970480483
 20
516.73270356089643
 40
5.0022589062227807
 50
28.163981790602787
 51
88.740038923660947
  0
ARC
  8
_0-2_決定
  6
CONTINUOUS
 62
    7
 10
1229.4435552966797
 20
515.07851061471922
 40
7.8700663140725595
 50
358.94607405284199
 51
30.676598705013159
  0
ARC
  8
_0-2_決定
  6
CONTINUOUS
 62
    7
 10
1148.9184024401579
 20
529.42478604305063
 40
0.7990921920347983
 50
302.88661937134071
 51
353.45848747538577
  0
ARC
  8
_0-2_決定
  6
CONTINUOUS
 62
    7
 10
1147.3053766391001
 20
531.92704642268563
 40
3.7761974328958181
 50
282.02792232063609
 51
302.82380152205099
  0
ARC
  8
_0-2_決定
  6
CONTINUOUS
 62
    7
 10
1145.6063432932876
 20
538.36891164140479
 40
10.435584451639134
 50
269.48361268024479
 51
283.781416550046
  0
ARC
  8
_0-2_決定
  6
CONTINUOUS
 62
    7
 10
1145.3478794368073
 20
538.77604676053193
 40
10.843542250104575
 50
255.16911754916114
 51
270.86876763716702
  0
ARC
  8
_0-2_決定
  6
CONTINUOUS
 62
    7
 10
1143.1392168308112
 20
531.02760027344698
 40
2.7920127660923217
 50
228.58540418931898
 51
258.28449345656571
  0
ARC
  8
_0-2_決定
  6
CONTINUOUS
 62
    7
 10
1141.6761081033076
 20
529.34696817296992
 40
0.5639707994414552
 50
181.342900282193
 51
227.1125903536273
  0
ARC
  8
_0-2_決定
  6
CONTINUOUS
 62
    7
 10
1142.0610617017894
 20
529.26675540083249
 40
0.951131943800773
 50
128.2445898319653
 51
175.96086810616586
  0
ARC
  8
_0-2_決定
  6
CONTINUOUS
 62
    7
 10
1143.3298395205311
 20
527.62022870435669
 40
3.0297575978884876
 50
104.47961996590328
 51
127.81406250523078
  0
ARC
  8
_0-2_決定
  6
CONTINUOUS
 62
    7
 10
1145.2895711352921
 20
521.09375085751549
 40
9.8425204002372446
 50
88.703374140186867
 51
106.02611834977257
  0
ARC
  8
_0-2_決定
  6
CONTINUOUS
 62
    7
 10
1145.645070301797
 20
521.6245867587578
 40
9.3101111285524745
 50
73.993549806357834
 51
90.817163456469544
  0
ARC
  8
_0-2_決定
  6
CONTINUOUS
 62
    7
 10
1147.5579950171118
 20
527.78480022016265
 40
2.8646729934334325
 50
48.603867600332052
 51
76.796987977017054
  0
ARC
  8
_0-2_決定
  6
CONTINUOUS
 62
    7
 10
1148.8619605674803
 20
529.321607309108
 40
0.8504183441328896
 50
0.8181936699618581
 51
46.039191947361381
  0
ARC
  8
_0-2_決定
  6
CONTINUOUS
 62
    7
 10
1001.7291292337876
 20
531.31691807031086
 40
4.5868236617712164
 50
272.28859263741242
 51
357.71138131905076
  0
ARC
  8
_0-2_決定
  6
CONTINUOUS
 62
    7
 10
1002.095459172225
 20
531.31691807031143
 40
4.5868236617718088
 50
182.28861868095666
 51
267.71140736259497
  0
ARC
  8
_0-2_決定
  6
CONTINUOUS
 62
    7
 10
1002.0954602554826
 20
530.95058496535853
 40
4.5868247042320842
 50
92.288605659178998
 51
177.71139434081729
  0
ARC
  8
_0-2_決定
  6
CONTINUOUS
 62
    7
 10
1001.72912815053
 20
530.9505849653591
 40
4.5868247042314918
 50
2.2886056591752912
 51
87.711394340813598
  0
ARC
  8
_0-2_決定
  6
CONTINUOUS
 62
    7
 10
1023.1698915017785
 20
572.07084311273957
 40
9.5426100578893127
 50
344.20731390937925
 51
0.3777146446688919
  0
ARC
  8
_0-2_決定
  6
CONTINUOUS
 62
    7
 10
1028.6507575375208
 20
570.34114333209072
 40
3.8018078742566237
 50
322.63288690482466
 51
346.81166862410129
  0
ARC
  8
_0-2_決定
  6
CONTINUOUS
 62
    7
 10
1031.0683864378268
 20
568.48837884617046
 40
0.7559041282739305
 50
273.32998112183918
 51
323.02719909809207
  0
ARC
  8
_0-2_決定
  6
CONTINUOUS
 62
    7
 10
1031.2206236358327
 20
568.53172752056969
 40
0.8052960728412952
 50
211.26751477121132
 51
262.26906309280827
  0
ARC
  8
_0-2_決定
  6
CONTINUOUS
 62
    7
 10
1033.7109176467595
 20
570.11626047096149
 40
3.7568192805935743
 50
191.71050118859856
 51
212.21062685160496
  0
ARC
  8
_0-2_決定
  6
CONTINUOUS
 62
    7
 10
1041.0474183927113
 20
572.03009624830156
 40
11.335598118638224
 50
179.4760696764894
 51
193.65652756497192
  0
ARC
  8
_0-2_決定
  6
CONTINUOUS
 62
    7
 10
1040.5545899457036
 20
572.29816378403723
 40
10.843542250104193
 50
165.16911754917751
 51
180.8687676371834
  0
ARC
  8
_0-2_決定
  6
CONTINUOUS
 62
    7
 10
1032.8061434586175
 20
574.50682639002855
 40
2.7920127660918261
 50
138.58540418928848
 51
168.28449345653522
  0
ARC
  8
_0-2_決定
  6
CONTINUOUS
 62
    7
 10
1031.1255113581421
 20
575.96993511753408
 40
0.5639707994410885
 50
91.342900282291183
 51
137.11259035372549
  0
ARC
  8
_0-2_決定
  6
CONTINUOUS
 62
    7
 10
1030.9798722472415
 20
575.66097950873154
 40
0.8827602627391179
 50
33.932559252964793
 51
81.372553748187286
  0
ARC
  8
_0-2_決定
  6
CONTINUOUS
 62
    7
 10
1028.6037563772238
 20
573.88445852149016
 40
3.8487265229282541
 50
15.51181976610312
 51
36.130164182226011
  0
ARC
  8
_0-2_決定
  6
CONTINUOUS
 62
    7
 10
1023.3395618620852
 20
572.20393341482384
 40
9.3729950978009686
 50
359.57098102820157
 51
16.804622995617834
  0
ARC
  8
_0-2_決定
  6
CONTINUOUS
 62
    7
 10
1058.5632765754883
 20
525.91756108594222
 40
9.9482963200556664
 50
59.098945672337585
 51
75.153723946401215
  0
ARC
  8
_0-2_決定
  6
CONTINUOUS
 62
    7
 10
1062.1220301834451
 20
531.59025531592567
 40
3.2562134704591594
 50
34.910011249750276
 51
61.569389342452816
  0
ARC
  8
_0-2_決定
  6
CONTINUOUS
 62
    7
 10
1064.2527001869666
 20
533.05538316797913
 40
0.6707150258825154
 50
349.55177208728884
 51
36.43746149654875
  0
ARC
  8
_0-2_決定
  6
CONTINUOUS
 62
    7
 10
1064.1945358349449
 20
533.21218402659758
 40
0.7698714277667808
 50
286.43039372211479
 51
338.79771821708499
  0
ARC
  8
_0-2_決定
  6
CONTINUOUS
 62
    7
 10
1063.3212555224763
 20
535.97719029714233
 40
3.6693939807833971
 50
266.73540580656925
 51
287.29759768286323
  0
ARC
  8
_0-2_決定
  6
CONTINUOUS
 62
    7
 10
1063.3673145782159
 20
543.55722018589836
 40
11.24636093698609
 50
254.23780851818574
 51
268.70066026191569
  0
ARC
  8
_0-2_決定
  6
CONTINUOUS
 62
    7
 10
1062.4057568322501
 20
541.77694609611603
 40
9.2823468478554148
 50
240.05494310621387
 51
256.96585929659329
  0
ARC
  8
_0-2_決定
  6
CONTINUOUS
 62
    7
 10
1059.3138024090626
 20
536.64087037273657
 40
3.2905304272995717
 50
215.42087352273941
 51
242.06510306858161
  0
ARC
  8
_0-2_決定
  6
CONTINUOUS
 62
    7
 10
1057.2631751168694
 20
535.17192720060882
 40
0.7681204948613394
 50
167.83808566816464
 51
214.78177928009504
  0
ARC
  8
_0-2_決定
  6
CONTINUOUS
 62
    7
 10
1057.2954224492405
 20
535.06234790144879
 40
0.8288241681050613
 50
111.45269206605623
 51
160.88558658970169
  0
ARC
  8
_0-2_決定
  6
CONTINUOUS
 62
    7
 10
1058.1142455806325
 20
532.82165247655348
 40
3.2142670262668838
 50
87.895255988044042
 51
110.42943810341343
  0
ARC
  8
_0-2_決定
  6
CONTINUOUS
 62
    7
 10
1058.2023138882464
 20
527.31666440481695
 40
8.7171381678926796
 50
70.499025201014618
 51
89.802945776758619
  0
ARC
  8
_0-2_決定
  6
CONTINUOUS
 62
    7
 10
1048.6427823109955
 20
663.20797164968496
 40
7.4745438627854952
 50
270.53284796001697
 51
357.89748692447938
  0
ARC
  8
_0-2_決定
  6
CONTINUOUS
 62
    7
 10
1048.9699203281789
 20
663.19137721457082
 40
7.4620747591146097
 50
181.97853048502591
 51
268.0214854304765
  0
ARC
  8
_0-2_決定
  6
CONTINUOUS
 62
    7
 10
1049.1258894979433
 20
662.72862927140955
 40
7.6163578845445166
 50
93.112895610142957
 51
178.45675359583478
  0
ARC
  8
_0-2_決定
  6
CONTINUOUS
 62
    7
 10
1048.7826070359192
 20
663.00406185074849
 40
7.3300244107251586
 50
359.45038513779713
 51
90.549614862198482
  0
ARC
  8
_0-2_決定
  6
CONTINUOUS
 62
    7
 10
1366.8347538020942
 20
526.15240343794687
 40
3.7675519611869879
 50
347.45010338956763
 51
35.752934624113315
  0
ARC
  8
_0-2_決定
  6
CONTINUOUS
 62
    7
 10
1363.1510720094939
 20
523.92650163607425
 40
8.0650190859031365
 50
33.294644207737619
 51
48.146428731800142
  0
ARC
  8
_0-2_決定
  6
CONTINUOUS
 62
    7
 10
1358.3258704301766
 20
518.72962587039365
 40
15.155968595673734
 50
47.667989276096577
 51
69.586000443691333
  0
ARC
  8
_0-2_決定
  6
CONTINUOUS
 62
    7
 10
1354.8734141148798
 20
511.14825262239441
 40
23.472874997874719
 50
68.142668882704072
 51
76.099916324927037
  0
ARC
  8
_0-2_決定
  6
CONTINUOUS
 62
    7
 10
1355.0981158360496
 20
515.51196404653672
 40
19.200924959274452
 50
73.621905748706212
 51
94.498019746687547
  0
ARC
  8
_0-2_決定
  6
CONTINUOUS
 62
    7
 10
1354.3539871442858
 20
524.5951383116327
 40
10.087411551222093
 50
94.330506284215033
 51
121.3072715448333
  0
ARC
  8
_0-2_決定
  6
CONTINUOUS
 62
    7
 10
1351.1646669053835
 20
530.22410879265988
 40
3.626321933172485
 50
124.46943316761967
 51
162.18186749322192
  0
ARC
  8
_0-2_決定
  6
CONTINUOUS
 62
    7
 10
1351.3898268340756
 20
530.51509959772329
 40
3.7675543553490125
 50
167.45009591474235
 51
215.75292714928804
  0
ARC
  8
_0-2_決定
  6
CONTINUOUS
 62
    7
 10
1355.0734987240917
 20
532.74100139959307
 40
8.0650132217831612
 50
213.29468006706045
 51
228.14646459112299
  0
ARC
  8
_0-2_決定
  6
CONTINUOUS
 62
    7
 10
1359.8987079758358
 20
537.93787816527617
 40
15.155968595673734
 50
227.66798927609656
 51
249.58600044369132
  0
ARC
  8
_0-2_決定
  6
CONTINUOUS
 62
    7
 10
1363.3511652911347
 20
545.51926579102462
 40
23.472888714359517
 50
248.14267968304043
 51
256.09992712526338
  0
ARC
  8
_0-2_決定
  6
CONTINUOUS
 62
    7
 10
1363.126463569962
 20
541.15553456087105
 40
19.20091946930674
 50
253.62190404420937
 51
274.49801804219067
  0
ARC
  8
_0-2_決定
  6
CONTINUOUS
 62
    7
 10
1363.870591261727
 20
532.07236572403713
 40
10.087411551222093
 50
274.33050628421506
 51
301.30727154483333
  0
ARC
  8
_0-2_決定
  6
CONTINUOUS
 62
    7
 10
1367.0599115006298
 20
526.44339524300972
 40
3.6263219331721324
 50
304.46943316761553
 51
342.18186749321774
  0
ARC
  8
_0-2_決定
  6
CONTINUOUS
 62
    7
 10
1276.469994460308
 20
543.96933825163683
 40
10.843542250105731
 50
345.16911754915634
 51
0.8687676371622267
  0
ARC
  8
_0-2_決定
  6
CONTINUOUS
 62
    7
 10
1284.2184409473948
 20
541.76067564563891
 40
2.7920127660913301
 50
318.58540418933427
 51
348.284493456581
  0
ARC
  8
_0-2_決定
  6
CONTINUOUS
 62
    7
 10
1285.8990730478713
 20
540.29756691813714
 40
0.5639707994421215
 50
271.34290028216253
 51
317.11259035359683
  0
ARC
  8
_0-2_決定
  6
CONTINUOUS
 62
    7
 10
1286.0206196358326
 20
540.53172752056992
 40
0.8052960728412952
 50
211.26751477121132
 51
262.26906309280827
  0
ARC
  8
_0-2_決定
  6
CONTINUOUS
 62
    7
 10
1288.5109136467588
 20
542.11626047096172
 40
3.7568192805928327
 50
191.7105011886031
 51
212.2106268516095
  0
ARC
  8
_0-2_決定
  6
CONTINUOUS
 62
    7
 10
1295.847414392711
 20
544.03009624830372
 40
11.335598118638483
 50
179.476069676501
 51
193.65652756498349
  0
ARC
  8
_0-2_決定
  6
CONTINUOUS
 62
    7
 10
1295.3545859457045
 20
544.29816378403507
 40
10.843542250105481
 50
165.16911754916728
 51
180.86876763717314
  0
ARC
  8
_0-2_決定
  6
CONTINUOUS
 62
    7
 10
1287.6061394586168
 20
546.50682639002878
 40
2.7920127660913301
 50
138.58540418928339
 51
168.28449345653013
  0
ARC
  8
_0-2_決定
  6
CONTINUOUS
 62
    7
 10
1285.9255073581421
 20
547.96993511753396
 40
0.5639707994410885
 50
91.342900282291183
 51
137.11259035372549
  0
ARC
  8
_0-2_決定
  6
CONTINUOUS
 62
    7
 10
1285.8039607701794
 20
547.73577451510005
 40
0.8052960728412952
 50
31.267514771211317
 51
82.269063092808281
  0
ARC
  8
_0-2_決定
  6
CONTINUOUS
 62
    7
 10
1283.3136667592521
 20
546.1512415647079
 40
3.7568192805943141
 50
11.710501188593989
 51
32.210626851600395
  0
ARC
  8
_0-2_決定
  6
CONTINUOUS
 62
    7
 10
1275.9771660133038
 20
544.23740578736363
 40
11.335598118636458
 50
359.47606967651387
 51
13.656527564996377
  0
ARC
  8
_0-2_決定
  6
CONTINUOUS
 62
    7
 10
1313.4536017969424
 20
512.16126537861055
 40
10.030114055905816
 50
60.764653970492851
 51
76.985907737362155
  0
ARC
  8
_0-2_決定
  6
CONTINUOUS
 62
    7
 10
1316.9693523408619
 20
518.21892838412919
 40
3.0289597120097418
 50
34.941937247354218
 51
62.833881874287471
  0
ARC
  8
_0-2_決定
  6
CONTINUOUS
 62
    7
 10
1318.9279872256616
 20
519.59011079422066
 40
0.6380668294518981
 50
336.31096015328887
 51
34.744120150078864
  0
ARC
  8
_0-2_決定
  6
CONTINUOUS
 62
    7
 10
1318.8084441185083
 20
519.58776632339811
 40
0.7482794064158176
 50
287.40642090511642
 51
340.15582862460917
  0
ARC
  8
_0-2_決定
  6
CONTINUOUS
 62
    7
 10
1317.9634445827685
 20
522.2245179797236
 40
3.5171091523752667
 50
266.55810103557968
 51
287.69193166226773
  0
ARC
  8
_0-2_決定
  6
CONTINUOUS
 62
    7
 10
1318.1744281218027
 20
531.38011418302631
 40
12.673393609825602
 50
255.08412694512913
 51
268.09118247400818
  0
ARC
  8
_0-2_決定
  6
CONTINUOUS
 62
    7
 10
1317.4613078305219
 20
528.74994294972316
 40
9.9482963200511243
 50
239.09894567233925
 51
255.15372394640289
  0
ARC
  8
_0-2_決定
  6
CONTINUOUS
 62
    7
 10
1313.9025542225677
 20
523.07724871974369
 40
3.2562134704587482
 50
214.91001124975836
 51
241.56938934246091
  0
ARC
  8
_0-2_決定
  6
CONTINUOUS
 62
    7
 10
1311.7718842190475
 20
521.61212086768967
 40
0.6707150258830507
 50
169.55177208721565
 51
216.43746149647555
  0
ARC
  8
_0-2_決定
  6
CONTINUOUS
 62
    7
 10
1311.9132835556543
 20
521.42111993108279
 40
0.8598428914150664
 50
109.07443019231685
 51
158.67896437964748
  0
ARC
  8
_0-2_決定
  6
CONTINUOUS
 62
    7
 10
1312.8041573434984
 20
518.92980331868193
 40
3.505617807106256
 50
88.232397340698085
 51
109.52892096032842
  0
ARC
  8
_0-2_決定
  6
CONTINUOUS
 62
    7
 10
1312.9317673702731
 20
514.45282515453164
 40
7.9809516299307557
 50
69.610828678611483
 51
90.139828010590477
  0
ARC
  8
_0-2_決定
  6
CONTINUOUS
 62
    7
 10
747.50315655112843
 20
1433.2558598829041
 40
2.4122348568279413
 50
297.37409736401634
 51
357.09812565485191
  0
ARC
  8
_0-2_決定
  6
CONTINUOUS
 62
    7
 10
746.53005290854503
 20
1434.5611788770932
 40
4.0274789942978666
 50
269.74741693494707
 51
301.13187413568266
  0
ARC
  8
_0-2_決定
  6
CONTINUOUS
 62
    7
 10
746.45614032604476
 20
1434.7972299890907
 40
4.263860805552131
 50
226.70723505642482
 51
270.75464526513065
  0
ARC
  8
_0-2_決定
  6
CONTINUOUS
 62
    7
 10
745.0979736568911
 20
1433.2213215049242
 40
2.1874295146954088
 50
182.2946790176924
 51
224.29444749008374
  0
ARC
  8
_0-2_決定
  6
CONTINUOUS
 62
    7
 10
745.47520346588328
 20
1433.0779434449523
 40
2.5635125379910977
 50
121.06778479360237
 51
178.75284272880839
  0
ARC
  8
_0-2_決定
  6
CONTINUOUS
 62
    7
 10
746.41563539883941
 20
1431.7299878327349
 40
4.2048623906064035
 50
88.682749131631539
 51
122.56572003074172
  0
ARC
  8
_0-2_決定
  6
CONTINUOUS
 62
    7
 10
746.50785586757252
 20
1432.4640590390941
 40
3.4696828225670395
 50
11.128437769710031
 51
89.926642533598951
  0
LINE
  8
_0-2_決定
  6
CONTINUOUS
 62
    7
 10
1002.3122942030062
 20
1472.9337370178348
 11
1002.3122942030062
 21
748.93374901783488
  0
LINE
  8
_0-2_決定
  6
CONTINUOUS
 62
    7
 10
1002.3122942030062
 20
748.93374901783488
 11
1425.1122882030063
 21
505.33375301783485
  0
LINE
  8
_0-2_決定
  6
CONTINUOUS
 62
    7
 10
1002.3122942030062
 20
1550.5337370178347
 11
1002.3122942030062
 21
748.93374901783488
  0
LINE
  8
_0-2_決定
  6
CONTINUOUS
 62
    7
 10
1002.3122942030062
 20
748.93374901783488
 11
1237.9122902030058
 21
892.53374701783491
  0
LINE
  8
_0-2_決定
  6
CONTINUOUS
 62
    7
 10
1236.9122902030063
 20
990.33374501783499
 11
1236.9122902030063
 21
895.93374701783455
  0
LINE
  8
_0-2_決定
  6
CONTINUOUS
 62
    7
 10
1236.9122902030063
 20
895.93374701783455
 11
1916.9122802030063
 21
505.13375301783475
  0
LINE
  8
_0-2_決定
  6
CONTINUOUS
 62
    7
 10
2031.1122802030059
 20
686.13374901783459
 11
1898.7122822030062
 21
609.73375101783495
  0
LINE
  8
_0-2_決定
  6
CONTINUOUS
 62
    7
 10
2072.1122782030061
 20
505.13375301783475
 11
1235.3122902030066
 21
990.33374501783499
  0
LINE
  8
_0-2_決定
  6
CONTINUOUS
 62
    7
 10
1235.3122902030066
 20
990.33374501783499
 11
1370.5122882030064
 21
1069.3337430178349
  0
LINE
  8
_0-2_決定
  6
CONTINUOUS
 62
    7
 10
1897.3122822030064
 20
609.33375101783474
 11
1897.3122822030064
 21
514.13375301783481
  0
LINE
  8
_0-2_決定
  6
CONTINUOUS
 62
    7
 10
1950.1122802030063
 20
505.13375301783475
 11
2015.3122802030061
 21
533.73375101783472
  0
LINE
  8
_0-2_決定
  6
CONTINUOUS
 62
    7
 10
1876.9122822030063
 20
530.93375101783477
 11
1958.5122802030064
 21
567.73375101783483
  0
LINE
  8
_0-2_決定
  6
CONTINUOUS
 62
    7
 10
1818.5122822030064
 20
562.33375101783486
 11
1901.3122802030057
 21
601.93375101783465
  0
LINE
  8
_0-2_決定
  6
CONTINUOUS
 62
    7
 10
1761.9122842030065
 20
595.93375101783477
 11
1843.7122822030062
 21
636.33375101783463
  0
LINE
  8
_0-2_決定
  6
CONTINUOUS
 62
    7
 10
1704.7122842030058
 20
629.73375101783495
 11
1785.712282203006
 21
670.93374901783477
  0
LINE
  8
_0-2_決定
  6
CONTINUOUS
 62
    7
 10
1645.5122842030062
 20
661.93374901783477
 11
1727.5122842030059
 21
705.73374901783473
  0
LINE
  8
_0-2_決定
  6
CONTINUOUS
 62
    7
 10
1587.7122862030069
 20
696.13374901783459
 11
1668.9122842030065
 21
740.73374901783473
  0
LINE
  8
_0-2_決定
  6
CONTINUOUS
 62
    7
 10
1527.7122862030069
 20
728.53374901783468
 11
1610.9122862030063
 21
770.73374901783473
  0
LINE
  8
_0-2_決定
  6
CONTINUOUS
 62
    7
 10
1469.312288203007
 20
763.33374901783486
 11
1551.7122862030067
 21
805.13374701783482
  0
LINE
  8
_0-2_決定
  6
CONTINUOUS
 62
    7
 10
1410.5122882030064
 20
798.13374701783482
 11
1491.5122882030068
 21
841.53374701783491
  0
LINE
  8
_0-2_決定
  6
CONTINUOUS
 62
    7
 10
1347.1122902030065
 20
835.13374701783482
 11
1429.1122882030061
 21
877.73374701783473
  0
LINE
  8
_0-2_決定
  6
CONTINUOUS
 62
    7
 10
1286.112290203007
 20
870.53374701783491
 11
1368.9122882030063
 21
912.13374701783493
  0
LINE
  8
_0-2_決定
  6
CONTINUOUS
 62
    7
 10
1311.7122902030064
 20
944.1337450178346
 11
1238.5122902030066
 21
903.73374701783496
  0
LINE
  8
_0-2_決定
  6
CONTINUOUS
 62
    7
 10
1240.3122902030066
 20
983.93374501783478
 11
1276.9122902030063
 21
875.73374701783473
  0
LINE
  8
_0-2_決定
  6
CONTINUOUS
 62
    7
 10
1299.3122902030063
 20
950.5337450178348
 11
1336.5122902030066
 21
840.53374701783491
  0
LINE
  8
_0-2_決定
  6
CONTINUOUS
 62
    7
 10
1352.3122902030063
 20
921.93374701783455
 11
1401.7122882030067
 21
803.33374701783464
  0
LINE
  8
_0-2_決定
  6
CONTINUOUS
 62
    7
 10
1412.7122882030062
 20
887.73374701783473
 11
1460.5122882030064
 21
768.53374901783468
  0
LINE
  8
_0-2_決定
  6
CONTINUOUS
 62
    7
 10
1475.1122882030063
 20
851.13374701783505
 11
1518.9122862030063
 21
733.7337490178345
  0
LINE
  8
_0-2_決定
  6
CONTINUOUS
 62
    7
 10
1535.5122862030062
 20
814.73374701783484
 11
1578.9122862030063
 21
701.33374901783498
  0
LINE
  8
_0-2_決定
  6
CONTINUOUS
 62
    7
 10
1594.7122862030069
 20
780.53374901783491
 11
1636.7122842030062
 21
667.13374901783459
  0
LINE
  8
_0-2_決定
  6
CONTINUOUS
 62
    7
 10
1652.9122842030069
 20
750.33374901783509
 11
1696.1122842030068
 21
634.93375101783477
  0
LINE
  8
_0-2_決定
  6
CONTINUOUS
 62
    7
 10
1711.5122842030064
 20
715.13374901783459
 11
1753.3122842030066
 21
601.13375101783481
  0
LINE
  8
_0-2_決定
  6
CONTINUOUS
 62
    7
 10
1769.9122822030063
 20
680.33374901783509
 11
1809.9122822030063
 21
567.33375101783486
  0
LINE
  8
_0-2_決定
  6
CONTINUOUS
 62
    7
 10
1827.9122822030058
 20
645.73375101783483
 11
1868.3122822030066
 21
535.93375101783477
  0
LINE
  8
_0-2_決定
  6
CONTINUOUS
 62
    7
 10
1885.5122822030062
 20
611.13375101783481
 11
1923.5122802030064
 21
505.13375301783475
  0
LINE
  8
_0-2_決定
  6
CONTINUOUS
 62
    7
 10
1946.1122802030059
 20
575.93375101783477
 11
1970.7122802030062
 21
505.13375301783475
  0
LINE
  8
_0-2_決定
  6
CONTINUOUS
 62
    7
 10
2017.7122802030067
 20
535.33375101783474
 11
2024.3122802030057
 21
505.13375301783475
  0
LINE
  8
_0-0_文字
  6
CONTINUOUS
 62
    7
 10
1946.7122802030071
 20
1036.1337450178346
 11
2002.5122802030064
 21
1132.733743017835
  0
LINE
  8
_0-0_文字
  6
CONTINUOUS
 62
    7
 10
2002.5122802030064
 20
1132.733743017835
 11
2041.5122782030057
 21
1132.733743017835
  0
LINE
  8
_0-0_文字
  6
CONTINUOUS
 62
    7
 10
1942.7122802030062
 20
901.73374701783496
 11
1976.1122802030063
 21
960.13374501783483
  0
LINE
  8
_0-0_文字
  6
CONTINUOUS
 62
    7
 10
1976.1122802030063
 20
960.13374501783483
 11
1994.9122802030065
 21
960.13374501783483
  0
LINE
  8
_0-0_文字
  6
CONTINUOUS
 62
    7
 10
1912.912280203006
 20
1161.5337430178349
 11
1979.9122802030065
 21
1278.5337410178349
  0
LINE
  8
_0-0_文字
  6
CONTINUOUS
 62
    7
 10
1979.9122802030065
 20
1278.5337410178349
 11
1998.7122802030062
 21
1278.5337410178349
  0
LINE
  8
_0-0_文字
  6
CONTINUOUS
 62
    7
 10
2009.7122802030067
 20
570.73375101783495
 11
2076.9122782030063
 21
687.7337490178345
  0
LINE
  8
_0-0_文字
  6
CONTINUOUS
 62
    7
 10
2076.9122782030063
 20
687.7337490178345
 11
2095.7122782030065
 21
687.7337490178345
  0
ARC
  8
_0-1_レイヤ___3
  6
CONTINUOUS
 62
    7
 10
1864.6938646184362
 20
845.22530513321067
 40
131.06581547899813
 50
104.22262425620154
 51
119.82281572057981
  0
ARC
  8
_0-1_レイヤ___3
  6
CONTINUOUS
 62
    7
 10
1880.8413397139789
 20
788.90171874467546
 40
189.63895006491552
 50
70.727996038389662
 51
104.77081215824367
  0
ARC
  8
_0-1_レイヤ___3
  6
CONTINUOUS
 62
    7
 10
1898.384137411228
 20
846.00866784351388
 40
129.96223686081188
 50
60.331855252151939
 51
69.718984843653232
  0
ARC
  8
_0-1_レイヤ___3
  6
CONTINUOUS
 62
    7
 10
1916.7665049053885
 20
878.67970276311189
 40
92.475540365666177
 50
46.423236701331462
 51
60.208681978478879
  0
ARC
  8
_0-1_レイヤ___3
  6
CONTINUOUS
 62
    7
 10
1939.1934063393633
 20
903.13342286909369
 40
59.303695887173419
 50
24.46547930510625
 51
45.834480730776185
  0
ARC
  8
_0-1_レイヤ___3
  6
CONTINUOUS
 62
    7
 10
1954.8515549990821
 20
911.8070898052863
 40
41.483296126799672
 50
327.95023920551728
 51
22.517472977753364
  0
ARC
  8
_0-1_レイヤ___3
  6
CONTINUOUS
 62
    7
 10
1939.4789707055229
 20
920.59490725099317
 40
59.180459954930676
 50
311.93990828243841
 51
328.63677638751767
  0
ARC
  8
_0-1_レイヤ___3
  6
CONTINUOUS
 62
    7
 10
1920.0333037416653
 20
940.72909295103523
 40
87.159552748362103
 50
299.31856090195663
 51
312.60247349133226
  0
LINE
  8
_0-1_レイヤ___3
  6
CONTINUOUS
 62
    7
 10
1962.7122802030062
 20
864.7337470178345
 11
1962.3122802030066
 21
864.53374701783468
  0
ARC
  8
_0-1_レイヤ___3
  6
CONTINUOUS
 62
    7
 10
1897.1306977875765
 20
978.2421869024588
 40
131.06581547899813
 50
284.22262425620153
 51
299.8228157205798
  0
ARC
  8
_0-1_レイヤ___3
  6
CONTINUOUS
 62
    7
 10
1880.9832226920362
 20
1034.5657732909924
 40
189.63895006491356
 50
250.72799603838934
 51
284.7708121582433
  0
ARC
  8
_0-1_レイヤ___3
  6
CONTINUOUS
 62
    7
 10
1863.4404249947825
 20
977.45882419216309
 40
129.96223686081672
 50
240.33185525215464
 51
249.7189848436559
  0
ARC
  8
_0-1_レイヤ___3
  6
CONTINUOUS
 62
    7
 10
1845.1016614459963
 20
945.23141676630053
 40
92.882382107631472
 50
226.55663905581972
 51
240.32130392199548
  0
ARC
  8
_0-1_レイヤ___3
  6
CONTINUOUS
 62
    7
 10
1822.4871248307268
 20
920.40896956355459
 40
59.312892636079951
 50
204.54094818173667
 51
225.92926115281438
  0
ARC
  8
_0-1_レイヤ___3
  6
CONTINUOUS
 62
    7
 10
1806.6829929824275
 20
911.67457841463397
 40
41.331745330731351
 50
147.84183014107083
 51
202.62588154149387
  0
ARC
  8
_0-1_レイヤ___3
  6
CONTINUOUS
 62
    7
 10
1822.1988975474774
 20
902.71549740792784
 40
59.239609119495569
 50
131.77599250044148
 51
148.49360563266296
  0
ARC
  8
_0-1_レイヤ___3
  6
CONTINUOUS
 62
    7
 10
1841.8142360328834
 20
882.40747781062487
 40
87.459453043541231
 50
119.22553074164836
 51
132.49573844242099
  0
ARC
  8
_0-1_レイヤ___3
  6
CONTINUOUS
 62
    7
 10
1845.086023980984
 20
878.8571610819165
 40
92.856319809894785
 50
119.67675504199376
 51
133.44530198018867
  0
ARC
  8
_0-1_レイヤ___3
  6
CONTINUOUS
 62
    7
 10
1822.4586675361043
 20
903.67862027030674
 40
59.278659734263535
 50
134.06448807210359
 51
155.46529658673657
  0
ARC
  8
_0-1_レイヤ___3
  6
CONTINUOUS
 62
    7
 10
1806.799348823974
 20
912.35617278198083
 40
41.453282865135336
 50
157.38911306589554
 51
212.12318841565707
  0
ARC
  8
_0-1_レイヤ___3
  6
CONTINUOUS
 62
    7
 10
1822.5054069119251
 20
921.39385989765992
 40
59.564646052056688
 50
211.45225834985433
 51
228.10786355353358
  0
ARC
  8
_0-1_レイヤ___3
  6
CONTINUOUS
 62
    7
 10
1842.361782358525
 20
941.77990578858407
 40
88.006550426733057
 50
227.34692728851516
 51
240.56505554690537
  0
ARC
  8
_0-1_レイヤ___3
  6
CONTINUOUS
 62
    7
 10
1864.2938646184366
 20
978.84218690245939
 40
131.06581547899813
 50
240.1771842794202
 51
255.77737574379847
  0
ARC
  8
_0-1_レイヤ___3
  6
CONTINUOUS
 62
    7
 10
1880.441339713977
 20
1035.1657732909925
 40
189.63895006491356
 50
255.22918784175664
 51
289.27200396161066
  0
ARC
  8
_0-1_レイヤ___3
  6
CONTINUOUS
 62
    7
 10
1897.9841374112307
 20
978.05882419216323
 40
129.96223686081672
 50
290.2810151563441
 51
299.66814474784536
  0
ARC
  8
_0-1_レイヤ___3
  6
CONTINUOUS
 62
    7
 10
1864.6938646184362
 20
846.02530513320994
 40
131.06581547899813
 50
104.22262425620154
 51
119.82281572057981
  0
ARC
  8
_0-1_レイヤ___3
  6
CONTINUOUS
 62
    7
 10
1880.8413397139775
 20
789.70171874467519
 40
189.63895006491555
 50
70.727996038389364
 51
104.77081215824337
  0
ARC
  8
_0-1_レイヤ___3
  6
CONTINUOUS
 62
    7
 10
1898.3841374112312
 20
846.8086678435136
 40
129.96223686081044
 50
60.331855252153325
 51
69.71898484365461
  0
ARC
  8
_0-1_レイヤ___3
  6
CONTINUOUS
 62
    7
 10
1916.7820953249206
 20
879.50063107892015
 40
92.4496319909926
 50
46.421295686508024
 51
60.210622993304668
  0
ARC
  8
_0-1_レイヤ___3
  6
CONTINUOUS
 62
    7
 10
1939.2219096222693
 20
903.95349247987019
 40
59.269440511843101
 50
24.459231434794653
 51
45.840728601084386
  0
ARC
  8
_0-1_レイヤ___3
  6
CONTINUOUS
 62
    7
 10
1954.7347072081079
 20
912.57035919961163
 40
41.605303716565594
 50
327.98512366584225
 51
22.502574852604937
  0
ARC
  8
_0-1_レイヤ___3
  6
CONTINUOUS
 62
    7
 10
1939.1718660808256
 20
921.43635237692388
 40
59.505926010010683
 50
312.05596806046782
 51
328.69082741872313
  0
ARC
  8
_0-1_レイヤ___3
  6
CONTINUOUS
 62
    7
 10
1919.4847457247947
 20
941.64983449136139
 40
87.70840862957192
 50
299.52841086679911
 51
312.75978753421288
  0
ARC
  8
_0-1_レイヤ___3
  6
CONTINUOUS
 62
    7
 10
1944.8138918897434
 20
909.66167970994115
 40
46.728774744652675
 50
12.17129748838147
 51
37.849160230969211
  0
ARC
  8
_0-1_レイヤ___3
  6
CONTINUOUS
 62
    7
 10
1953.1777795273983
 20
912.50592705441727
 40
37.966847397560393
 50
334.52168202279847
 51
10.636491806214856
  0
ARC
  8
_0-1_レイヤ___3
  6
CONTINUOUS
 62
    7
 10
1941.7001761138913
 20
917.43870467212309
 40
50.452487080618312
 50
316.75659221029218
 51
335.07163380133005
  0
ARC
  8
_0-1_レイヤ___3
  6
CONTINUOUS
 62
    7
 10
1923.8204701392369
 20
933.03552857854038
 40
74.167641193365398
 50
302.88697479504435
 51
317.44250244932249
  0
ARC
  8
_0-1_レイヤ___3
  6
CONTINUOUS
 62
    7
 10
1908.2560951481678
 20
954.80065341040495
 40
100.90372656963478
 50
300.13405816419458
 51
303.59789722301031
  0
LINE
  8
_0-1_レイヤ___3
  6
CONTINUOUS
 62
    7
 10
1958.912280203006
 20
867.53374701783491
 11
1958.5122802030064
 21
867.33374701783441
  0
ARC
  8
_0-1_レイヤ___3
  6
CONTINUOUS
 62
    7
 10
1895.8924790825681
 20
976.84307958213003
 40
126.14885418045122
 50
283.72007515367056
 51
299.76185393980893
  0
ARC
  8
_0-1_レイヤ___3
  6
CONTINUOUS
 62
    7
 10
1880.8618186459553
 20
1030.0310067488701
 40
181.39495156140714
 50
252.39298642626588
 51
284.3476240195323
  0
ARC
  8
_0-1_レイヤ___3
  6
CONTINUOUS
 62
    7
 10
1866.5069147772847
 20
980.02011170551577
 40
129.3927899026159
 50
240.5617581116592
 51
251.75303346974198
  0
ARC
  8
_0-1_レイヤ___3
  6
CONTINUOUS
 62
    7
 10
1846.8573755481038
 20
944.30177429389596
 40
88.629839511746113
 50
226.59231436720265
 51
240.27568226469805
  0
ARC
  8
_0-1_レイヤ___3
  6
CONTINUOUS
 62
    7
 10
1825.077897590691
 20
920.45970987562532
 40
56.345264961045352
 50
204.12058210310957
 51
226.02133405040871
  0
ARC
  8
_0-1_レイヤ___3
  6
CONTINUOUS
 62
    7
 10
1810.5617600086334
 20
912.34414533464269
 40
39.807405464937332
 50
146.32995481484969
 51
201.99733269967982
  0
ARC
  8
_0-1_レイヤ___3
  6
CONTINUOUS
 62
    7
 10
1822.8186634354965
 20
905.68767597866008
 40
53.713225967394429
 50
143.37221521456866
 51
147.66935341319032
  0
ARC
  8
_0-1_レイヤ___3
  6
CONTINUOUS
 62
    7
 10
1888.2915692850811
 20
947.92337564122454
 40
59.66198243632121
 50
282.84204354876874
 51
299.76709180354976
  0
ARC
  8
_0-1_レイヤ___3
  6
CONTINUOUS
 62
    7
 10
1881.6403350316778
 20
972.64386446964045
 40
85.24820896464739
 50
251.5153084682189
 51
283.50770428521116
  0
ARC
  8
_0-1_レイヤ___3
  6
CONTINUOUS
 62
    7
 10
1874.0774545142399
 20
946.65071997248424
 40
58.208078604718622
 50
240.61061080901118
 51
250.46353540670464
  0
ARC
  8
_0-1_レイヤ___3
  6
CONTINUOUS
 62
    7
 10
1864.2204182156461
 20
928.59095424313091
 40
37.636252959392387
 50
218.71056644585795
 51
240.19316081846068
  0
ARC
  8
_0-1_レイヤ___3
  6
CONTINUOUS
 62
    7
 10
1851.5506404976377
 20
917.575153682154
 40
20.871530719837338
 50
182.03571133009939
 51
216.86471025909159
  0
ARC
  8
_0-1_レイヤ___3
  6
CONTINUOUS
 62
    7
 10
1849.5186042409837
 20
916.67041763392695
 40
18.827030513739473
 50
141.9526678820836
 51
179.50293798337887
  0
ARC
  8
_0-1_レイヤ___3
  6
CONTINUOUS
 62
    7
 10
1858.6344954562487
 20
910.62778405368954
 40
29.742386998956679
 50
128.22273097778989
 51
143.60892962883864
  0
ARC
  8
_0-1_レイヤ___3
  6
CONTINUOUS
 62
    7
 10
1866.9867614175218
 20
900.67675408320633
 40
42.729662331663533
 50
119.86020400667809
 51
128.76544241970839
  0
ARC
  8
_0-1_レイヤ___3
  6
CONTINUOUS
 62
    7
 10
1875.4883853329825
 20
884.80243593745149
 40
60.731703405799983
 50
102.76235430672016
 51
119.3595968753468
  0
ARC
  8
_0-1_レイヤ___3
  6
CONTINUOUS
 62
    7
 10
1881.8693554749298
 20
860.83637680070319
 40
85.520326170980198
 50
71.876192130111008
 51
103.38479153734318
  0
ARC
  8
_0-1_レイヤ___3
  6
CONTINUOUS
 62
    7
 10
1889.519618876297
 20
887.6021799060843
 40
57.712339255115424
 50
60.301620008651241
 51
70.828383758338632
  0
ARC
  8
_0-1_レイヤ___3
  6
CONTINUOUS
 62
    7
 10
1900.1382276896884
 20
905.79684628602968
 40
36.647401877310124
 50
38.666716627630144
 51
60.629237264733511
  0
ARC
  8
_0-1_レイヤ___3
  6
CONTINUOUS
 62
    7
 10
1912.617405498615
 20
917.04296385255839
 40
19.901631342448024
 50
323.38791699805893
 51
35.832560611306754
  0
ARC
  8
_0-1_レイヤ___3
  6
CONTINUOUS
 62
    7
 10
1904.7861408582689
 20
923.19150375236381
 40
29.855850820998519
 50
307.52673158393929
 51
322.87961975898969
  0
ARC
  8
_0-1_レイヤ___3
  6
CONTINUOUS
 62
    7
 10
1897.1844383640218
 20
932.64169959336095
 40
41.981829742863795
 50
299.58628009882392
 51
307.89831395703663
  0
ARC
  8
_0-1_レイヤ___3
  6
CONTINUOUS
 62
    7
 10
1859.0480600228721
 20
916.95649724140571
 40
24.210350967363997
 50
211.98107832935477
 51
230.87896977322043
  0
ARC
  8
_0-1_レイヤ___3
  6
CONTINUOUS
 62
    7
 10
1872.343582727628
 20
932.27274305988408
 40
44.486635574561966
 50
230.04060356517112
 51
238.51948781024538
  0
ARC
  8
_0-1_レイヤ___3
  6
CONTINUOUS
 62
    7
 10
1867.3211200635574
 20
924.89567415679949
 40
35.575176270529532
 50
239.213456568033
 51
254.02849696452279
  0
ARC
  8
_0-1_レイヤ___3
  6
CONTINUOUS
 62
    7
 10
1877.4065126481519
 20
956.2032057631327
 40
68.457828046824915
 50
253.12327532591266
 51
263.29392811437083
  0
ARC
  8
_0-1_レイヤ___3
  6
CONTINUOUS
 62
    7
 10
1880.9174453977475
 20
979.94983754884765
 40
92.454740744062477
 50
262.85152285781339
 51
283.87740988316642
  0
ARC
  8
_0-1_レイヤ___3
  6
CONTINUOUS
 62
    7
 10
1889.0664494657112
 20
943.05980706071773
 40
54.695011036921187
 50
284.85875755591331
 51
297.01741964909957
  0
ARC
  8
_0-1_レイヤ___3
  6
CONTINUOUS
 62
    7
 10
1911.3065354909149
 20
912.77739565904221
 40
16.191210037249352
 50
351.31949938796356
 51
35.474218929833555
  0
ARC
  8
_0-1_レイヤ___3
  6
CONTINUOUS
 62
    7
 10
1903.6071196415055
 20
907.96550448234234
 40
25.259930475498521
 50
34.227581440266654
 51
51.498596852216444
  0
ARC
  8
_0-1_レイヤ___3
  6
CONTINUOUS
 62
    7
 10
1895.0351398729736
 20
898.08737506908051
 40
38.330906562997072
 50
50.663140185409254
 51
60.152312192959144
  0
ARC
  8
_0-1_レイヤ___3
  6
CONTINUOUS
 62
    7
 10
1887.1303758957192
 20
883.95730709140958
 40
54.521097115190258
 50
60.337553046052911
 51
78.6585154123038
  0
ARC
  8
_0-1_レイヤ___3
  6
CONTINUOUS
 62
    7
 10
1881.8919537517895
 20
863.27507260633206
 40
75.837159962718061
 50
77.850967622224246
 51
111.58549709161682
  0
ARC
  8
_0-1_レイヤ___3
  6
CONTINUOUS
 62
    7
 10
1873.5127019329211
 20
888.99998555361458
 40
48.86233389197136
 50
113.54681905606867
 51
119.95837707798994
  0
ARC
  8
_0-1_レイヤ___3
  6
CONTINUOUS
 62
    7
 10
1865.9281520353052
 20
901.74224087416383
 40
34.035725285378426
 50
119.60813211147772
 51
141.87808586360845
  0
ARC
  8
_0-1_レイヤ___3
  6
CONTINUOUS
 62
    7
 10
1853.0086535599121
 20
912.67463443348697
 40
17.134396332185883
 50
143.96788970674103
 51
183.81784282548955
  0
ARC
  8
_0-1_レイヤ___3
  6
CONTINUOUS
 62
    7
 10
1898.0069985230507
 20
923.52679991723699
 40
33.244733761996358
 50
298.58292022809047
 51
319.03984784542951
  0
ARC
  8
_0-1_レイヤ___3
  6
CONTINUOUS
 62
    7
 10
1869.2345903883329
 20
904.63505863567229
 40
24.606369212352813
 50
120.05143115205651
 51
138.82867432132295
  0
ARC
  8
_0-1_レイヤ___3
  6
CONTINUOUS
 62
    7
 10
1861.1000598401261
 20
912.03440174410298
 40
13.613757801745756
 50
139.73251804019719
 51
183.54028854782388
  0
ARC
  8
_0-1_レイヤ___3
  6
CONTINUOUS
 62
    7
 10
1860.585433368597
 20
912.84626101687627
 40
13.177180423573558
 50
187.20427472805036
 51
223.15297587973203
  0
ARC
  8
_0-1_レイヤ___3
  6
CONTINUOUS
 62
    7
 10
1868.6763530668936
 20
919.35159197411826
 40
23.542252170104238
 50
221.23498023123747
 51
241.13748042660666
  0
ARC
  8
_0-1_レイヤ___3
  6
CONTINUOUS
 62
    7
 10
1876.2723882606401
 20
932.48422579835301
 40
38.711502678543823
 50
240.67390065830989
 51
255.33556604725356
  0
ARC
  8
_0-1_レイヤ___3
  6
CONTINUOUS
 62
    7
 10
1880.8334564271199
 20
949.04010380356704
 40
55.883180818231267
 50
255.10872524381591
 51
288.52901211833364
  0
ARC
  8
_0-1_レイヤ___3
  6
CONTINUOUS
 62
    7
 10
1886.188345245027
 20
931.33198214596314
 40
37.395340963989227
 50
289.371832512845
 51
299.34096453757445
  0
ARC
  8
_0-1_レイヤ___3
  6
CONTINUOUS
 62
    7
 10
1892.1039881225856
 20
920.51085755460326
 40
25.064082981104207
 50
299.6738835805736
 51
318.34981966788001
  0
ARC
  8
_0-1_レイヤ___3
  6
CONTINUOUS
 62
    7
 10
1900.2646372549389
 20
912.97742598749414
 40
13.961253361329554
 50
319.19399092018386
 51
2.5301505884923046
  0
ARC
  8
_0-1_レイヤ___3
  6
CONTINUOUS
 62
    7
 10
1901.2818284866994
 20
912.15799069947457
 40
13.009918439155657
 50
6.3359873979842529
 51
41.58899055118053
  0
ARC
  8
_0-1_レイヤ___3
  6
CONTINUOUS
 62
    7
 10
1893.6214945066986
 20
906.2511801590349
 40
22.669928936314495
 50
39.903127480899094
 51
61.288032554325007
  0
ARC
  8
_0-1_レイヤ___3
  6
CONTINUOUS
 62
    7
 10
1900.1042219365404
 20
915.86357505739079
 40
10.356590713035896
 50
335.28690834421229
 51
29.565763319002016
  0
ARC
  8
_0-1_レイヤ___3
  6
CONTINUOUS
 62
    7
 10
1895.7308037318494
 20
913.49656346711777
 40
15.328802510281786
 50
29.195200859627292
 51
51.504429440602564
  0
ARC
  8
_0-1_レイヤ___3
  6
CONTINUOUS
 62
    7
 10
1890.1190494073007
 20
907.20198405361293
 40
23.753083923717814
 50
50.361028317021884
 51
60.786018520088334
  0
ARC
  8
_0-1_レイヤ___3
  6
CONTINUOUS
 62
    7
 10
1883.8232318785499
 20
897.29443320616474
 40
35.479368664122738
 50
59.72108332469309
 51
82.796245888552164
  0
ARC
  8
_0-1_レイヤ___3
  6
CONTINUOUS
 62
    7
 10
1881.1408231994283
 20
884.82630665026727
 40
48.197950039867344
 50
81.491167410614423
 51
111.09672896728642
  0
ARC
  8
_0-1_レイヤ___3
  6
CONTINUOUS
 62
    7
 10
1875.6662932550757
 20
901.73061970716481
 40
30.47180894970036
 50
112.93409246910433
 51
120.69310058361104
  0
ARC
  8
_0-1_レイヤ___3
  6
CONTINUOUS
 62
    7
 10
1870.4427563396457
 20
908.80418458478039
 40
21.740718819024551
 50
118.37022992003013
 51
138.13397276504935
  0
ARC
  8
_0-1_レイヤ___3
  6
CONTINUOUS
 62
    7
 10
1863.256990571419
 20
915.52790157301752
 40
11.903955732895239
 50
139.15194276422557
 51
175.34610455020805
  0
ARC
  8
_0-1_レイヤ___3
  6
CONTINUOUS
 62
    7
 10
1861.3563907984412
 20
916.13120108233352
 40
9.9707020643959048
 50
177.91620170060534
 51
198.70435263441402
  0
LINE
  8
_0-1_レイヤ___3
  6
CONTINUOUS
 62
    7
 10
1857.112282203007
 20
905.73374701783473
 11
1860.1122822030065
 21
903.93374701783478
  0
ARC
  8
_0-1_レイヤ___3
  6
CONTINUOUS
 62
    7
 10
1876.8488577032231
 20
933.39557891433196
 40
33.883808790805894
 50
240.40010941321464
 51
256.31462460689903
  0
ARC
  8
_0-1_レイヤ___3
  6
CONTINUOUS
 62
    7
 10
1880.7812564863552
 20
947.78524063650048
 40
48.797084081460966
 50
255.82580961283381
 51
291.08015558356294
  0
ARC
  8
_0-1_レイヤ___3
  6
CONTINUOUS
 62
    7
 10
1886.553084611573
 20
930.19247174441512
 40
30.320320500378266
 50
292.8606907891359
 51
299.99789512011512
  0
ARC
  8
_0-1_レイヤ___3
  6
CONTINUOUS
 62
    7
 10
1903.1866535235572
 20
900.51062705619552
 40
3.7271338800908698
 50
103.56785100648669
 51
113.30204663945504
  0
ARC
  8
_0-1_レイヤ___3
  6
CONTINUOUS
 62
    7
 10
1879.298499803303
 20
927.47569280690664
 40
20.805990147412118
 50
240.68695392212769
 51
260.52166956093777
  0
ARC
  8
_0-1_レイヤ___3
  6
CONTINUOUS
 62
    7
 10
1880.8646279046507
 20
934.42137731348589
 40
27.91763295237125
 50
259.69872530877632
 51
296.02139641473525
  0
ARC
  8
_0-1_レイヤ___3
  6
CONTINUOUS
 62
    7
 10
1887.1235526453547
 20
919.96026432770941
 40
12.197858494496611
 50
299.40407090539907
 51
325.96848409896279
  0
ARC
  8
_0-1_レイヤ___3
  6
CONTINUOUS
 62
    7
 10
1891.8417714854745
 20
916.39462356124363
 40
6.3000731445902511
 50
328.82903765599337
 51
37.315461092212821
  0
ARC
  8
_0-1_レイヤ___3
  6
CONTINUOUS
 62
    7
 10
1888.0101659226461
 20
913.41614609201974
 40
11.153044367438431
 50
37.552194585979954
 51
62.776415307041013
  0
ARC
  8
_0-1_レイヤ___3
  6
CONTINUOUS
 62
    7
 10
1882.8460318602201
 20
905.96332609093815
 40
20.177398724274109
 50
59.416102050822161
 51
79.992843810939817
  0
ARC
  8
_0-1_レイヤ___3
  6
CONTINUOUS
 62
    7
 10
1881.3456313560705
 20
899.66609125830792
 40
26.642311473523122
 50
79.168516806732171
 51
117.33355964294341
  0
ARC
  8
_0-1_レイヤ___3
  6
CONTINUOUS
 62
    7
 10
1874.6196467800137
 20
913.0215888500968
 40
11.690665963088659
 50
118.1051226875924
 51
145.43758157313084
  0
ARC
  8
_0-1_レイヤ___3
  6
CONTINUOUS
 62
    7
 10
1870.3182512175117
 20
916.38620986946103
 40
6.2484193968937767
 50
148.47045315628327
 51
216.45165614477295
  0
ARC
  8
_0-1_レイヤ___3
  6
CONTINUOUS
 62
    7
 10
1874.5645237713934
 20
919.42403527868601
 40
11.469126178882052
 50
216.0550074998763
 51
241.61563069439896
  0
ARC
  8
_0-1_レイヤ___3
  6
CONTINUOUS
 62
    7
 10
1880.5091899451527
 20
924.98582598105804
 40
10.5388209365974
 50
239.19633096050362
 51
267.95045107810108
  0
ARC
  8
_0-1_レイヤ___3
  6
CONTINUOUS
 62
    7
 10
1880.993607559039
 20
927.59114500087344
 40
13.165603181537183
 50
266.24889350317801
 51
297.69384985978184
  0
ARC
  8
_0-1_レイヤ___3
  6
CONTINUOUS
 62
    7
 10
1884.9149587980678
 20
920.16032292678028
 40
4.7636303445982779
 50
297.46913797536791
 51
340.0343201657065
  0
ARC
  8
_0-1_レイヤ___3
  6
CONTINUOUS
 62
    7
 10
1886.2924100241212
 20
919.3876128364675
 40
3.215321813077602
 50
344.59967762462423
 51
32.892646900520084
  0
ARC
  8
_0-1_レイヤ___3
  6
CONTINUOUS
 62
    7
 10
1884.356218801966
 20
918.17341413230474
 40
5.5006049350606698
 50
32.560043371278717
 51
59.93068516223569
  0
ARC
  8
_0-1_レイヤ___3
  6
CONTINUOUS
 62
    7
 10
1881.4745990128604
 20
911.75602297440014
 40
12.518985044469115
 50
63.235097257200238
 51
89.186768042238185
  0
ARC
  8
_0-1_レイヤ___3
  6
CONTINUOUS
 62
    7
 10
1881.0368134809419
 20
910.64804958672062
 40
13.639590618200799
 50
87.413724561063503
 51
115.7447571443704
  0
ARC
  8
_0-1_レイヤ___3
  6
CONTINUOUS
 62
    7
 10
1877.6395356825383
 20
918.26296109795612
 40
5.3106733338758367
 50
118.41678799136847
 51
158.68057595643774
  0
ARC
  8
_0-1_レイヤ___3
  6
CONTINUOUS
 62
    7
 10
1875.562148884349
 20
919.35738604437211
 40
2.9892531586686237
 50
163.75237162306544
 51
212.89892903776038
  0
ARC
  8
_0-1_レイヤ___3
  6
CONTINUOUS
 62
    7
 10
1877.2903962474929
 20
920.50525531319204
 40
5.0638788379375299
 50
213.1826190526489
 51
244.5243418545578
  0
ARC
  8
_0-1_レイヤ___3
  6
CONTINUOUS
 62
    7
 10
1881.112282203007
 20
920.74683120434793
 40
2.4520415865132064
 50
235.18330611879065
 51
304.8166938812094
  0
ARC
  8
_0-1_レイヤ___3
  6
CONTINUOUS
 62
    7
 10
1882.1201110704142
 20
919.53374701783468
 40
0.8909535325921514
 50
296.11473662589816
 51
63.885263374101875
  0
ARC
  8
_0-1_レイヤ___3
  6
CONTINUOUS
 62
    7
 10
1881.112282203007
 20
918.32066283132144
 40
2.4520415865132064
 50
55.18330611879064
 51
124.81669388120939
  0
ARC
  8
_0-1_レイヤ___3
  6
CONTINUOUS
 62
    7
 10
1880.1044533355985
 20
919.53374701783468
 40
0.8909535325921514
 50
116.11473662589815
 51
243.8852633741019
  0
LINE
  8
_0-0_文字
  6
CONTINUOUS
 62
    7
 10
1538.8943457757018
 20
1258.6803169514062
 11
1683.4943437757015
 21
1509.2803129514059
  0
LINE
  8
_0-0_文字
  6
CONTINUOUS
 62
    7
 10
1683.4943437757015
 20
1509.2803129514059
 11
1702.8943437757021
 21
1509.2803129514059
  0
TEXT
  8
_0-0_文字
 62
    7
 10
1702.8943437757021
 20
1486.2803129514059
 40
45.999999999999943
 41
1.0000000000000011
 50
0
  1
FL鋼板
  0
TEXT
  8
_0-0_文字
 62
    7
 10
1998.7122802030062
 20
1255.5337410178349
 40
45.999999999999943
 41
1.0000000000000002
 50
0
  1
リベットルーフ
  0
TEXT
  8
_0-0_文字
 62
    7
 10
2041.5122782030057
 20
1109.733743017835
 40
45.999999999999943
 41
0.9999999999999997
 50
0
  1
AYパネルV
  0
TEXT
  8
_0-0_文字
 62
    7
 10
1994.9122802030065
 20
937.13374501783505
 40
45.999999999999943
 41
1.0000000000000011
 50
0
  1
IHディスク
  0
TEXT
  8
_0-0_文字
 62
    7
 10
2095.7122782030065
 20
664.73374901783473
 40
45.999999999999943
 41
1.0000000000000011
 50
0
  1
断熱材
  0
ENDSEC
  0
EOF
