  0
SECTION
  2
HEADER
  9
$ACADVER
  1
AC1009
  9
$INSBASE
 10
0
 20
0
 30
0
  9
$EXTMIN
 10
0
 20
0
  9
$EXTMAX
 10
2970
 20
2100
  9
$LIMMIN
 10
0
 20
0
  9
$LIMMAX
 10
2970
 20
2100
  9
$LTSCALE
 40
10
  0
ENDSEC
  0
SECTION
  2
TABLES
  0
TABLE
  2
LTYPE
 70
     9
  0
LTYPE
  2
CONTINUOUS
 70
    64
  3
実線
 72
    65
 73
     0
 40
0.0
  0
LTYPE
  2
DASHED1
 70
    64
  3
--  --  --  --  --  --  --  --  
 72
    65
 73
     2
 40
2.5
 49
1.25
 49
-1.25
  0
LTYPE
  2
DASHED2
 70
    64
  3
----    ----    ----    ----    
 72
    65
 73
     2
 40
5.0
 49
2.5
 49
-2.5
  0
LTYPE
  2
DASHED3
 70
    64
  3
------  ------  ------  ------  
 72
    65
 73
     2
 40
5.0
 49
3.75
 49
-1.25
  0
LTYPE
  2
CENTER1
 70
    64
  3
----- - ----- - ----- - ----- - 
 72
    65
 73
     4
 40
10.0
 49
6.25
 49
-1.25
 49
1.25
 49
-1.25
  0
LTYPE
  2
CENTER2
 70
    64
  3
----------  --  ----------  --  
 72
    65
 73
     4
 40
20.0
 49
12.5
 49
-2.5
 49
2.5
 49
-2.5
  0
LTYPE
  2
PHANTOM1
 70
    64
  3
--- - - --- - - --- - - --- - - 
 72
    65
 73
     6
 40
10.0
 49
3.25
 49
-1.25
 49
1.25
 49
-1.25
 49
1.25
 49
-1.25
  0
LTYPE
  2
PHANTOM2
 70
    64
  3
--------  -  -  --------  -  -  
 72
    65
 73
     6
 40
20.0
 49
10.0
 49
-2.5
 49
1.25
 49
-2.5
 49
1.25
 49
-2.5
  0
LTYPE
  2
DOT
 70
    64
  3
-   -   -   -   -   -   -   -   
 72
    65
 73
     2
 40
2.5
 49
0.625
 49
-1.875
  0
LTYPE
  2
DUMMY
 70
    64
  3
ダミー
 72
    65
 73
     0
 40
0.0
  0
LTYPE
  2
RAND1
 70
    64
  3
ランダム線1
 72
    65
 73
     4
 40
10.0
 49
1.0
 49
-2.0
 49
3.0
 49
-4.0
  0
LTYPE
  2
RAND2
 70
    64
  3
ランダム線2
 72
    65
 73
     4
 40
14.0
 49
2.0
 49
-3.0
 49
4.0
 49
-5.0
  0
LTYPE
  2
RAND3
 70
    64
  3
ランダム線3
 72
    65
 73
     4
 40
18.0
 49
3.0
 49
-4.0
 49
5.0
 49
-6.0
  0
LTYPE
  2
RAND4
 70
    64
  3
ランダム線4
 72
    65
 73
     4
 40
22.0
 49
4.0
 49
-5.0
 49
6.0
 49
-7.0
  0
LTYPE
  2
RAND5
 70
    64
  3
ランダム線5
 72
    65
 73
     4
 40
26.0
 49
5.0
 49
-6.0
 49
7.0
 49
-8.0
  0
LTYPE
  2
LONG1
 70
    64
  3
----------  --  ----------  --  
 72
    65
 73
     4
 40
40.0
 49
32.5
 49
-2.5
 49
2.5
 49
-2.5
  0
LTYPE
  2
LONG2
 70
    64
  3
--------  -  -  --------  -  -  
 72
    65
 73
     6
 40
40.0
 49
30.0
 49
-2.5
 49
1.25
 49
-2.5
 49
1.25
 49
-2.5
  0
LTYPE
  2
LONG3
 70
    64
  3
+++++++++++++++..+++++++++++++++
 72
    65
 73
     2
 40
40.0
 49
37.5
 49
-2.5
  0
LTYPE
  2
LONG4
 70
    64
  3
+++++++++++++++..+++++++++++++++
 72
    65
 73
     2
 40
80.0
 49
75.0
 49
-5.0
  0
LTYPE
  2
LONG5
 70
    64
  3
----------  --  ----------  --  
 72
    65
 73
     4
 40
60.0
 49
37.5
 49
-7.5
 49
7.5
 49
-7.5
  0
LTYPE
  2
dashed
 70
   64
  3
-------   -------------   ------
 72
   65
 73
    2
 40
7.5
 49
6
 49
-1.5
  0
LTYPE
  2
dashed_spaced
 70
   64
  3
----        --------        ----
 72
   65
 73
    2
 40
12
 49
6
 49
-6
  0
LTYPE
  2
long_dashed_dotted
 70
   64
  3
------------- --- --------------
 72
   65
 73
    4
 40
15.25
 49
12
 49
-1.5
 49
0.25
 49
-1.5
  0
LTYPE
  2
long_dashed_double-dotted
 70
   64
  3
----------- --- --- ------------
 72
   65
 73
    6
 40
17
 49
12
 49
-1.5
 49
0.25
 49
-1.5
 49
0.25
 49
-1.5
  0
LTYPE
  2
long_dashed_triplicate-dotted
 70
   64
  3
--------- --- --- --- ----------
 72
   65
 73
    8
 40
18.75
 49
12
 49
-1.5
 49
0.25
 49
-1.5
 49
0.25
 49
-1.5
 49
0.25
 49
-1.5
  0
LTYPE
  2
dotted
 70
   64
  3
   -       -       -       -    
 72
   65
 73
    2
 40
1.75
 49
0.25
 49
-1.5
  0
LTYPE
  2
chain
 70
   64
  3
-------------- -- --------------
 72
   65
 73
    4
 40
18.5
 49
12
 49
-1.5
 49
3.5
 49
-1.5
  0
LTYPE
  2
chain_double_dash
 70
   64
  3
------------ -- -- -------------
 72
   65
 73
    6
 40
23.5
 49
12
 49
-1.5
 49
3.5
 49
-1.5
 49
3.5
 49
-1.5
  0
LTYPE
  2
dashed_dotted
 70
   64
  3
-----------     -     ----------
 72
   65
 73
    4
 40
9.25
 49
6
 49
-1.5
 49
0.25
 49
-1.5
  0
LTYPE
  2
double-dashed_dotted
 70
   64
  3
------   -----------   -   -----
 72
   65
 73
    6
 40
16.75
 49
6
 49
-1.5
 49
6
 49
-1.5
 49
0.25
 49
-1.5
  0
LTYPE
  2
dashed_double-dotted
 70
   64
  3
---------    -    -    ---------
 72
   65
 73
    6
 40
11
 49
6
 49
-1.5
 49
0.25
 49
-1.5
 49
0.25
 49
-1.5
  0
LTYPE
  2
double-dashed_double-dotted
 70
   64
  3
-----   ---------   -   -   ----
 72
   65
 73
    8
 40
18.5
 49
6
 49
-1.5
 49
6
 49
-1.5
 49
0.25
 49
-1.5
 49
0.25
 49
-1.5
  0
LTYPE
  2
dashed_triplicate-dotted
 70
   64
  3
-------    -    -    -    ------
 72
   65
 73
    8
 40
12.75
 49
6
 49
-1.5
 49
0.25
 49
-1.5
 49
0.25
 49
-1.5
 49
0.25
 49
-1.5
  0
LTYPE
  2
double-dashed_triplicate-dotted
 70
   64
  3
-----  ---------  -  -  -  -----
 72
   65
 73
   10
 40
20.25
 49
6
 49
-1.5
 49
6
 49
-1.5
 49
0.25
 49
-1.5
 49
0.25
 49
-1.5
 49
0.25
 49
-1.5
  0
LTYPE
  2
undefined
 70
   64
  3
--------------------------------
 72
   65
 73
    0
 40
0
  0
LTYPE
  2
AIGENLINE001
 70
   64
  3
----        --------        ----
 72
   65
 73
    2
 40
4.5800000000000001
 49
2.29
 49
-2.29
  0
LTYPE
  2
AIGENLINE002
 70
   64
  3
------     -----------     -----
 72
   65
 73
    2
 40
6.8700000000000001
 49
4.5800000000000001
 49
-2.29
  0
ENDTAB
  0
TABLE
  2
STYLE
  5
3
100
AcDbSymbolTable
 70
     1
  0
STYLE
  5
10
100
AcDbSymbolTableRecord
100
AcDbTextStyleTableRecord
  2
STANDARD
 70
     0
 40
0.0
 41
1.0
 50
0.0
 71
     0
 42
0.2
  3
txt
  4
bigfont.shx
  0
STYLE
  5
26
100
AcDbSymbolTableRecord
100
AcDbTextStyleTableRecord
  2
TATEGAKI
 70
    68
 40
0.0
 41
1.0
 50
0.0
 71
     0
 42
1.0
  3
txt
  4
bigfont.shx
  0
ENDTAB
  0
TABLE
  2
LAYER
 70
    3
  0
LAYER
  2
_0-0_文字
 70
   64
 62
    7
  6
CONTINUOUS
  0
LAYER
  2
_0-1_レイヤ___3
 70
   64
 62
    7
  6
CONTINUOUS
  0
LAYER
  2
ADD_LINE
 70
   64
 62
    7
  6
CONTINUOUS
  0
ENDTAB
  0
ENDSEC
  0
SECTION
  2
BLOCKS
  0
ENDSEC
  0
SECTION
  2
ENTITIES
  0
ARC
  8
_0-1_レイヤ___3
  6
CONTINUOUS
 62
    7
 10
-7457.1225270732621
 20
10245.265671888299
 40
100.75331131322194
 50
212.54457606520913
 51
215.40440375223901
  0
ARC
  8
_0-1_レイヤ___3
  6
CONTINUOUS
 62
    7
 10
-7368.9514147695209
 20
10307.718363524889
 40
208.80176608438552
 50
215.35576722286694
 51
221.36723647424384
  0
ARC
  8
_0-1_レイヤ___3
  6
CONTINUOUS
 62
    7
 10
-7295.4624294196119
 20
10370.285434729602
 40
305.30820552446175
 50
221.06477429997616
 51
231.22765018658944
  0
ARC
  8
_0-1_レイヤ___3
  6
CONTINUOUS
 62
    7
 10
-7258.362933726452
 20
10413.75814627555
 40
362.43800051855288
 50
230.95883511048854
 51
251.35346403312775
  0
ARC
  8
_0-1_レイヤ___3
  6
CONTINUOUS
 62
    7
 10
-7236.372632740311
 20
10469.15351598549
 40
421.96811857702386
 50
250.92920805381576
 51
264.01576111916944
  0
ARC
  8
_0-1_レイヤ___3
  6
CONTINUOUS
 62
    7
 10
-7225.624236278828
 20
10543.900922169672
 40
497.43720610569824
 50
263.68207230856342
 51
270.12317171358148
  0
ARC
  8
_0-1_レイヤ___3
  6
CONTINUOUS
 62
    7
 10
-6992.0793464044109
 20
10245.524901377814
 40
100.97057184263099
 50
324.50269853745323
 51
327.35954730735853
  0
ARC
  8
_0-1_レイヤ___3
  6
CONTINUOUS
 62
    7
 10
-7080.3419905560786
 20
10307.947173220191
 40
209.07582118488784
 50
318.61534655888227
 51
324.62063211809948
  0
ARC
  8
_0-1_レイヤ___3
  6
CONTINUOUS
 62
    7
 10
-7153.8774882642865
 20
10370.555279866292
 40
305.64394410371006
 50
308.76992808749981
 51
318.92296844706647
  0
ARC
  8
_0-1_レイヤ___3
  6
CONTINUOUS
 62
    7
 10
-7190.9073149430596
 20
10414.013847156648
 40
362.71881065871321
 50
288.65165821912348
 51
309.03173518611686
  0
ARC
  8
_0-1_レイヤ___3
  6
CONTINUOUS
 62
    7
 10
-7212.7783179116759
 20
10469.116770693032
 40
421.93378546990601
 50
275.98762352174964
 51
289.07257752973072
  0
ARC
  8
_0-1_レイヤ___3
  6
CONTINUOUS
 62
    7
 10
-7223.4878580387031
 20
10543.581941679005
 40
497.11822129585721
 50
269.87702048518202
 51
276.31995190691799
  0
ARC
  8
_0-1_レイヤ___3
  6
CONTINUOUS
 62
    7
 10
-5185.0304285955899
 20
10245.524901377814
 40
100.97057184263099
 50
212.64045269264147
 51
215.49730146254677
  0
ARC
  8
_0-1_レイヤ___3
  6
CONTINUOUS
 62
    7
 10
-5096.767783943922
 20
10307.947182752343
 40
209.07582711155425
 50
215.37936993240487
 51
221.38465549162211
  0
ARC
  8
_0-1_レイヤ___3
  6
CONTINUOUS
 62
    7
 10
-5023.232286235715
 20
10370.555274237853
 40
305.6439400285019
 50
221.07703081915608
 51
231.23007117872271
  0
ARC
  8
_0-1_レイヤ___3
  6
CONTINUOUS
 62
    7
 10
-4986.2024600569393
 20
10414.01384715665
 40
362.71881065871611
 50
230.96826481388334
 51
251.34834178087678
  0
ARC
  8
_0-1_レイヤ___3
  6
CONTINUOUS
 62
    7
 10
-4964.331457088324
 20
10469.116770693026
 40
421.93378546990107
 50
250.92742247026916
 51
264.01237647825019
  0
ARC
  8
_0-1_レイヤ___3
  6
CONTINUOUS
 62
    7
 10
-4953.6219169612968
 20
10543.581941679005
 40
497.11822129585721
 50
263.68004809308201
 51
270.12297951481798
  0
ARC
  8
_0-1_レイヤ___3
  6
CONTINUOUS
 62
    7
 10
-4719.9458454184714
 20
10245.502223718258
 40
100.93010227782503
 50
324.50212566871829
 51
327.36012017609352
  0
ARC
  8
_0-1_レイヤ___3
  6
CONTINUOUS
 62
    7
 10
-4808.1795151263923
 20
10307.897670728831
 40
208.99619450303933
 50
318.61419937969004
 51
324.6217751962829
  0
ARC
  8
_0-1_レイヤ___3
  6
CONTINUOUS
 62
    7
 10
-4881.720450069015
 20
10370.546924357084
 40
305.59543296261558
 50
308.76110452106741
 51
318.91711841601511
  0
ARC
  8
_0-1_レイヤ___3
  6
CONTINUOUS
 62
    7
 10
-4918.8186128357247
 20
10414.07234736759
 40
362.76505117262622
 50
288.64440299195792
 51
309.02607158712721
  0
ARC
  8
_0-1_レイヤ___3
  6
CONTINUOUS
 62
    7
 10
-4940.7607794280339
 20
10469.392114969156
 40
422.20788163462777
 50
275.98405340598731
 51
289.06580929539717
  0
ARC
  8
_0-1_レイヤ___3
  6
CONTINUOUS
 62
    7
 10
-4951.4884073483645
 20
10543.953934779165
 40
497.49021243480115
 50
269.87717178965931
 51
276.31758418819595
  0
ARC
  8
_0-1_レイヤ___3
  6
CONTINUOUS
 62
    7
 10
-5820.122552073216
 20
10136.864055111702
 40
100.75331131325974
 50
144.59559624777546
 51
147.45542393480537
  0
ARC
  8
_0-1_レイヤ___3
  6
CONTINUOUS
 62
    7
 10
-5731.9514397695193
 20
10074.411363475112
 40
208.80176608438552
 50
138.63276352575616
 51
144.64423277713306
  0
ARC
  8
_0-1_レイヤ___3
  6
CONTINUOUS
 62
    7
 10
-5658.4624539196111
 20
10011.84428664744
 40
305.30820959523527
 50
128.77234907943739
 51
138.93522496605067
  0
ARC
  8
_0-1_レイヤ___3
  6
CONTINUOUS
 62
    7
 10
-5621.3629577264519
 20
9968.3715807244553
 40
362.43800051855004
 50
108.64653596687252
 51
129.04116488951172
  0
ARC
  8
_0-1_レイヤ___3
  6
CONTINUOUS
 62
    7
 10
-5599.37265674031
 20
9912.9762110145002
 40
421.96811857703369
 50
95.984238880830276
 51
109.07079194618395
  0
ARC
  8
_0-1_レイヤ___3
  6
CONTINUOUS
 62
    7
 10
-5588.6242602788279
 20
9838.228804830349
 40
497.437206105678
 50
89.876828286418629
 51
96.317927691436736
  0
ARC
  8
_0-1_レイヤ___3
  6
CONTINUOUS
 62
    7
 10
-5354.9872379267836
 20
10136.864055111679
 40
100.75331131327245
 50
32.544576065205391
 51
35.404403752235282
  0
ARC
  8
_0-1_レイヤ___3
  6
CONTINUOUS
 62
    7
 10
-5443.1583502304802
 20
10074.411363475123
 40
208.80176608437881
 50
35.3557672228646
 51
41.367236474241516
  0
ARC
  8
_0-1_レイヤ___3
  6
CONTINUOUS
 62
    7
 10
-5516.6473355803882
 20
10011.8442922704
 40
305.30820552446175
 50
41.064774299976172
 51
51.227650186589457
  0
ARC
  8
_0-1_レイヤ___3
  6
CONTINUOUS
 62
    7
 10
-5553.7468312735482
 20
9968.3715807244516
 40
362.43800051855288
 50
50.958835110488543
 51
71.35346403312775
  0
ARC
  8
_0-1_レイヤ___3
  6
CONTINUOUS
 62
    7
 10
-5575.737132259691
 20
9912.9762110145057
 40
421.96811857702875
 50
70.929208053815913
 51
84.015761119169582
  0
ARC
  8
_0-1_レイヤ___3
  6
CONTINUOUS
 62
    7
 10
-5586.4855287211731
 20
9838.2288048303399
 40
497.43720610568812
 50
83.682072308563349
 51
90.123171713581442
  0
ARC
  8
_0-1_レイヤ___3
  6
CONTINUOUS
 62
    7
 10
-2913.022595073262
 20
10245.265671888321
 40
100.75331131323469
 50
212.54457606521987
 51
215.40440375224975
  0
ARC
  8
_0-1_レイヤ___3
  6
CONTINUOUS
 62
    7
 10
-2824.851482769519
 20
10307.718363524882
 40
208.80176608438217
 50
215.35576722286575
 51
221.36723647424267
  0
ARC
  8
_0-1_レイヤ___3
  6
CONTINUOUS
 62
    7
 10
-2751.3624974196114
 20
10370.285434729598
 40
305.30820552445948
 50
221.06477429997577
 51
231.22765018658905
  0
ARC
  8
_0-1_レイヤ___3
  6
CONTINUOUS
 62
    7
 10
-2714.2630012264522
 20
10413.758149055178
 40
362.43800299241127
 50
230.95883532587561
 51
251.3534642485148
  0
ARC
  8
_0-1_レイヤ___3
  6
CONTINUOUS
 62
    7
 10
-2692.2727002403099
 20
10469.153511626333
 40
421.96811429374725
 50
250.92920792458665
 51
264.0157609899403
  0
ARC
  8
_0-1_レイヤ___3
  6
CONTINUOUS
 62
    7
 10
-2681.5243042788275
 20
10543.900922169658
 40
497.43720610568312
 50
263.68207230856331
 51
270.12317171358143
  0
ARC
  8
_0-1_レイヤ___3
  6
CONTINUOUS
 62
    7
 10
-2447.8872809267382
 20
10245.26567188831
 40
100.75331131322829
 50
324.59559624775562
 51
327.45542393478553
  0
ARC
  8
_0-1_レイヤ___3
  6
CONTINUOUS
 62
    7
 10
-2536.0583932304803
 20
10307.718363524889
 40
208.80176608438552
 50
318.63276352575616
 51
324.64423277713308
  0
ARC
  8
_0-1_レイヤ___3
  6
CONTINUOUS
 62
    7
 10
-2609.5473785803892
 20
10370.285434729598
 40
305.30820552445948
 50
308.77234981341098
 51
318.93522570002426
  0
ARC
  8
_0-1_レイヤ___3
  6
CONTINUOUS
 62
    7
 10
-2646.646874773548
 20
10413.758149055178
 40
362.43800299241127
 50
288.6465357514852
 51
309.04116467412439
  0
ARC
  8
_0-1_レイヤ___3
  6
CONTINUOUS
 62
    7
 10
-2668.6371757596903
 20
10469.153511626329
 40
421.96811429374492
 50
275.98423901005975
 51
289.07079207541341
  0
ARC
  8
_0-1_レイヤ___3
  6
CONTINUOUS
 62
    7
 10
-2679.3855722211724
 20
10543.900931055636
 40
497.43721499271589
 50
269.87682823102801
 51
276.31792763604608
  0
ARC
  8
_0-1_レイヤ___3
  6
CONTINUOUS
 62
    7
 10
-3548.0304525955444
 20
10136.604825622173
 40
100.97057184267514
 50
144.50269853746238
 51
147.35954730736768
  0
ARC
  8
_0-1_レイヤ___3
  6
CONTINUOUS
 62
    7
 10
-3459.7678084439217
 20
10074.182553779816
 40
209.07582118488446
 50
138.6153465588834
 51
144.62063211810062
  0
ARC
  8
_0-1_レイヤ___3
  6
CONTINUOUS
 62
    7
 10
-3386.2323107357138
 20
10011.574447133704
 40
305.6439441037146
 50
128.76992808749898
 51
138.92296844706561
  0
ARC
  8
_0-1_レイヤ___3
  6
CONTINUOUS
 62
    7
 10
-3349.2024840569402
 20
9968.1158798433553
 40
362.71881065871321
 50
108.65165821912348
 51
129.03173518611692
  0
ARC
  8
_0-1_レイヤ___3
  6
CONTINUOUS
 62
    7
 10
-3327.3314810883239
 20
9913.0129563069768
 40
421.93378546990107
 50
95.987623521749811
 51
109.07257752973085
  0
ARC
  8
_0-1_レイヤ___3
  6
CONTINUOUS
 62
    7
 10
-3316.6219409612968
 20
9838.547785320985
 40
497.11822129586727
 50
89.877020485181959
 51
96.319951906917922
  0
ARC
  8
_0-1_レイヤ___3
  6
CONTINUOUS
 62
    7
 10
-3082.9458704185172
 20
10136.627503281728
 40
100.93010227786918
 50
32.639879823897374
 51
35.497874331272577
  0
ARC
  8
_0-1_レイヤ___3
  6
CONTINUOUS
 62
    7
 10
-3171.1795401263917
 20
10074.232056271177
 40
208.99619450303595
 50
35.378224803715909
 51
41.385800620308785
  0
ARC
  8
_0-1_レイヤ___3
  6
CONTINUOUS
 62
    7
 10
-3244.7204745690146
 20
10011.582808269704
 40
305.59542888809187
 50
41.082880850402226
 51
51.23889474534996
  0
ARC
  8
_0-1_レイヤ___3
  6
CONTINUOUS
 62
    7
 10
-3281.8186368357237
 20
9968.0573796324115
 40
362.76505117262764
 50
50.973928412872894
 51
71.355597008042196
  0
ARC
  8
_0-1_レイヤ___3
  6
CONTINUOUS
 62
    7
 10
-3303.7608034280352
 20
9912.73761203084
 40
422.20788163463277
 50
70.934190704602969
 51
84.015946594012817
  0
ARC
  8
_0-1_レイヤ___3
  6
CONTINUOUS
 62
    7
 10
-3314.4884313483644
 20
9838.1757922208526
 40
497.49021243478586
 50
83.682415811803978
 51
90.1228282103406
  0
ARC
  8
_0-1_レイヤ___3
  6
CONTINUOUS
 62
    7
 10
-6834.9576104027974
 20
10144.758611797955
 40
85.687131946339932
 50
144.22233369227075
 51
147.28839169837414
  0
ARC
  8
_0-1_レイヤ___3
  6
CONTINUOUS
 62
    7
 10
-6772.3665018165402
 20
10100.105046321711
 40
162.57352260626021
 50
139.79746805851795
 51
144.35142471935831
  0
ARC
  8
_0-1_レイヤ___3
  6
CONTINUOUS
 62
    7
 10
-6716.1446876625705
 20
10053.353651080004
 40
235.69226502681684
 50
128.64561282955955
 51
139.93931535075046
  0
ARC
  8
_0-1_レイヤ___3
  6
CONTINUOUS
 62
    7
 10
-6684.3717736842755
 20
10016.65063554152
 40
284.20673230090733
 50
110.99190648966825
 51
129.02750531113131
  0
ARC
  8
_0-1_レイヤ___3
  6
CONTINUOUS
 62
    7
 10
-6666.7549979676569
 20
9975.7474653034878
 40
328.71106488204566
 50
95.239897903240603
 51
111.30471079897622
  0
ARC
  8
_0-1_レイヤ___3
  6
CONTINUOUS
 62
    7
 10
-6657.2413299848804
 20
9909.5217699453515
 40
395.54368721071808
 50
89.900565237320635
 51
95.736139417888069
  0
ARC
  8
_0-1_レイヤ___3
  6
CONTINUOUS
 62
    7
 10
-6478.1521475972031
 20
10144.758611797977
 40
85.68713194632798
 50
32.711608301614113
 51
35.777666307717489
  0
ARC
  8
_0-1_レイヤ___3
  6
CONTINUOUS
 62
    7
 10
-6540.7432561834594
 20
10100.105046321711
 40
162.57352260626021
 50
35.648575280641708
 51
40.202531941482064
  0
ARC
  8
_0-1_レイヤ___3
  6
CONTINUOUS
 62
    7
 10
-6596.9650698374298
 20
10053.353656136811
 40
235.69226138958246
 50
40.060683786625717
 51
51.354386307816618
  0
ARC
  8
_0-1_レイヤ___3
  6
CONTINUOUS
 62
    7
 10
-6628.7379833157238
 20
10016.650635541526
 40
284.20673230090097
 50
50.972494688867947
 51
69.008093510331008
  0
ARC
  8
_0-1_レイヤ___3
  6
CONTINUOUS
 62
    7
 10
-6646.3547595323425
 20
9975.7474617603402
 40
328.71106836472558
 50
68.695289344213663
 51
84.760102239949276
  0
ARC
  8
_0-1_レイヤ___3
  6
CONTINUOUS
 62
    7
 10
-6655.8684275151199
 20
9909.5217797552341
 40
395.54367739998446
 50
84.263860512151453
 51
90.099434692718887
  0
ARC
  8
_0-1_レイヤ___3
  6
CONTINUOUS
 62
    7
 10
-6333.9576174028389
 20
10237.371115202044
 40
85.687131946304817
 50
212.71160830164183
 51
215.77766630774522
  0
ARC
  8
_0-1_レイヤ___3
  6
CONTINUOUS
 62
    7
 10
-6271.3665088165408
 20
10282.024680678278
 40
162.57352260625143
 50
215.64857528063774
 51
220.20253194147807
  0
ARC
  8
_0-1_レイヤ___3
  6
CONTINUOUS
 62
    7
 10
-6215.1446951625703
 20
10328.77607086319
 40
235.69226138958246
 50
220.0606837866257
 51
231.35438630781661
  0
ARC
  8
_0-1_レイヤ___3
  6
CONTINUOUS
 62
    7
 10
-6183.3717816842764
 20
10365.479091458477
 40
284.20673230090415
 50
230.9724946888683
 51
249.00809351033138
  0
ARC
  8
_0-1_レイヤ___3
  6
CONTINUOUS
 62
    7
 10
-6165.7550054676576
 20
10406.382265239659
 40
328.71106836472171
 50
248.69528934421351
 51
264.76010223994911
  0
ARC
  8
_0-1_レイヤ___3
  6
CONTINUOUS
 62
    7
 10
-6156.2413374848802
 20
10472.607947244769
 40
395.54367739998446
 50
264.26386051215144
 51
270.09943469271889
  0
ARC
  8
_0-1_レイヤ___3
  6
CONTINUOUS
 62
    7
 10
-5977.1521550971602
 20
10237.371096519395
 40
85.687121429300191
 50
324.22234402269203
 51
327.28840202879542
  0
ARC
  8
_0-1_レイヤ___3
  6
CONTINUOUS
 62
    7
 10
-6039.743263183459
 20
10282.024680678278
 40
162.57352260625143
 50
319.79746805852193
 51
324.35142471936229
  0
ARC
  8
_0-1_レイヤ___3
  6
CONTINUOUS
 62
    7
 10
-6095.9650773374287
 20
10328.776075920003
 40
235.69226502682088
 50
308.64561282955856
 51
319.9393153507495
  0
ARC
  8
_0-1_レイヤ___3
  6
CONTINUOUS
 62
    7
 10
-6127.7379913157238
 20
10365.479091458477
 40
284.20673230090415
 50
290.99190648966862
 51
309.02750531113168
  0
ARC
  8
_0-1_レイヤ___3
  6
CONTINUOUS
 62
    7
 10
-6145.3547670323424
 20
10406.382261696517
 40
328.71106488204964
 50
275.23989790324043
 51
291.30471079897609
  0
ARC
  8
_0-1_レイヤ___3
  6
CONTINUOUS
 62
    7
 10
-6154.8684350151198
 20
10472.60795705465
 40
395.54368721071808
 50
269.90056523732062
 51
275.73613941788807
  0
ARC
  8
_0-1_レイヤ___3
  6
CONTINUOUS
 62
    7
 10
-4562.8576439027975
 20
10144.758630480626
 40
85.687121429323383
 50
144.22234402271977
 51
147.28840202882316
  0
ARC
  8
_0-1_レイヤ___3
  6
CONTINUOUS
 62
    7
 10
-4500.2665358165405
 20
10100.105046321711
 40
162.57352260626021
 50
139.79746805851795
 51
144.35142471935831
  0
ARC
  8
_0-1_レイヤ___3
  6
CONTINUOUS
 62
    7
 10
-4444.0447216625707
 20
10053.353651079999
 40
235.69226502682088
 50
128.64561282955856
 51
139.93931535074947
  0
ARC
  8
_0-1_レイヤ___3
  6
CONTINUOUS
 62
    7
 10
-4412.2718076842757
 20
10016.650635541522
 40
284.20673230090415
 50
110.99190648966862
 51
129.0275053111317
  0
ARC
  8
_0-1_レイヤ___3
  6
CONTINUOUS
 62
    7
 10
-4394.6550319676571
 20
9975.747465303486
 40
328.71106488204964
 50
95.239897903240447
 51
111.30471079897607
  0
ARC
  8
_0-1_レイヤ___3
  6
CONTINUOUS
 62
    7
 10
-4385.1413639848806
 20
9909.5217699453642
 40
395.54368721070705
 50
89.90056523732072
 51
95.73613941788814
  0
ARC
  8
_0-1_レイヤ___3
  6
CONTINUOUS
 62
    7
 10
-4206.1892611875182
 20
10144.733370282671
 40
85.731971558135825
 50
32.712410299046745
 51
35.776864310284864
  0
ARC
  8
_0-1_レイヤ___3
  6
CONTINUOUS
 62
    7
 10
-4268.8078522340775
 20
10100.054739876003
 40
162.65530541513274
 50
35.649720744070684
 51
40.201386478045109
  0
ARC
  8
_0-1_レイヤ___3
  6
CONTINUOUS
 62
    7
 10
-4325.0235368896301
 20
10053.33922448892
 40
235.74627358302268
 50
40.05422816298821
 51
51.343586766425858
  0
ARC
  8
_0-1_レイヤ___3
  6
CONTINUOUS
 62
    7
 10
-4357.5478157618109
 20
10015.621078401622
 40
285.52275923749096
 50
50.974792361685537
 51
70.765150450440316
  0
ARC
  8
_0-1_レイヤ___3
  6
CONTINUOUS
 62
    7
 10
-4375.8269770371544
 20
9970.1725065434257
 40
334.4639357459223
 50
70.373519651520297
 51
85.910519893971738
  0
ARC
  8
_0-1_レイヤ___3
  6
CONTINUOUS
 62
    7
 10
-4383.9992004674614
 20
9903.8985793447791
 40
401.16654099226736
 50
85.421325868018101
 51
90.065086140256781
  0
ARC
  8
_0-1_レイヤ___3
  6
CONTINUOUS
 62
    7
 10
-4061.8622254001116
 20
10237.436075383321
 40
85.802528749285102
 50
212.71367058105758
 51
215.7756040283295
  0
ARC
  8
_0-1_レイヤ___3
  6
CONTINUOUS
 62
    7
 10
-3999.1870760191214
 20
10282.286544738772
 40
162.87201205520844
 50
215.68663731110288
 51
220.23440846731762
  0
ARC
  8
_0-1_レイヤ___3
  6
CONTINUOUS
 62
    7
 10
-3942.9175568337532
 20
10329.089688295313
 40
236.06034213028335
 50
220.0850184249372
 51
231.36454602664637
  0
ARC
  8
_0-1_レイヤ___3
  6
CONTINUOUS
 62
    7
 10
-3910.3895361090076
 20
10366.825234270487
 40
285.8521394627619
 50
230.99411895665307
 51
250.76855345956992
  0
ARC
  8
_0-1_レイヤ___3
  6
CONTINUOUS
 62
    7
 10
-3892.1624755039556
 20
10412.175246068236
 40
334.68285969358692
 50
250.37954526170159
 51
265.90970154733179
  0
ARC
  8
_0-1_レイヤ___3
  6
CONTINUOUS
 62
    7
 10
-3884.0090733106636
 20
10478.2707129091
 40
401.2061044525978
 50
265.42155495706544
 51
270.06485705120957
  0
ARC
  8
_0-1_レイヤ___3
  6
CONTINUOUS
 62
    7
 10
-3705.1521885971601
 20
10237.371115202024
 40
85.687131946292851
 50
324.22233369226649
 51
327.28839169836988
  0
ARC
  8
_0-1_レイヤ___3
  6
CONTINUOUS
 62
    7
 10
-3767.7432971834596
 20
10282.024680678292
 40
162.57352260626021
 50
319.79746805851795
 51
324.35142471935831
  0
ARC
  8
_0-1_レイヤ___3
  6
CONTINUOUS
 62
    7
 10
-3823.9651113374293
 20
10328.776075920003
 40
235.69226502682088
 50
308.64561282955856
 51
319.9393153507495
  0
ARC
  8
_0-1_レイヤ___3
  6
CONTINUOUS
 62
    7
 10
-3855.7380253157235
 20
10365.479091458477
 40
284.20673230090415
 50
290.99190648966862
 51
309.02750531113168
  0
ARC
  8
_0-1_レイヤ___3
  6
CONTINUOUS
 62
    7
 10
-3873.354801032342
 20
10406.382261696512
 40
328.71106488204566
 50
275.2398979032406
 51
291.3047107989762
  0
ARC
  8
_0-1_レイヤ___3
  6
CONTINUOUS
 62
    7
 10
-3882.8684690151194
 20
10472.60795705465
 40
395.54368721071808
 50
269.90056523732062
 51
275.73613941788807
  0
ARC
  8
_0-1_レイヤ___3
  6
CONTINUOUS
 62
    7
 10
-2290.8576774027965
 20
10144.758611797966
 40
85.687131946333949
 50
144.22233369227664
 51
147.28839169838002
  0
ARC
  8
_0-1_レイヤ___3
  6
CONTINUOUS
 62
    7
 10
-2228.2665688165407
 20
10100.105046321725
 40
162.57352260625143
 50
139.79746805852193
 51
144.35142471936226
  0
ARC
  8
_0-1_レイヤ___3
  6
CONTINUOUS
 62
    7
 10
-2172.0447551625703
 20
10053.353656136807
 40
235.69226138958453
 50
128.64561369218288
 51
139.93931621337379
  0
ARC
  8
_0-1_レイヤ___3
  6
CONTINUOUS
 62
    7
 10
-2140.2718416842758
 20
10016.650635541526
 40
284.20673230090256
 50
110.99190648966881
 51
129.02750531113188
  0
ARC
  8
_0-1_レイヤ___3
  6
CONTINUOUS
 62
    7
 10
-2122.6550654676571
 20
9975.747461760342
 40
328.71106836472364
 50
95.239897760050809
 51
111.30471065578642
  0
ARC
  8
_0-1_レイヤ___3
  6
CONTINUOUS
 62
    7
 10
-2113.1413974848801
 20
9909.5217797552341
 40
395.54367739998446
 50
89.900565307281127
 51
95.736139487848547
  0
ARC
  8
_0-1_レイヤ___3
  6
CONTINUOUS
 62
    7
 10
-1934.0522155972035
 20
10144.758611797955
 40
85.687131946339932
 50
32.711608301625859
 51
35.777666307729241
  0
ARC
  8
_0-1_レイヤ___3
  6
CONTINUOUS
 62
    7
 10
-1996.6433241834598
 20
10100.105046321725
 40
162.57352260625143
 50
35.648575280637729
 51
40.202531941478085
  0
ARC
  8
_0-1_レイヤ___3
  6
CONTINUOUS
 62
    7
 10
-2052.8651378374298
 20
10053.353656136811
 40
235.69226138958246
 50
40.060683786625717
 51
51.354386307816618
  0
ARC
  8
_0-1_レイヤ___3
  6
CONTINUOUS
 62
    7
 10
-2084.6380513157237
 20
10016.650635541526
 40
284.20673230090256
 50
50.972494688868125
 51
69.008093510331193
  0
ARC
  8
_0-1_レイヤ___3
  6
CONTINUOUS
 62
    7
 10
-2102.2548275323425
 20
9975.747461760342
 40
328.71106836472364
 50
68.695289344213577
 51
84.760102239949205
  0
ARC
  8
_0-1_レイヤ___3
  6
CONTINUOUS
 62
    7
 10
-2111.7684955151199
 20
9909.5217797552286
 40
395.54367739998997
 50
84.263860512151496
 51
90.09943469271893
  0
ARC
  8
_0-1_レイヤ___3
  6
CONTINUOUS
 62
    7
 10
-1789.8576854028386
 20
10237.371115202044
 40
85.687131946304817
 50
212.71160830164183
 51
215.77766630774522
  0
ARC
  8
_0-1_レイヤ___3
  6
CONTINUOUS
 62
    7
 10
-1727.2665768165405
 20
10282.024680678269
 40
162.57352260624702
 50
215.64857528063575
 51
220.20253194147608
  0
ARC
  8
_0-1_レイヤ___3
  6
CONTINUOUS
 62
    7
 10
-1671.0447626625705
 20
10328.776075920005
 40
235.69226502682301
 50
220.06068464925102
 51
231.35438717044192
  0
ARC
  8
_0-1_レイヤ___3
  6
CONTINUOUS
 62
    7
 10
-1639.2718491842761
 20
10365.479088307937
 40
284.20672953857877
 50
230.9724943672266
 51
249.00809318868966
  0
ARC
  8
_0-1_レイヤ___3
  6
CONTINUOUS
 62
    7
 10
-1621.6550734676571
 20
10406.382265239659
 40
328.71106836472364
 50
248.69528934421356
 51
264.76010223994922
  0
ARC
  8
_0-1_レイヤ___3
  6
CONTINUOUS
 62
    7
 10
-1612.1414054848799
 20
10472.607947244769
 40
395.54367739998446
 50
264.26386051215144
 51
270.09943469271889
  0
ARC
  8
_0-1_レイヤ___3
  6
CONTINUOUS
 62
    7
 10
-1433.0522225971606
 20
10237.371115202033
 40
85.68713194629882
 50
324.22233369226063
 51
327.28839169836402
  0
ARC
  8
_0-1_レイヤ___3
  6
CONTINUOUS
 62
    7
 10
-1495.6433311834594
 20
10282.024680678278
 40
162.57352260625143
 50
319.79746805852193
 51
324.35142471936229
  0
ARC
  8
_0-1_レイヤ___3
  6
CONTINUOUS
 62
    7
 10
-1551.8651453374298
 20
10328.77607592001
 40
235.69226502682505
 50
308.64561282955759
 51
319.93931535074847
  0
ARC
  8
_0-1_レイヤ___3
  6
CONTINUOUS
 62
    7
 10
-1583.6380588157244
 20
10365.479088307933
 40
284.20672953857724
 50
290.99190681131051
 51
309.02750563277357
  0
ARC
  8
_0-1_レイヤ___3
  6
CONTINUOUS
 62
    7
 10
-1601.2548345323426
 20
10406.382265239659
 40
328.71106836472171
 50
275.23989776005089
 51
291.30471065578649
  0
ARC
  8
_0-1_レイヤ___3
  6
CONTINUOUS
 62
    7
 10
-1610.7685030151197
 20
10472.60795705465
 40
395.54368721071808
 50
269.90056523732062
 51
275.73613941788807
  0
ARC
  8
_0-1_レイヤ___3
  6
CONTINUOUS
 62
    7
 10
-640.93049659558972
 20
10245.524901377827
 40
100.9705718426374
 50
212.64045269264682
 51
215.49730146255212
  0
ARC
  8
_0-1_レイヤ___3
  6
CONTINUOUS
 62
    7
 10
-552.66785194392128
 20
10307.947182752345
 40
209.0758271115559
 50
215.37936993240547
 51
221.38465549162268
  0
ARC
  8
_0-1_レイヤ___3
  6
CONTINUOUS
 62
    7
 10
-479.13235423571393
 20
10370.555274237853
 40
305.6439400285019
 50
221.07703081915608
 51
231.23007117872271
  0
ARC
  8
_0-1_レイヤ___3
  6
CONTINUOUS
 62
    7
 10
-442.10252755693944
 20
10414.013849938307
 40
362.7188131343749
 50
230.96826502924114
 51
251.34834199623455
  0
ARC
  8
_0-1_レイヤ___3
  6
CONTINUOUS
 62
    7
 10
-420.23152458832328
 20
10469.11676633332
 40
421.93378118613771
 50
250.92742234098728
 51
264.01237634896836
  0
ARC
  8
_0-1_レイヤ___3
  6
CONTINUOUS
 62
    7
 10
-409.52198446129643
 20
10543.581950562448
 40
497.11823018035136
 50
263.68004814851218
 51
270.12297957024816
  0
ARC
  8
_0-1_レイヤ___3
  6
CONTINUOUS
 62
    7
 10
-175.84591341847215
 20
10245.502223718271
 40
100.93010227783145
 50
324.50212566871295
 51
327.36012017608812
  0
ARC
  8
_0-1_レイヤ___3
  6
CONTINUOUS
 62
    7
 10
-264.07958312639153
 20
10307.897670728826
 40
208.9961945030376
 50
318.6141993796906
 51
324.62177519628352
  0
ARC
  8
_0-1_レイヤ___3
  6
CONTINUOUS
 62
    7
 10
-337.62051756901485
 20
10370.546918730302
 40
305.59542888809415
 50
308.76110525464964
 51
318.91711914959734
  0
ARC
  8
_0-1_レイヤ___3
  6
CONTINUOUS
 62
    7
 10
-374.71868033572463
 20
10414.072350149027
 40
362.76505364824902
 50
288.6444027766882
 51
309.02607137185748
  0
ARC
  8
_0-1_レイヤ___3
  6
CONTINUOUS
 62
    7
 10
-396.6608469280348
 20
10469.392110608376
 40
422.20787734973584
 50
275.98405353516426
 51
289.06580942457413
  0
ARC
  8
_0-1_レイヤ___3
  6
CONTINUOUS
 62
    7
 10
-407.38847434836458
 20
10543.953934779156
 40
497.49021243479353
 50
269.87717178965937
 51
276.31758418819595
  0
ARC
  8
_0-1_レイヤ___3
  6
CONTINUOUS
 62
    7
 10
-1276.0226190732164
 20
10136.86405511169
 40
100.7533113132661
 50
144.59559624777009
 51
147.4554239348
  0
ARC
  8
_0-1_レイヤ___3
  6
CONTINUOUS
 62
    7
 10
-1187.8515067695196
 20
10074.411363475117
 40
208.80176608438217
 50
138.63276352575733
 51
144.64423277713425
  0
ARC
  8
_0-1_レイヤ___3
  6
CONTINUOUS
 62
    7
 10
-1114.3625214196113
 20
10011.8442922704
 40
305.30820552446175
 50
128.77234981341056
 51
138.93522570002384
  0
ARC
  8
_0-1_レイヤ___3
  6
CONTINUOUS
 62
    7
 10
-1077.2630257264518
 20
9968.3715807244535
 40
362.43800051855146
 50
108.64653596687239
 51
129.04116488951158
  0
ARC
  8
_0-1_レイヤ___3
  6
CONTINUOUS
 62
    7
 10
-1055.2727247403093
 20
9912.976211014502
 40
421.96811857703125
 50
95.984238880830361
 51
109.07079194618402
  0
ARC
  8
_0-1_レイヤ___3
  6
CONTINUOUS
 62
    7
 10
-1044.5243282788269
 20
9838.2288048303435
 40
497.43720610568312
 50
89.876828286418601
 51
96.317927691436694
  0
ARC
  8
_0-1_レイヤ___3
  6
CONTINUOUS
 62
    7
 10
-810.8873059267836
 20
10136.864055111695
 40
100.75331131326293
 50
32.544576065197333
 51
35.404403752227225
  0
ARC
  8
_0-1_レイヤ___3
  6
CONTINUOUS
 62
    7
 10
-899.05841773048019
 20
10074.411372997445
 40
208.80176016648454
 50
35.355765171199238
 51
41.367234422576153
  0
ARC
  8
_0-1_レイヤ___3
  6
CONTINUOUS
 62
    7
 10
-972.5474030803889
 20
10011.84428664744
 40
305.30820959523527
 50
41.064775033949324
 51
51.22765092056261
  0
ARC
  8
_0-1_レイヤ___3
  6
CONTINUOUS
 62
    7
 10
-1009.6468992735483
 20
9968.3715807244535
 40
362.43800051855209
 50
50.958835110488486
 51
71.353464033127693
  0
ARC
  8
_0-1_レイヤ___3
  6
CONTINUOUS
 62
    7
 10
-1031.6372002596906
 20
9912.9762110145039
 40
421.96811857702994
 50
70.929208053815955
 51
84.015761119169611
  0
ARC
  8
_0-1_レイヤ___3
  6
CONTINUOUS
 62
    7
 10
-1042.385596721173
 20
9838.2288048303435
 40
497.43720610568312
 50
83.682072308563306
 51
90.123171713581399
  0
ARC
  8
_0-1_レイヤ___3
  6
CONTINUOUS
 62
    7
 10
-18.757711402796531
 20
10144.758611797961
 40
85.687131946336947
 50
144.22233369227371
 51
147.2883916983771
  0
ARC
  8
_0-1_レイヤ___3
  6
CONTINUOUS
 62
    7
 10
43.83339718345951
 20
10100.105046321722
 40
162.57352260625362
 50
139.79746805852093
 51
144.35142471936129
  0
ARC
  8
_0-1_レイヤ___3
  6
CONTINUOUS
 62
    7
 10
100.05521083742991
 20
10053.353656136809
 40
235.69226138958345
 50
128.64561369218313
 51
139.93931621337404
  0
ARC
  8
_0-1_レイヤ___3
  6
CONTINUOUS
 62
    7
 10
131.82812431572415
 20
10016.650635541526
 40
284.20673230090256
 50
110.99190648966881
 51
129.02750531113188
  0
ARC
  8
_0-1_レイヤ___3
  6
CONTINUOUS
 62
    7
 10
149.4449005323429
 20
9975.7474617603439
 40
328.71106836472256
 50
95.239897760050852
 51
111.30471065578647
  0
ARC
  8
_0-1_レイヤ___3
  6
CONTINUOUS
 62
    7
 10
158.95856851511979
 20
9909.5217797552305
 40
395.54367739998719
 50
89.900565307281099
 51
95.736139487848533
  0
ARC
  8
_0-1_レイヤ___3
  6
CONTINUOUS
 62
    7
 10
337.95232440006856
 20
10144.693651616688
 40
85.802528749315769
 50
32.713670581037185
 51
35.77560402830909
  0
ARC
  8
_0-1_レイヤ___3
  6
CONTINUOUS
 62
    7
 10
275.27717551912218
 20
10099.843194853276
 40
162.87200430350629
 50
35.686633815836018
 51
40.234404972050754
  0
ARC
  8
_0-1_レイヤ___3
  6
CONTINUOUS
 62
    7
 10
219.00765633375315
 20
10053.040033641475
 40
236.0603457731514
 50
40.085019287030654
 51
51.364546888739845
  0
ARC
  8
_0-1_レイヤ___3
  6
CONTINUOUS
 62
    7
 10
186.47963510900809
 20
10015.304492729518
 40
285.85213946276093
 50
50.994118956652962
 51
70.768553459569802
  0
ARC
  8
_0-1_レイヤ___3
  6
CONTINUOUS
 62
    7
 10
168.25257500395566
 20
9969.954484598471
 40
334.68285607188528
 50
70.379545131548312
 51
85.909701417178496
  0
ARC
  8
_0-1_レイヤ___3
  6
CONTINUOUS
 62
    7
 10
160.0991728106635
 20
9903.859001758221
 40
401.20611678583725
 50
85.421555026476128
 51
90.064857120620218
  0
ARC
  8
_0-1_レイヤ___3
  6
CONTINUOUS
 62
    7
 10
482.27936018747573
 20
10237.396356717345
 40
85.731971558109663
 50
212.71241029907154
 51
215.77686431030966
  0
ARC
  8
_0-1_レイヤ___3
  6
CONTINUOUS
 62
    7
 10
544.89795123407805
 20
10282.074987124
 40
162.65530541513496
 50
215.64972074407166
 51
220.20138647804609
  0
ARC
  8
_0-1_レイヤ___3
  6
CONTINUOUS
 62
    7
 10
601.11363638963041
 20
10328.790507569851
 40
235.74627722112217
 50
220.05422902587941
 51
231.34358762931706
  0
ARC
  8
_0-1_レイヤ___3
  6
CONTINUOUS
 62
    7
 10
633.63791526181126
 20
10366.508645732083
 40
285.52275669592325
 50
230.9747920774642
 51
250.76515016621897
  0
ARC
  8
_0-1_レイヤ___3
  6
CONTINUOUS
 62
    7
 10
651.91707603715417
 20
10411.957220456574
 40
334.46393574591974
 50
250.37351965152021
 51
265.91051989397164
  0
ARC
  8
_0-1_レイヤ___3
  6
CONTINUOUS
 62
    7
 10
660.08929996746156
 20
10478.231159986703
 40
401.16655332430651
 50
265.42132593742883
 51
270.06508620966753
  0
ARC
  8
_0-1_レイヤ___3
  6
CONTINUOUS
 62
    7
 10
838.94774340283914
 20
10237.371115202037
 40
85.687131946301065
 50
324.22233369225842
 51
327.28839169836181
  0
ARC
  8
_0-1_レイヤ___3
  6
CONTINUOUS
 62
    7
 10
776.3566348165408
 20
10282.024680678278
 40
162.57352260625197
 50
319.79746805852164
 51
324.351424719362
  0
ARC
  8
_0-1_レイヤ___3
  6
CONTINUOUS
 62
    7
 10
720.13482116257035
 20
10328.77607086319
 40
235.69226138958373
 50
308.64561369218308
 51
319.93931621337396
  0
ARC
  8
_0-1_レイヤ___3
  6
CONTINUOUS
 62
    7
 10
688.36190768427605
 20
10365.479091458476
 40
284.20673230090233
 50
290.99190648966885
 51
309.0275053111319
  0
ARC
  8
_0-1_レイヤ___3
  6
CONTINUOUS
 62
    7
 10
670.7451314676573
 20
10406.382265239659
 40
328.71106836472325
 50
275.23989776005084
 51
291.30471065578644
  0
ARC
  8
_0-1_レイヤ___3
  6
CONTINUOUS
 62
    7
 10
661.23146348488046
 20
10472.607947244771
 40
395.54367739998719
 50
269.90056530728111
 51
275.7361394878485
  0
ARC
  8
_0-1_レイヤ___3
  6
CONTINUOUS
 62
    7
 10
1631.0773369267383
 20
10245.265671888308
 40
100.75331131322702
 50
212.54457606521339
 51
215.4044037522433
  0
ARC
  8
_0-1_レイヤ___3
  6
CONTINUOUS
 62
    7
 10
1719.2484492304802
 20
10307.718363524884
 40
208.80176608438285
 50
215.35576722286598
 51
221.3672364742429
  0
ARC
  8
_0-1_レイヤ___3
  6
CONTINUOUS
 62
    7
 10
1792.7374350803889
 20
10370.285440352563
 40
305.30820959523629
 50
221.06477503394947
 51
231.22765092056275
  0
ARC
  8
_0-1_レイヤ___3
  6
CONTINUOUS
 62
    7
 10
1829.8369312735485
 20
10413.75814627555
 40
362.43800051855175
 50
230.95883511048842
 51
251.35346403312764
  0
ARC
  8
_0-1_レイヤ___3
  6
CONTINUOUS
 62
    7
 10
1851.8272322596908
 20
10469.153515985499
 40
421.96811857703062
 50
250.92920805381596
 51
264.01576111916961
  0
ARC
  8
_0-1_レイヤ___3
  6
CONTINUOUS
 62
    7
 10
1862.5756287211732
 20
10543.90092216966
 40
497.43720610568437
 50
263.68207230856331
 51
270.12317171358143
  0
ARC
  8
_0-1_レイヤ___3
  6
CONTINUOUS
 62
    7
 10
2096.2126510732619
 20
10245.26567188831
 40
100.75331131322829
 50
324.59559624775562
 51
327.45542393478553
  0
ARC
  8
_0-1_レイヤ___3
  6
CONTINUOUS
 62
    7
 10
2008.0415387695198
 20
10307.718363524888
 40
208.8017660843839
 50
318.63276352575673
 51
324.64423277713365
  0
ARC
  8
_0-1_レイヤ___3
  6
CONTINUOUS
 62
    7
 10
1934.5525534196111
 20
10370.285434729602
 40
305.30820552446175
 50
308.77234981341053
 51
318.93522570002381
  0
ARC
  8
_0-1_レイヤ___3
  6
CONTINUOUS
 62
    7
 10
1897.4530572264518
 20
10413.758149055178
 40
362.43800299241167
 50
288.64653575148515
 51
309.04116467412439
  0
ARC
  8
_0-1_レイヤ___3
  6
CONTINUOUS
 62
    7
 10
1875.4627562403095
 20
10469.153511626333
 40
421.96811429374577
 50
275.9842390100597
 51
289.07079207541335
  0
ARC
  8
_0-1_レイヤ___3
  6
CONTINUOUS
 62
    7
 10
1864.7143602788269
 20
10543.900922169654
 40
497.43720610568181
 50
269.87682828641857
 51
276.31792769143669
  0
ARC
  8
_0-1_レイヤ___3
  6
CONTINUOUS
 62
    7
 10
996.0359454185176
 20
10136.627503281727
 40
100.93010227787077
 50
144.50212566872608
 51
147.3601201761013
  0
ARC
  8
_0-1_レイヤ___3
  6
CONTINUOUS
 62
    7
 10
1084.269615126392
 20
10074.232056271174
 40
208.99619450303848
 50
138.61419937969035
 51
144.62177519628324
  0
ARC
  8
_0-1_レイヤ___3
  6
CONTINUOUS
 62
    7
 10
1157.8105495690149
 20
10011.582808269703
 40
305.59542888809329
 50
128.76110525464975
 51
138.91711914959751
  0
ARC
  8
_0-1_レイヤ___3
  6
CONTINUOUS
 62
    7
 10
1194.9087118357247
 20
9968.0573796324115
 40
362.76505117262718
 50
108.64440299195788
 51
129.02607158712718
  0
ARC
  8
_0-1_レイヤ___3
  6
CONTINUOUS
 62
    7
 10
1216.8508784280348
 20
9912.7376120308472
 40
422.20788163462692
 50
95.984053405987382
 51
109.06580929539723
  0
ARC
  8
_0-1_レイヤ___3
  6
CONTINUOUS
 62
    7
 10
1227.5785063483647
 20
9838.1757922208417
 40
497.49021243479706
 50
89.877171789659343
 51
96.317584188195951
  0
ARC
  8
_0-1_レイヤ___3
  6
CONTINUOUS
 62
    7
 10
1461.1205275955444
 20
10136.604825622167
 40
100.97057184267894
 50
32.640452692635513
 51
35.497301462540811
  0
ARC
  8
_0-1_レイヤ___3
  6
CONTINUOUS
 62
    7
 10
1372.8578834439213
 20
10074.182553779814
 40
209.07582118488511
 50
35.379367881899604
 51
41.384653441116832
  0
ARC
  8
_0-1_レイヤ___3
  6
CONTINUOUS
 62
    7
 10
1299.3223857357139
 20
10011.574447133708
 40
305.64394410371193
 50
41.077031552933882
 51
51.230071912500513
  0
ARC
  8
_0-1_レイヤ___3
  6
CONTINUOUS
 62
    7
 10
1262.2925590569398
 20
9968.1158798433516
 40
362.71881065871497
 50
50.968264813883259
 51
71.34834178087668
  0
ARC
  8
_0-1_レイヤ___3
  6
CONTINUOUS
 62
    7
 10
1240.4215560883235
 20
9913.0129563069768
 40
421.93378546990107
 50
70.92742247026915
 51
84.012376478250204
  0
ARC
  8
_0-1_レイヤ___3
  6
CONTINUOUS
 62
    7
 10
1229.7120159612969
 20
9838.5477853209923
 40
497.11822129585903
 50
83.680048093082036
 51
90.122979514817999
  0
ARC
  8
_0-1_レイヤ___3
  6
CONTINUOUS
 62
    7
 10
2253.2422545972036
 20
10144.758611797966
 40
85.687131946333949
 50
144.22233369227664
 51
147.28839169838002
  0
ARC
  8
_0-1_レイヤ___3
  6
CONTINUOUS
 62
    7
 10
2315.8333631834594
 20
10100.105046321722
 40
162.57352260625362
 50
139.79746805852093
 51
144.35142471936129
  0
ARC
  8
_0-1_レイヤ___3
  6
CONTINUOUS
 62
    7
 10
2372.0551768374298
 20
10053.353656136809
 40
235.69226138958345
 50
128.64561369218313
 51
139.93931621337404
  0
ARC
  8
_0-1_レイヤ___3
  6
CONTINUOUS
 62
    7
 10
2403.8280903157242
 20
10016.650635541526
 40
284.20673230090256
 50
110.99190648966881
 51
129.02750531113188
  0
ARC
  8
_0-1_レイヤ___3
  6
CONTINUOUS
 62
    7
 10
2421.444866532343
 20
9975.747461760342
 40
328.71106836472364
 50
95.239897760050809
 51
111.30471065578642
  0
ARC
  8
_0-1_レイヤ___3
  6
CONTINUOUS
 62
    7
 10
2430.9585345151199
 20
9909.5217797552323
 40
395.54367739998577
 50
89.900565307281113
 51
95.736139487848533
  0
ARC
  8
_0-1_レイヤ___3
  6
CONTINUOUS
 62
    7
 10
2610.0477174027969
 20
10144.758611797966
 40
85.687131946333949
 50
32.711608301619982
 51
35.777666307723365
  0
ARC
  8
_0-1_レイヤ___3
  6
CONTINUOUS
 62
    7
 10
2547.4566088165411
 20
10100.105046321722
 40
162.57352260625362
 50
35.648575280638724
 51
40.202531941479087
  0
ARC
  8
_0-1_レイヤ___3
  6
CONTINUOUS
 62
    7
 10
2491.2347946625705
 20
10053.353651079997
 40
235.69226502682244
 50
40.060684649250895
 51
51.354387170441797
  0
ARC
  8
_0-1_レイヤ___3
  6
CONTINUOUS
 62
    7
 10
2459.4618806842759
 20
10016.650635541524
 40
284.20673230090301
 50
50.972494688868174
 51
69.00809351033125
  0
ARC
  8
_0-1_レイヤ___3
  6
CONTINUOUS
 62
    7
 10
2441.8451049676569
 20
9975.7474653034842
 40
328.71106488205066
 50
68.695289201023982
 51
84.760102096759596
  0
ARC
  8
_0-1_レイヤ___3
  6
CONTINUOUS
 62
    7
 10
2432.3314369848804
 20
9909.5217699453588
 40
395.5436872107112
 50
84.263860582111889
 51
90.099434762679323
  0
ARC
  8
_0-1_レイヤ___3
  6
CONTINUOUS
 62
    7
 10
2754.242247097161
 20
10237.371096519384
 40
85.687121429294223
 50
212.7115979711987
 51
215.77765597730209
  0
ARC
  8
_0-1_レイヤ___3
  6
CONTINUOUS
 62
    7
 10
2816.8333551834594
 20
10282.024680678278
 40
162.57352260625251
 50
215.64857528063823
 51
220.20253194147855
  0
ARC
  8
_0-1_レイヤ___3
  6
CONTINUOUS
 62
    7
 10
2873.05516933743
 20
10328.776075920005
 40
235.69226502682244
 50
220.06068464925087
 51
231.35438717044178
  0
ARC
  8
_0-1_レイヤ___3
  6
CONTINUOUS
 62
    7
 10
2904.8280833157241
 20
10365.479091458477
 40
284.20673230090335
 50
230.97249468886821
 51
249.00809351033129
  0
ARC
  8
_0-1_レイヤ___3
  6
CONTINUOUS
 62
    7
 10
2922.4448590323432
 20
10406.382261696517
 40
328.71106488204964
 50
248.69528920102391
 51
264.76010209675957
  0
ARC
  8
_0-1_レイヤ___3
  6
CONTINUOUS
 62
    7
 10
2931.9585270151197
 20
10472.607957054643
 40
395.54368721071256
 50
264.26386058211187
 51
270.09943476267932
  0
ARC
  8
_0-1_レイヤ___3
  6
CONTINUOUS
 62
    7
 10
3111.0477094028392
 20
10237.371115202039
 40
85.687131946301804
 50
324.22233369225773
 51
327.28839169836107
  0
ARC
  8
_0-1_レイヤ___3
  6
CONTINUOUS
 62
    7
 10
3048.4566008165402
 20
10282.024680678278
 40
162.57352260625143
 50
319.79746805852193
 51
324.35142471936229
  0
ARC
  8
_0-1_レイヤ___3
  6
CONTINUOUS
 62
    7
 10
2992.2347871625702
 20
10328.77607086319
 40
235.69226138958345
 50
308.64561369218313
 51
319.93931621337401
  0
ARC
  8
_0-1_レイヤ___3
  6
CONTINUOUS
 62
    7
 10
2960.4618736842758
 20
10365.479091458477
 40
284.20673230090335
 50
290.99190648966874
 51
309.02750531113179
  0
ARC
  8
_0-1_レイヤ___3
  6
CONTINUOUS
 62
    7
 10
2942.8450974676571
 20
10406.382265239659
 40
328.71106836472256
 50
275.23989776005084
 51
291.30471065578644
  0
ARC
  8
_0-1_レイヤ___3
  6
CONTINUOUS
 62
    7
 10
2933.3314294848797
 20
10472.607947244771
 40
395.54367739998719
 50
269.90056530728111
 51
275.7361394878485
  0
ARC
  8
_0-1_レイヤ___3
  6
CONTINUOUS
 62
    7
 10
3903.1359024184721
 20
10245.502223718282
 40
100.9301022778378
 50
212.6398798239172
 51
215.49787433129242
  0
ARC
  8
_0-1_レイヤ___3
  6
CONTINUOUS
 62
    7
 10
3991.3695716263919
 20
10307.897661200306
 40
208.99618857862353
 50
215.37822275321037
 51
221.38579856980323
  0
ARC
  8
_0-1_レイヤ___3
  6
CONTINUOUS
 62
    7
 10
4064.9105060690144
 20
10370.546924357084
 40
305.59543296261558
 50
221.08288158398486
 51
231.23889547893262
  0
ARC
  8
_0-1_レイヤ___3
  6
CONTINUOUS
 62
    7
 10
4102.0086688357251
 20
10414.07234736759
 40
362.76505117262622
 50
230.97392841287277
 51
251.35559700804205
  0
ARC
  8
_0-1_レイヤ___3
  6
CONTINUOUS
 62
    7
 10
4123.9508354280351
 20
10469.392114969156
 40
422.20788163462777
 50
250.93419070460283
 51
264.01594659401269
  0
ARC
  8
_0-1_レイヤ___3
  6
CONTINUOUS
 62
    7
 10
4134.6784633483649
 20
10543.953934779158
 40
497.49021243479604
 50
263.68241581180405
 51
270.12282821034069
  0
ARC
  8
_0-1_レイヤ___3
  6
CONTINUOUS
 62
    7
 10
4368.2204845955894
 20
10245.524901377848
 40
100.97057184265014
 50
324.50269853743714
 51
327.35954730734244
  0
ARC
  8
_0-1_レイヤ___3
  6
CONTINUOUS
 62
    7
 10
4279.9578399439215
 20
10307.947182752338
 40
209.07582711155086
 50
318.61534450837905
 51
324.62063006759627
  0
ARC
  8
_0-1_レイヤ___3
  6
CONTINUOUS
 62
    7
 10
4206.4223422357136
 20
10370.555274237853
 40
305.6439400285019
 50
308.76992882127729
 51
318.92296918084389
  0
ARC
  8
_0-1_レイヤ___3
  6
CONTINUOUS
 62
    7
 10
4169.3925160569397
 20
10414.01384715665
 40
362.71881065871611
 50
288.65165821912319
 51
309.03173518611663
  0
ARC
  8
_0-1_レイヤ___3
  6
CONTINUOUS
 62
    7
 10
4147.5215130883234
 20
10469.116770693026
 40
421.93378546990107
 50
275.98762352174981
 51
289.07257752973084
  0
ARC
  8
_0-1_レイヤ___3
  6
CONTINUOUS
 62
    7
 10
4136.8119729612963
 20
10543.581941679005
 40
497.11822129585721
 50
269.87702048518202
 51
276.31995190691799
  0
ARC
  8
_0-1_レイヤ___3
  6
CONTINUOUS
 62
    7
 10
3268.0773129267836
 20
10136.864055111695
 40
100.75331131326293
 50
144.59559624777279
 51
147.4554239348027
  0
ARC
  8
_0-1_レイヤ___3
  6
CONTINUOUS
 62
    7
 10
3356.2484252304803
 20
10074.411363475112
 40
208.80176608438552
 50
138.63276352575616
 51
144.64423277713306
  0
ARC
  8
_0-1_レイヤ___3
  6
CONTINUOUS
 62
    7
 10
3429.7374105803892
 20
10011.8442922704
 40
305.30820552446175
 50
128.77234981341056
 51
138.93522570002384
  0
ARC
  8
_0-1_レイヤ___3
  6
CONTINUOUS
 62
    7
 10
3466.8369067735489
 20
9968.371577944823
 40
362.43800299241201
 50
108.64653575148515
 51
129.04116467412436
  0
ARC
  8
_0-1_レイヤ___3
  6
CONTINUOUS
 62
    7
 10
3488.8272077596912
 20
9912.9762153736719
 40
421.96811429374492
 50
95.984239010059753
 51
109.07079207541342
  0
ARC
  8
_0-1_レイヤ___3
  6
CONTINUOUS
 62
    7
 10
3499.5756037211731
 20
9838.2288048303435
 40
497.43720610568312
 50
89.876828286418601
 51
96.317927691436694
  0
ARC
  8
_0-1_レイヤ___3
  6
CONTINUOUS
 62
    7
 10
3733.2126270732165
 20
10136.864055111695
 40
100.75331131326293
 50
32.544576065197333
 51
35.404403752227225
  0
ARC
  8
_0-1_レイヤ___3
  6
CONTINUOUS
 62
    7
 10
3645.0415147695194
 20
10074.411363475116
 40
208.8017660843839
 50
35.355767222866348
 51
41.367236474243263
  0
ARC
  8
_0-1_レイヤ___3
  6
CONTINUOUS
 62
    7
 10
3571.5525289196112
 20
10011.844286647438
 40
305.30820959523646
 50
41.064775033949537
 51
51.227650920562823
  0
ARC
  8
_0-1_レイヤ___3
  6
CONTINUOUS
 62
    7
 10
3534.4530327264515
 20
9968.3715807244535
 40
362.43800051855209
 50
50.958835110488486
 51
71.353464033127693
  0
ARC
  8
_0-1_レイヤ___3
  6
CONTINUOUS
 62
    7
 10
3512.4627317403092
 20
9912.9762110145057
 40
421.96811857702875
 50
70.929208053815913
 51
84.015761119169582
  0
ARC
  8
_0-1_レイヤ___3
  6
CONTINUOUS
 62
    7
 10
3501.7143352788275
 20
9838.2288048303417
 40
497.43720610568568
 50
83.682072308563335
 51
90.123171713581428
  0
ARC
  8
_0-1_レイヤ___3
  6
CONTINUOUS
 62
    7
 10
4525.3422205972038
 20
10144.758611797966
 40
85.687131946333949
 50
144.22233369227664
 51
147.28839169838002
  0
ARC
  8
_0-1_レイヤ___3
  6
CONTINUOUS
 62
    7
 10
4587.9333291834591
 20
10100.105046321731
 40
162.57352260624702
 50
139.79746805852392
 51
144.35142471936425
  0
ARC
  8
_0-1_レイヤ___3
  6
CONTINUOUS
 62
    7
 10
4644.1551428374296
 20
10053.353656136806
 40
235.69226138958658
 50
128.64561369218239
 51
139.9393162133733
  0
ARC
  8
_0-1_レイヤ___3
  6
CONTINUOUS
 62
    7
 10
4675.9280563157245
 20
10016.650635541526
 40
284.20673230090256
 50
110.99190648966881
 51
129.02750531113188
  0
ARC
  8
_0-1_レイヤ___3
  6
CONTINUOUS
 62
    7
 10
4693.5448325323432
 20
9975.7474617603439
 40
328.71106836472171
 50
95.23989776005088
 51
111.30471065578651
  0
ARC
  8
_0-1_レイヤ___3
  6
CONTINUOUS
 62
    7
 10
4703.0585005151197
 20
9909.5217797552341
 40
395.54367739998446
 50
89.900565307281127
 51
95.736139487848547
  0
ARC
  8
_0-1_レイヤ___3
  6
CONTINUOUS
 62
    7
 10
4882.0522574000679
 20
10144.69365161669
 40
85.802528749314291
 50
32.713670581035714
 51
35.775604028307619
  0
ARC
  8
_0-1_レイヤ___3
  6
CONTINUOUS
 62
    7
 10
4819.3771080191218
 20
10099.843182261238
 40
162.87201205520404
 50
35.686637311100895
 51
40.234408467315632
  0
ARC
  8
_0-1_レイヤ___3
  6
CONTINUOUS
 62
    7
 10
4763.1075883337526
 20
10053.040033641475
 40
236.0603457731514
 50
40.085019287030654
 51
51.364546888739845
  0
ARC
  8
_0-1_レイヤ___3
  6
CONTINUOUS
 62
    7
 10
4730.5795676090074
 20
10015.304495598168
 40
285.85213691888589
 50
50.994118672633938
 51
70.768553175550778
  0
ARC
  8
_0-1_レイヤ___3
  6
CONTINUOUS
 62
    7
 10
4712.3525075039561
 20
9969.9544809317631
 40
334.68285969358885
 50
70.379545261701679
 51
85.909701547331878
  0
ARC
  8
_0-1_レイヤ___3
  6
CONTINUOUS
 62
    7
 10
4704.1991048106629
 20
9903.8590017582137
 40
401.2061167858443
 50
85.42155502647617
 51
90.06485712062026
  0
ARC
  8
_0-1_レイヤ___3
  6
CONTINUOUS
 62
    7
 10
5026.3422135971605
 20
10237.371115202033
 40
85.68713194629882
 50
212.71160830163598
 51
215.77766630773934
  0
ARC
  8
_0-1_レイヤ___3
  6
CONTINUOUS
 62
    7
 10
5088.9333216834584
 20
10282.024668103368
 40
162.57351487113877
 50
215.6485717820467
 51
220.20252844288706
  0
ARC
  8
_0-1_レイヤ___3
  6
CONTINUOUS
 62
    7
 10
5145.1551353374289
 20
10328.776075920005
 40
235.69226502682301
 50
220.06068464925102
 51
231.35438717044192
  0
ARC
  8
_0-1_レイヤ___3
  6
CONTINUOUS
 62
    7
 10
5176.9280493157239
 20
10365.479091458476
 40
284.20673230090256
 50
230.97249468886812
 51
249.00809351033121
  0
ARC
  8
_0-1_レイヤ___3
  6
CONTINUOUS
 62
    7
 10
5194.5448255323436
 20
10406.382265239663
 40
328.71106836472558
 50
248.69528934421368
 51
264.76010223994928
  0
ARC
  8
_0-1_レイヤ___3
  6
CONTINUOUS
 62
    7
 10
5204.0584935151201
 20
10472.607947244769
 40
395.54367739998446
 50
264.26386051215144
 51
270.09943469271889
  0
ARC
  8
_0-1_レイヤ___3
  6
CONTINUOUS
 62
    7
 10
5383.010595812525
 20
10237.39635671735
 40
85.731971558112647
 50
324.22313568968741
 51
327.28758970092554
  0
ARC
  8
_0-1_レイヤ___3
  6
CONTINUOUS
 62
    7
 10
5320.3920047659221
 20
10282.074987124006
 40
162.65530541513715
 50
319.79861352195292
 51
324.35027925592732
  0
ARC
  8
_0-1_レイヤ___3
  6
CONTINUOUS
 62
    7
 10
5264.1763201103695
 20
10328.790502511083
 40
235.74627358302268
 50
308.65641323357414
 51
319.94577183701176
  0
ARC
  8
_0-1_レイヤ___3
  6
CONTINUOUS
 62
    7
 10
5231.6520412381888
 20
10366.508648598377
 40
285.52275923748948
 50
289.23484954955984
 51
309.02520763831461
  0
ARC
  8
_0-1_レイヤ___3
  6
CONTINUOUS
 62
    7
 10
5213.3728799628461
 20
10411.957220456572
 40
334.46393574591821
 50
274.08948010602842
 51
289.62648034847984
  0
ARC
  8
_0-1_レイヤ___3
  6
CONTINUOUS
 62
    7
 10
5205.2006565325382
 20
10478.231147655228
 40
401.16654099227435
 50
269.93491385974318
 51
274.57867413198187
  0
ARC
  8
_0-1_レイヤ___3
  6
CONTINUOUS
 62
    7
 10
6175.1772699267367
 20
10245.265671888299
 40
100.75331131322194
 50
212.54457606520913
 51
215.40440375223901
  0
ARC
  8
_0-1_レイヤ___3
  6
CONTINUOUS
 62
    7
 10
6263.3483817304796
 20
10307.718354002554
 40
208.80176016648289
 50
215.35576517119864
 51
221.36723442257554
  0
ARC
  8
_0-1_レイヤ___3
  6
CONTINUOUS
 62
    7
 10
6336.8373670803885
 20
10370.285440352563
 40
305.30820959523527
 50
221.06477503394933
 51
231.22765092056261
  0
ARC
  8
_0-1_レイヤ___3
  6
CONTINUOUS
 62
    7
 10
6373.9368632735477
 20
10413.758146275548
 40
362.43800051855146
 50
230.95883511048842
 51
251.35346403312761
  0
ARC
  8
_0-1_レイヤ___3
  6
CONTINUOUS
 62
    7
 10
6395.9271642596905
 20
10469.153515985501
 40
421.96811857703369
 50
250.92920805381607
 51
264.01576111916972
  0
ARC
  8
_0-1_レイヤ___3
  6
CONTINUOUS
 62
    7
 10
6406.6755607211735
 20
10543.900922169661
 40
497.43720610568812
 50
263.68207230856331
 51
270.12317171358143
  0
ARC
  8
_0-1_レイヤ___3
  6
CONTINUOUS
 62
    7
 10
6640.3125830732624
 20
10245.265671888299
 40
100.75331131322194
 50
324.59559624776097
 51
327.45542393479087
  0
ARC
  8
_0-1_レイヤ___3
  6
CONTINUOUS
 62
    7
 10
6552.1414712695196
 20
10307.718354002558
 40
208.80176016648622
 50
318.63276557742324
 51
324.64423482880017
  0
ARC
  8
_0-1_レイヤ___3
  6
CONTINUOUS
 62
    7
 10
6478.6524859196106
 20
10370.285440352563
 40
305.30820959523527
 50
308.77234907943739
 51
318.93522496605067
  0
ARC
  8
_0-1_レイヤ___3
  6
CONTINUOUS
 62
    7
 10
6441.5529897264514
 20
10413.758146275548
 40
362.43800051855146
 50
288.64653596687236
 51
309.04116488951161
  0
ARC
  8
_0-1_レイヤ___3
  6
CONTINUOUS
 62
    7
 10
6419.5626887403087
 20
10469.153515985501
 40
421.96811857703369
 50
275.98423888083028
 51
289.07079194618393
  0
ARC
  8
_0-1_レイヤ___3
  6
CONTINUOUS
 62
    7
 10
6408.8142922788284
 20
10543.900922169647
 40
497.43720610567294
 50
269.87682828641869
 51
276.31792769143675
  0
ARC
  8
_0-1_レイヤ___3
  6
CONTINUOUS
 62
    7
 10
5540.1358774185173
 20
10136.627503281741
 40
100.93010227786282
 50
144.50212566873279
 51
147.36012017610801
  0
ARC
  8
_0-1_レイヤ___3
  6
CONTINUOUS
 62
    7
 10
5628.3695471263927
 20
10074.232056271167
 40
208.99619450304266
 50
138.6141993796889
 51
144.62177519628176
  0
ARC
  8
_0-1_レイヤ___3
  6
CONTINUOUS
 62
    7
 10
5701.9104815690162
 20
10011.582808269701
 40
305.59542888809415
 50
128.76110525464961
 51
138.91711914959737
  0
ARC
  8
_0-1_レイヤ___3
  6
CONTINUOUS
 62
    7
 10
5739.008644335725
 20
9968.0573768509767
 40
362.76505364824754
 50
108.64440277668834
 51
129.02607137185763
  0
ARC
  8
_0-1_レイヤ___3
  6
CONTINUOUS
 62
    7
 10
5760.9508109280341
 20
9912.7376163916269
 40
422.2078773497347
 50
95.984053535164293
 51
109.06580942457414
  0
ARC
  8
_0-1_レイヤ___3
  6
CONTINUOUS
 62
    7
 10
5771.6784383483646
 20
9838.1757922208435
 40
497.49021243479604
 50
89.877171789659343
 51
96.317584188195951
  0
ARC
  8
_0-1_レイヤ___3
  6
CONTINUOUS
 62
    7
 10
6005.2204605955449
 20
10136.604825622162
 40
100.97057184268152
 50
32.640452692637687
 51
35.497301462542985
  0
ARC
  8
_0-1_レイヤ___3
  6
CONTINUOUS
 62
    7
 10
5916.9578159439207
 20
10074.182544247664
 40
209.07582711155086
 50
35.379369932403733
 51
41.384655491620954
  0
ARC
  8
_0-1_レイヤ___3
  6
CONTINUOUS
 62
    7
 10
5843.4223182357146
 20
10011.574452762146
 40
305.6439400285019
 50
41.077030819156093
 51
51.230071178722717
  0
ARC
  8
_0-1_レイヤ___3
  6
CONTINUOUS
 62
    7
 10
5806.3924915569396
 20
9968.115877061693
 40
362.71881313437632
 50
50.968265029241259
 51
71.34834199623468
  0
ARC
  8
_0-1_レイヤ___3
  6
CONTINUOUS
 62
    7
 10
5784.5214885883233
 20
9913.0129606666815
 40
421.93378118613651
 50
70.927422340987263
 51
84.012376348968317
  0
ARC
  8
_0-1_レイヤ___3
  6
CONTINUOUS
 62
    7
 10
5773.8119484612971
 20
9838.5477764375537
 40
497.11823018035136
 50
83.680048148512199
 51
90.122979570248162
  0
ARC
  8
_0-1_レイヤ___3
  6
CONTINUOUS
 62
    7
 10
6797.3421865972032
 20
10144.758611797955
 40
85.687131946339932
 50
144.22233369227075
 51
147.28839169837414
  0
ARC
  8
_0-1_レイヤ___3
  6
CONTINUOUS
 62
    7
 10
6859.9332951834594
 20
10100.105046321725
 40
162.57352260625143
 50
139.79746805852193
 51
144.35142471936226
  0
ARC
  8
_0-1_レイヤ___3
  6
CONTINUOUS
 62
    7
 10
6916.1551093374292
 20
10053.353651079999
 40
235.69226502682088
 50
128.64561282955856
 51
139.93931535074947
  0
ARC
  8
_0-1_レイヤ___3
  6
CONTINUOUS
 62
    7
 10
6947.9280228157231
 20
10016.650638692066
 40
284.20672953857724
 50
110.99190681131051
 51
129.0275056327736
  0
ARC
  8
_0-1_レイヤ___3
  6
CONTINUOUS
 62
    7
 10
6965.5447985323426
 20
9975.7474617603402
 40
328.71106836472558
 50
95.239897760050724
 51
111.30471065578634
  0
ARC
  8
_0-1_レイヤ___3
  6
CONTINUOUS
 62
    7
 10
6975.0584670151202
 20
9909.5217699453515
 40
395.54368721071808
 50
89.900565237320635
 51
95.736139417888069
  0
ARC
  8
_0-1_レイヤ___3
  6
CONTINUOUS
 62
    7
 10
7154.1476494027975
 20
10144.758611797955
 40
85.687131946339932
 50
32.711608301625859
 51
35.777666307729241
  0
ARC
  8
_0-1_レイヤ___3
  6
CONTINUOUS
 62
    7
 10
7091.5565408165412
 20
10100.105046321725
 40
162.57352260625143
 50
35.648575280637729
 51
40.202531941478085
  0
ARC
  8
_0-1_レイヤ___3
  6
CONTINUOUS
 62
    7
 10
7035.3347266625697
 20
10053.353651079993
 40
235.69226502682505
 50
40.060684649251506
 51
51.354387170442408
  0
ARC
  8
_0-1_レイヤ___3
  6
CONTINUOUS
 62
    7
 10
7003.5618131842766
 20
10016.650638692066
 40
284.20672953857724
 50
50.972494367226417
 51
69.008093188689486
  0
ARC
  8
_0-1_レイヤ___3
  6
CONTINUOUS
 62
    7
 10
6985.945037467658
 20
9975.7474617603439
 40
328.71106836472171
 50
68.695289344213506
 51
84.760102239949134
  0
ARC
  8
_0-1_レイヤ___3
  6
CONTINUOUS
 62
    7
 10
6976.4313694848806
 20
9909.5217797552341
 40
395.54367739998446
 50
84.263860512151453
 51
90.099434692718887
  0
LINE
  8
_0-1_レイヤ___3
  6
CONTINUOUS
 62
    7
 10
1410.8062081209555
 20
1131.2542934819146
 11
1412.6062081209559
 21
1133.6542934819147
  0
LINE
  8
_0-1_レイヤ___3
  6
CONTINUOUS
 62
    7
 10
1412.6062081209559
 20
1133.6542934819147
 11
1482.6062081209559
 21
1174.054293481915
  0
ARC
  8
_0-1_レイヤ___3
  6
CONTINUOUS
 62
    7
 10
1483.8038672411133
 20
1172.2515054991334
 40
2.1643548412768703
 50
87.819708858625944
 51
123.5975667994133
  0
ARC
  8
_0-1_レイヤ___3
  6
CONTINUOUS
 62
    7
 10
1483.6955996427062
 20
1173.0953950872736
 40
1.3326006781355324
 50
349.57632075059934
 51
81.776495693120921
  0
ARC
  8
_0-1_レイヤ___3
  6
CONTINUOUS
 62
    7
 10
1480.2350691083943
 20
1172.9969768894512
 40
4.7732720467172403
 50
299.7854366570125
 51
358.28705027883564
  0
LINE
  8
_0-1_レイヤ___3
  6
CONTINUOUS
 62
    7
 10
1482.6062081209559
 20
1168.8542934819145
 11
1479.206208120956
 21
1166.8542934819147
  0
LINE
  8
_0-1_レイヤ___3
  6
CONTINUOUS
 62
    7
 10
1479.206208120956
 20
1166.8542934819147
 11
1479.206208120956
 21
1155.0542934819146
  0
ARC
  8
_0-1_レイヤ___3
  6
CONTINUOUS
 62
    7
 10
1474.1761789465816
 20
1155.2158095278201
 40
5.0326216754432505
 50
304.21756867234825
 51
358.16084384170932
  0
ARC
  8
_0-1_レイヤ___3
  6
CONTINUOUS
 62
    7
 10
1476.1522515511276
 20
1152.3463803422578
 40
1.5487834831973069
 50
183.40867667377702
 51
303.46122097206694
  0
LINE
  8
_0-1_レイヤ___3
  6
CONTINUOUS
 62
    7
 10
1474.6062081209561
 20
1152.2542934819148
 11
1474.6062081209561
 21
1164.2542934819148
  0
LINE
  8
_0-1_レイヤ___3
  6
CONTINUOUS
 62
    7
 10
1474.6062081209561
 20
1164.2542934819148
 11
1436.006208120956
 21
1141.8542934819147
  0
LINE
  8
_0-1_レイヤ___3
  6
CONTINUOUS
 62
    7
 10
1436.006208120956
 20
1141.8542934819147
 11
1436.006208120956
 21
1136.6542934819149
  0
LINE
  8
_0-1_レイヤ___3
  6
CONTINUOUS
 62
    7
 10
1431.4062081209556
 20
1139.2542934819148
 11
1392.6062081209559
 21
1116.8542954819145
  0
LINE
  8
_0-1_レイヤ___3
  6
CONTINUOUS
 62
    7
 10
1392.6062081209559
 20
1116.8542954819145
 11
1392.6062081209559
 21
1105.054295481915
  0
ARC
  8
_0-1_レイヤ___3
  6
CONTINUOUS
 62
    7
 10
1387.5761789465814
 20
1105.2158115278212
 40
5.0326216754435524
 50
304.217568672342
 51
358.16084384170313
  0
ARC
  8
_0-1_レイヤ___3
  6
CONTINUOUS
 62
    7
 10
1389.552251551127
 20
1102.3463823422583
 40
1.54878348319694
 50
183.40867667378384
 51
303.46122097207376
  0
LINE
  8
_0-1_レイヤ___3
  6
CONTINUOUS
 62
    7
 10
1388.0062081209558
 20
1102.2542954819146
 11
1388.0062081209558
 21
1114.2542954819146
  0
LINE
  8
_0-1_レイヤ___3
  6
CONTINUOUS
 62
    7
 10
1388.0062081209558
 20
1114.2542954819146
 11
1349.4062101209558
 21
1091.8542954819145
  0
LINE
  8
_0-1_レイヤ___3
  6
CONTINUOUS
 62
    7
 10
1349.4062101209558
 20
1091.8542954819145
 11
1349.4062101209558
 21
1080.054295481915
  0
ARC
  8
_0-1_レイヤ___3
  6
CONTINUOUS
 62
    7
 10
1344.6350711083942
 20
1080.1969788894519
 40
4.7732720467172403
 50
299.7854366570125
 51
358.28705027883564
  0
ARC
  8
_0-1_レイヤ___3
  6
CONTINUOUS
 62
    7
 10
1345.9456521439051
 20
1077.4277290759062
 40
1.7352530247167905
 50
267.37601141397329
 51
307.67512533352851
  0
ARC
  8
_0-1_レイヤ___3
  6
CONTINUOUS
 62
    7
 10
1346.0926582986503
 20
1076.9882923206046
 40
1.3136615225088799
 50
168.31740178897201
 51
260.07380901594473
  0
LINE
  8
_0-1_レイヤ___3
  6
CONTINUOUS
 62
    7
 10
1344.8062101209557
 20
1077.2542954819146
 11
1344.8062101209557
 21
1089.2542954819146
  0
LINE
  8
_0-1_レイヤ___3
  6
CONTINUOUS
 62
    7
 10
1344.8062101209557
 20
1089.2542954819146
 11
1306.006210120956
 21
1066.8542954819145
  0
LINE
  8
_0-1_レイヤ___3
  6
CONTINUOUS
 62
    7
 10
1306.006210120956
 20
1066.8542954819145
 11
1306.006210120956
 21
1055.054295481915
  0
ARC
  8
_0-1_レイヤ___3
  6
CONTINUOUS
 62
    7
 10
1300.9761809465815
 20
1055.2158115278207
 40
5.0326216754432505
 50
304.21756867234825
 51
358.16084384170932
  0
ARC
  8
_0-1_レイヤ___3
  6
CONTINUOUS
 62
    7
 10
1302.9522535511273
 20
1052.3463823422583
 40
1.5487834831971601
 50
183.40867667378785
 51
303.4612209720778
  0
LINE
  8
_0-1_レイヤ___3
  6
CONTINUOUS
 62
    7
 10
1301.4062101209561
 20
1052.2542954819146
 11
1301.4062101209561
 21
1064.2542954819146
  0
LINE
  8
_0-1_レイヤ___3
  6
CONTINUOUS
 62
    7
 10
1301.4062101209561
 20
1064.2542954819146
 11
1262.8062101209559
 21
1041.8542954819145
  0
LINE
  8
_0-1_レイヤ___3
  6
CONTINUOUS
 62
    7
 10
1262.8062101209559
 20
1041.8542954819145
 11
1262.8062101209559
 21
1030.054295481915
  0
ARC
  8
_0-1_レイヤ___3
  6
CONTINUOUS
 62
    7
 10
1258.0350711083945
 20
1030.1969788894519
 40
4.7732720467172403
 50
299.7854366570125
 51
358.28705027883564
  0
ARC
  8
_0-1_レイヤ___3
  6
CONTINUOUS
 62
    7
 10
1259.3456521439052
 20
1027.4277290759062
 40
1.7352530247167905
 50
267.37601141397329
 51
307.67512533352851
  0
ARC
  8
_0-1_レイヤ___3
  6
CONTINUOUS
 62
    7
 10
1259.4926582986504
 20
1026.9882923206046
 40
1.3136615225088799
 50
168.31740178897201
 51
260.07380901594473
  0
LINE
  8
_0-1_レイヤ___3
  6
CONTINUOUS
 62
    7
 10
1258.206210120956
 20
1027.2542954819146
 11
1258.206210120956
 21
1039.2542954819146
  0
LINE
  8
_0-1_レイヤ___3
  6
CONTINUOUS
 62
    7
 10
1258.206210120956
 20
1039.2542954819146
 11
1221.4062121209556
 21
1018.0542954819151
  0
ARC
  8
_0-1_レイヤ___3
  6
CONTINUOUS
 62
    7
 10
1225.7696600252932
 20
1011.3873560357251
 40
7.9679206316974618
 50
123.20436220241555
 51
178.08013071200531
  0
LINE
  8
_0-1_レイヤ___3
  6
CONTINUOUS
 62
    7
 10
1217.8062121209557
 20
1011.6542954819147
 11
1217.8062121209557
 21
823.85429948191472
  0
LINE
  8
_0-1_レイヤ___3
  6
CONTINUOUS
 62
    7
 10
1217.8062121209557
 20
823.85429948191472
 11
1234.6062121209559
 21
833.45429948191452
  0
ARC
  8
_0-1_レイヤ___3
  6
CONTINUOUS
 62
    7
 10
1235.6667700980056
 20
832.08086588792298
 40
1.7352530247165421
 50
87.376011413947325
 51
127.67512533350252
  0
ARC
  8
_0-1_レイヤ___3
  6
CONTINUOUS
 62
    7
 10
1235.5197629432614
 20
832.52030361303014
 40
1.3136607396008997
 50
348.31735153514444
 51
80.073758762117208
  0
ARC
  8
_0-1_レイヤ___3
  6
CONTINUOUS
 62
    7
 10
1231.8370496470998
 20
832.38233635795439
 40
4.9708097184021369
 50
303.85443013048854
 51
358.52402637265857
  0
LINE
  8
_0-1_レイヤ___3
  6
CONTINUOUS
 62
    7
 10
1234.6062121209559
 20
828.25429948191413
 11
1215.6062121209559
 21
817.25429948191447
  0
LINE
  8
_0-1_レイヤ___3
  6
CONTINUOUS
 62
    7
 10
1215.6062121209559
 20
817.25429948191447
 11
1204.6062121209559
 21
794.25429948191436
  0
LINE
  8
_0-1_レイヤ___3
  6
CONTINUOUS
 62
    7
 10
1204.6062121209559
 20
794.25429948191436
 11
1198.8062121209557
 21
790.85429948191461
  0
LINE
  8
_0-1_レイヤ___3
  6
CONTINUOUS
 62
    7
 10
1198.8062121209557
 20
790.85429948191461
 11
1213.2062121209558
 21
821.25429948191425
  0
LINE
  8
_0-1_レイヤ___3
  6
CONTINUOUS
 62
    7
 10
1213.2062121209558
 20
821.25429948191425
 11
1213.2062121209558
 21
1018.4542954819148
  0
LINE
  8
_0-1_レイヤ___3
  6
CONTINUOUS
 62
    7
 10
1213.2062121209558
 20
1018.4542954819148
 11
1363.4062101209561
 21
1105.2542954819148
  0
LINE
  8
_0-1_レイヤ___3
  6
CONTINUOUS
 62
    7
 10
1363.4062101209561
 20
1105.2542954819148
 11
1365.206210120956
 21
1104.8542954819145
  0
LINE
  8
_0-1_レイヤ___3
  6
CONTINUOUS
 62
    7
 10
1365.206210120956
 20
1104.8542954819145
 11
1367.0062101209558
 21
1107.4542954819144
  0
LINE
  8
_0-1_レイヤ___3
  6
CONTINUOUS
 62
    7
 10
1367.0062101209558
 20
1107.4542954819144
 11
1409.0062081209562
 21
1131.4542934819151
  0
LINE
  8
_0-1_レイヤ___3
  6
CONTINUOUS
 62
    7
 10
1409.0062081209562
 20
1131.4542934819151
 11
1410.8062081209555
 21
1131.2542934819146
  0
LINE
  8
_0-1_レイヤ___3
  6
CONTINUOUS
 62
    7
 10
1693.4062041209559
 20
483.65430348191467
 11
1693.4062041209559
 21
741.25429948191425
  0
LINE
  8
_0-1_レイヤ___3
  6
CONTINUOUS
 62
    7
 10
1693.4062041209559
 20
741.25429948191425
 11
2225.4061961209554
 21
1046.0542954819152
  0
LINE
  8
_0-1_レイヤ___3
  6
CONTINUOUS
 62
    7
 10
870.00621612095597
 20
1529.2542874819148
 11
1484.8062081209559
 21
1174.2542934819148
  0
LINE
  8
_0-1_レイヤ___3
  6
CONTINUOUS
 62
    7
 10
648.00622012095596
 20
1347.0542914819146
 11
1213.2062121209558
 21
1018.4542954819148
  0
LINE
  8
_0-1_レイヤ___3
  6
CONTINUOUS
 62
    7
 10
647.20622012095578
 20
1110.854295481915
 11
1199.4062121209556
 21
791.05429948191443
  0
LINE
  8
_0-1_レイヤ___3
  6
CONTINUOUS
 62
    7
 10
648.00622012095596
 20
1145.0542934819146
 11
1207.2062121209558
 21
823.85429948191472
  0
LINE
  8
_0-1_レイヤ___3
  6
CONTINUOUS
 62
    7
 10
1264.0062101209558
 20
1039.8542954819145
 11
1424.8062081209559
 21
946.85429748191495
  0
LINE
  8
_0-1_レイヤ___3
  6
CONTINUOUS
 62
    7
 10
1218.2062121209558
 20
844.05429948191454
 11
1236.4062101209558
 21
833.6542994819149
  0
LINE
  8
_0-1_レイヤ___3
  6
CONTINUOUS
 62
    7
 10
1221.006212120956
 20
1015.2542954819148
 11
1693.4062041209559
 21
741.25429948191425
  0
LINE
  8
_0-1_レイヤ___3
  6
CONTINUOUS
 62
    7
 10
1646.206204120956
 20
942.45429748191441
 11
1646.206204120956
 21
945.45429748191452
  0
LINE
  8
_0-1_レイヤ___3
  6
CONTINUOUS
 62
    7
 10
1646.206204120956
 20
945.45429748191452
 11
1532.2062061209556
 21
879.65429748191468
  0
LINE
  8
_0-1_レイヤ___3
  6
CONTINUOUS
 62
    7
 10
1532.2062061209556
 20
879.65429748191468
 11
1532.2062061209556
 21
876.65429748191457
  0
LINE
  8
_0-1_レイヤ___3
  6
CONTINUOUS
 62
    7
 10
1532.2062061209556
 20
876.65429748191457
 11
1646.206204120956
 21
942.45429748191441
  0
LINE
  8
_0-1_レイヤ___3
  6
CONTINUOUS
 62
    7
 10
1541.4062061209554
 20
1006.4542954819149
 11
1646.4062041209559
 21
945.05429748191489
  0
LINE
  8
_0-1_レイヤ___3
  6
CONTINUOUS
 62
    7
 10
1428.2062081209556
 20
941.25429748191436
 11
1531.8062061209559
 21
880.45429748191452
  0
LINE
  8
_0-1_レイヤ___3
  6
CONTINUOUS
 62
    7
 10
1425.8062081209555
 20
939.65429748191468
 11
1531.8062061209559
 21
877.25429748191459
  0
LINE
  8
_0-1_レイヤ___3
  6
CONTINUOUS
 62
    7
 10
1919.4062001209563
 20
1222.4542934819146
 11
2225.6061961209552
 21
1046.0542954819152
  0
LINE
  8
_0-1_レイヤ___3
  6
CONTINUOUS
 62
    7
 10
1922.2062001209565
 20
1225.0542934819146
 11
1959.806200120956
 21
1203.2542934819144
  0
LINE
  8
_0-1_レイヤ___3
  6
CONTINUOUS
 62
    7
 10
1959.806200120956
 20
1199.054293481915
 11
1959.806200120956
 21
1203.2542934819144
  0
LINE
  8
_0-1_レイヤ___3
  6
CONTINUOUS
 62
    7
 10
1959.806200120956
 20
1203.2542934819144
 11
1922.0062001209556
 21
1225.4542934819146
  0
LINE
  8
_0-1_レイヤ___3
  6
CONTINUOUS
 62
    7
 10
1922.0062001209556
 20
1225.4542934819146
 11
1548.8062061209557
 21
1010.054295481915
  0
LINE
  8
_0-1_レイヤ___3
  6
CONTINUOUS
 62
    7
 10
1548.8062061209557
 20
1010.054295481915
 11
1538.2062061209558
 21
1006.2542954819151
  0
LINE
  8
_0-1_レイヤ___3
  6
CONTINUOUS
 62
    7
 10
1538.2062061209558
 20
1006.2542954819151
 11
1424.4062081209559
 21
940.05429748191489
  0
LINE
  8
_0-1_レイヤ___3
  6
CONTINUOUS
 62
    7
 10
1424.4062081209559
 20
940.05429748191489
 11
1424.8062081209559
 21
946.45429748191418
  0
LINE
  8
_0-1_レイヤ___3
  6
CONTINUOUS
 62
    7
 10
1424.8062081209559
 20
946.45429748191418
 11
1538.006206120956
 21
1011.8542954819145
  0
LINE
  8
_0-1_レイヤ___3
  6
CONTINUOUS
 62
    7
 10
1538.006206120956
 20
1011.8542954819145
 11
1547.4062061209554
 21
1015.6542954819145
  0
LINE
  8
_0-1_レイヤ___3
  6
CONTINUOUS
 62
    7
 10
1547.4062061209554
 20
1015.6542954819145
 11
1924.6062001209561
 21
1233.4542934819149
  0
LINE
  8
_0-1_レイヤ___3
  6
CONTINUOUS
 62
    7
 10
1924.6062001209561
 20
1233.4542934819149
 11
1967.6062001209561
 21
1208.2542934819144
  0
LINE
  8
_0-1_レイヤ___3
  6
CONTINUOUS
 62
    7
 10
1967.6062001209561
 20
1208.2542934819144
 11
1967.6062001209561
 21
1194.4542934819151
  0
LINE
  8
_0-1_レイヤ___3
  6
CONTINUOUS
 62
    7
 10
1410.6062081209557
 20
1530.0542874819146
 11
1924.6062001209561
 21
1233.4542934819149
  0
LINE
  8
_0-1_レイヤ___3
  6
CONTINUOUS
 62
    7
 10
1247.4062101209558
 20
1032.6542954819142
 11
1258.8062101209559
 21
1025.854295481915
  0
LINE
  8
_0-1_レイヤ___3
  6
CONTINUOUS
 62
    7
 10
1290.6062101209557
 20
1057.8542954819147
 11
1302.2062101209558
 21
1051.0542954819152
  0
LINE
  8
_0-1_レイヤ___3
  6
CONTINUOUS
 62
    7
 10
1333.6062101209559
 20
1083.0542954819152
 11
1345.206210120956
 21
1076.2542954819151
  0
LINE
  8
_0-1_レイヤ___3
  6
CONTINUOUS
 62
    7
 10
1377.4062081209559
 20
1107.8542954819147
 11
1388.8062081209557
 21
1100.854295481915
  0
LINE
  8
_0-1_レイヤ___3
  6
CONTINUOUS
 62
    7
 10
1507.4062061209554
 20
1081.8542954819145
 11
1507.4062061209554
 21
1095.4542954819146
  0
LINE
  8
_0-1_レイヤ___3
  6
CONTINUOUS
 62
    7
 10
1507.4062061209554
 20
1095.4542954819146
 11
1469.206208120956
 21
1073.0542954819152
  0
LINE
  8
_0-1_レイヤ___3
  6
CONTINUOUS
 62
    7
 10
1469.206208120956
 20
1073.0542954819152
 11
1469.206208120956
 21
1059.2542954819146
  0
LINE
  8
_0-1_レイヤ___3
  6
CONTINUOUS
 62
    7
 10
1469.206208120956
 20
1059.2542954819146
 11
1507.4062061209554
 21
1081.8542954819145
  0
LINE
  8
_0-1_レイヤ___3
  6
CONTINUOUS
 62
    7
 10
722.20621812095601
 20
1530.0542874819146
 11
1340.206210120956
 21
1171.4542934819151
  0
LINE
  8
_0-1_レイヤ___3
  6
CONTINUOUS
 62
    7
 10
1377.0062081209562
 20
1150.2542934819144
 11
1409.4062081209559
 21
1131.6542934819149
  0
LINE
  8
_0-1_レイヤ___3
  6
CONTINUOUS
 62
    7
 10
1431.4062081209556
 20
1139.2542934819148
 11
1507.4062061209554
 21
1095.4542954819146
  0
LINE
  8
_0-1_レイヤ___3
  6
CONTINUOUS
 62
    7
 10
1392.6062081209559
 20
1116.8542954819145
 11
1469.206208120956
 21
1073.0542954819152
  0
LINE
  8
_0-1_レイヤ___3
  6
CONTINUOUS
 62
    7
 10
1393.2062081209556
 20
1103.6542954819147
 11
1469.4062081209559
 21
1059.8542954819145
  0
LINE
  8
_0-1_レイヤ___3
  6
CONTINUOUS
 62
    7
 10
729.80621812095592
 20
1529.2542874819148
 11
1341.6062101209559
 21
1174.2542934819148
  0
LINE
  8
_0-1_レイヤ___3
  6
CONTINUOUS
 62
    7
 10
1380.006208120956
 20
1152.054293481915
 11
1412.0062081209562
 21
1133.6542934819147
  0
LINE
  8
_0-1_レイヤ___3
  6
CONTINUOUS
 62
    7
 10
647.20622012095578
 20
1517.6542894819147
 11
1363.6062101209559
 21
1105.2542954819148
  0
LINE
  8
_0-1_レイヤ___3
  6
CONTINUOUS
 62
    7
 10
647.40622012095616
 20
1521.0542874819146
 11
1366.4062101209561
 21
1107.2542954819146
  0
ARC
  8
_0-1_レイヤ___3
  6
CONTINUOUS
 62
    7
 10
1369.6349007079561
 20
1162.9241568815905
 40
15.60313479179047
 50
36.816009417681421
 51
60.128223817485384
  0
ARC
  8
_0-1_レイヤ___3
  6
CONTINUOUS
 62
    7
 10
1375.2623150444356
 20
1167.5956973688471
 40
8.3067616888360654
 50
318.52599260735076
 51
34.279291839615745
  0
ARC
  8
_0-1_レイヤ___3
  6
CONTINUOUS
 62
    7
 10
1370.3645168448156
 20
1171.9104973111284
 40
14.834078146566645
 50
298.33961865834675
 51
318.56779977506324
  0
ARC
  8
_0-1_レイヤ___3
  6
CONTINUOUS
 62
    7
 10
1364.7051639682072
 20
1181.6142668243442
 40
26.064015598487103
 50
281.28633204514898
 51
299.16339659939331
  0
ARC
  8
_0-1_レイヤ___3
  6
CONTINUOUS
 62
    7
 10
1362.4845676077155
 20
1190.663775874104
 40
35.375453644397979
 50
244.05264458862416
 51
281.94482029638658
  0
ARC
  8
_0-1_レイヤ___3
  6
CONTINUOUS
 62
    7
 10
1354.3032192095177
 20
1172.0661275255441
 40
15.09300832951989
 50
217.23153093753561
 51
241.08775364988514
  0
ARC
  8
_0-1_レイヤ___3
  6
CONTINUOUS
 62
    7
 10
1349.0766585354868
 20
1167.6175069411192
 40
8.2487985776643704
 50
138.21216329254935
 51
214.59312115441912
  0
ARC
  8
_0-1_レイヤ___3
  6
CONTINUOUS
 62
    7
 10
1354.554362776676
 20
1163.0718195791189
 40
15.364413958009514
 50
119.42441892996723
 51
139.18497700915327
  0
ARC
  8
_0-1_レイヤ___3
  6
CONTINUOUS
 62
    7
 10
1359.7072552737043
 20
1153.6943137815952
 40
26.064021637712035
 50
101.28632715404432
 51
119.16339170828869
  0
ARC
  8
_0-1_レイヤ___3
  6
CONTINUOUS
 62
    7
 10
1361.927851634196
 20
1144.6448140028383
 40
35.37545058739218
 50
64.052643980573052
 51
101.94481968833546
  0
ARC
  8
_0-1_レイヤ___3
  6
CONTINUOUS
 62
    7
 10
1368.4011455605332
 20
1164.8929119884333
 40
10.71112224393022
 50
33.176764779420694
 51
60.925312054753775
  0
ARC
  8
_0-1_レイヤ___3
  6
CONTINUOUS
 62
    7
 10
1372.0302570467861
 20
1167.6500110420022
 40
6.1732441497704986
 50
320.3910417639666
 51
30.189449625556485
  0
ARC
  8
_0-1_レイヤ___3
  6
CONTINUOUS
 62
    7
 10
1368.4662134979519
 20
1170.4299261515216
 40
10.692148178916534
 50
298.73283505327271
 51
321.09064455164707
  0
ARC
  8
_0-1_レイヤ___3
  6
CONTINUOUS
 62
    7
 10
1363.5684624420412
 20
1179.3423776080358
 40
20.861695983755567
 50
278.20628843462259
 51
298.76097796212133
  0
ARC
  8
_0-1_レイヤ___3
  6
CONTINUOUS
 62
    7
 10
1362.4033445730101
 20
1184.7323851240071
 40
26.365613046359023
 50
243.90515778902619
 51
279.04043113267613
  0
ARC
  8
_0-1_レイヤ___3
  6
CONTINUOUS
 62
    7
 10
1355.9858022289723
 20
1170.6968698759442
 40
10.945659135936641
 50
214.13801998650666
 51
241.7571521660268
  0
ARC
  8
_0-1_レイヤ___3
  6
CONTINUOUS
 62
    7
 10
1352.1002626770885
 20
1167.658891275426
 40
6.0340158529041439
 50
139.29210766860115
 51
210.96511026835199
  0
ARC
  8
_0-1_レイヤ___3
  6
CONTINUOUS
 62
    7
 10
1355.917933027436
 20
1164.598860725052
 40
10.925067175763282
 50
117.89737861625703
 51
140.18504025726182
  0
ARC
  8
_0-1_レイヤ___3
  6
CONTINUOUS
 62
    7
 10
1360.3936692148518
 20
1157.2465164398295
 40
19.523930234212752
 50
98.920509177788901
 51
119.41040385659385
  0
ARC
  8
_0-1_レイヤ___3
  6
CONTINUOUS
 62
    7
 10
1361.9588664640071
 20
1150.2697155458777
 40
26.66309333973706
 50
64.097958014293127
 51
99.918530523874963
  0
LINE
  8
_0-1_レイヤ___3
  6
CONTINUOUS
 62
    7
 10
1362.2062101209558
 20
1167.6542934819145
 11
1355.8062101209562
 21
1163.8542934819145
  0
LINE
  8
_0-1_レイヤ___3
  6
CONTINUOUS
 62
    7
 10
1362.2062101209558
 20
1167.6542934819145
 11
1355.8062101209562
 21
1171.2542934819146
  0
LINE
  8
_0-1_レイヤ___3
  6
CONTINUOUS
 62
    7
 10
1362.2062101209558
 20
1167.6542934819145
 11
1368.6062101209559
 21
1171.2542934819146
  0
LINE
  8
_0-1_レイヤ___3
  6
CONTINUOUS
 62
    7
 10
1362.2062101209558
 20
1167.6542934819145
 11
1368.6062101209559
 21
1163.8542934819145
  0
ARC
  8
_0-1_レイヤ___3
  6
CONTINUOUS
 62
    7
 10
1374.6861269349665
 20
1161.5020663047881
 40
9.0069298532932098
 50
321.00386175159542
 51
352.03693228283936
  0
ARC
  8
_0-1_レイヤ___3
  6
CONTINUOUS
 62
    7
 10
1370.7350666949237
 20
1164.5782837901322
 40
14.013738439230314
 50
298.42727832129339
 51
321.39421986196788
  0
ARC
  8
_0-1_レイヤ___3
  6
CONTINUOUS
 62
    7
 10
1364.7051639682072
 20
1175.0142668243443
 40
26.064015598487103
 50
281.28633204514898
 51
299.16339659939331
  0
ARC
  8
_0-1_レイヤ___3
  6
CONTINUOUS
 62
    7
 10
1362.4845676077155
 20
1184.0637758741041
 40
35.375453644397979
 50
244.05264458862416
 51
281.94482029638658
  0
ARC
  8
_0-1_レイヤ___3
  6
CONTINUOUS
 62
    7
 10
1354.4604318043062
 20
1165.7812153468944
 40
15.444838492059024
 50
217.61558583252653
 51
241.14235138298028
  0
ARC
  8
_0-1_レイヤ___3
  6
CONTINUOUS
 62
    7
 10
1349.0591143831425
 20
1161.3386562276048
 40
8.4576860095912565
 50
181.9267511651789
 51
216.10943250886635
  0
LINE
  8
_0-1_レイヤ___3
  6
CONTINUOUS
 62
    7
 10
1341.006210120956
 20
1169.054293481915
 11
1340.8062101209562
 21
1160.4542934819146
  0
LINE
  8
_0-1_レイヤ___3
  6
CONTINUOUS
 62
    7
 10
1383.6062081209559
 20
1169.054293481915
 11
1383.6062081209559
 21
1160.6542934819145
  0
ARC
  8
_0-1_レイヤ___3
  6
CONTINUOUS
 62
    7
 10
2115.4531071785013
 20
965.33575364001138
 40
140.19206451226603
 50
86.420328163980543
 51
104.89954829829669
  0
ARC
  8
_0-1_レイヤ___3
  6
CONTINUOUS
 62
    7
 10
2122.9535758315251
 20
930.9858771305619
 40
175.32274748357435
 50
104.38191040050881
 51
143.50713322193445
  0
ARC
  8
_0-1_レイヤ___3
  6
CONTINUOUS
 62
    7
 10
1861.1856216404601
 20
1126.3683462087188
 40
151.32541896260568
 50
308.79975426834858
 51
322.97907062229564
  0
ARC
  8
_0-1_レイヤ___3
  6
CONTINUOUS
 62
    7
 10
1814.2047166742445
 20
1180.9873262281917
 40
223.34325404500908
 50
297.72960081216911
 51
309.41285077105118
  0
ARC
  8
_0-1_レイヤ___3
  6
CONTINUOUS
 62
    7
 10
1783.9932277678588
 20
1232.5404642400349
 40
283.04647482856603
 50
288.45752964108038
 51
298.28712063838435
  0
ARC
  8
_0-1_レイヤ___3
  6
CONTINUOUS
 62
    7
 10
1879.7695699411281
 20
846.38739000756402
 40
117.82821486156934
 50
92.998400681958401
 51
105.70959748535992
  0
ARC
  8
_0-1_レイヤ___3
  6
CONTINUOUS
 62
    7
 10
1891.5576677940358
 20
799.89705334729706
 40
165.77837357228702
 50
105.28101747987751
 51
114.95824880176035
  0
ARC
  8
_0-1_レイヤ___3
  6
CONTINUOUS
 62
    7
 10
1920.312230976886
 20
734.87480138408102
 40
236.86571202335855
 50
114.62750672838087
 51
123.00568672896618
  0
ARC
  8
_0-1_レイヤ___3
  6
CONTINUOUS
 62
    7
 10
1963.0464923988206
 20
665.81949765361628
 40
318.05990500446478
 50
122.68533859696659
 51
133.62487112989015
  0
ARC
  8
_0-1_レイヤ___3
  6
CONTINUOUS
 62
    7
 10
1569.3690154620076
 20
1021.2156649037581
 40
214.53196919498853
 50
306.49624076104931
 51
324.30883891308633
  0
ARC
  8
_0-1_レイヤ___3
  6
CONTINUOUS
 62
    7
 10
1535.6262917469444
 20
1063.1934449017076
 40
268.35557618760504
 50
292.93623821487347
 51
306.95710276555172
  0
ARC
  8
_0-1_レイヤ___3
  6
CONTINUOUS
 62
    7
 10
1635.4296046624006
 20
824.37664082216656
 40
9.5956900622698491
 50
288.07139940355341
 51
299.85362579987839
  0
LINE
  8
_0-1_レイヤ___3
  6
CONTINUOUS
 62
    7
 10
1638.4062061209556
 20
815.25429948191459
 11
1531.6062061209561
 21
877.45429748191441
  0
LINE
  8
_0-1_レイヤ___3
  6
CONTINUOUS
 62
    7
 10
1531.6062061209561
 20
877.45429748191441
 11
1646.0062041209562
 21
942.45429748191441
  0
LINE
  8
_0-1_レイヤ___3
  6
CONTINUOUS
 62
    7
 10
1646.0062041209562
 20
942.45429748191441
 11
1646.0062041209562
 21
945.2542974819147
  0
LINE
  8
_0-1_レイヤ___3
  6
CONTINUOUS
 62
    7
 10
1646.0062041209562
 20
945.2542974819147
 11
1541.0062061209558
 21
1006.8542954819145
  0
LINE
  8
_0-1_レイヤ___3
  6
CONTINUOUS
 62
    7
 10
1541.0062061209558
 20
1006.8542954819145
 11
1543.006206120956
 21
1008.4542954819148
  0
LINE
  8
_0-1_レイヤ___3
  6
CONTINUOUS
 62
    7
 10
1543.006206120956
 20
1008.4542954819148
 11
1553.4062061209556
 21
1012.2542954819147
  0
LINE
  8
_0-1_レイヤ___3
  6
CONTINUOUS
 62
    7
 10
1553.4062061209556
 20
1012.2542954819147
 11
1918.0062001209558
 21
1223.0542934819146
  0
LINE
  8
_0-1_レイヤ___3
  6
CONTINUOUS
 62
    7
 10
1918.0062001209558
 20
1223.0542934819146
 11
2124.2061981209554
 21
1105.2542954819148
  0
ARC
  8
_0-1_レイヤ___3
  6
CONTINUOUS
 62
    7
 10
1519.1912062345991
 20
1080.2581472524071
 40
246.04795560524968
 50
324.49339959143208
 51
341.1234714081022
  0
ARC
  8
_0-1_レイヤ___3
  6
CONTINUOUS
 62
    7
 10
1469.5474451404718
 20
1112.9315114857309
 40
305.44515271656559
 50
312.05961280580215
 51
324.91269007325843
  0
ARC
  8
_0-1_レイヤ___3
  6
CONTINUOUS
 62
    7
 10
1414.5279384920354
 20
1170.2329459598291
 40
384.85413795337143
 50
299.49435933772497
 51
312.42625483096936
  0
ARC
  8
_0-1_レイヤ___3
  6
CONTINUOUS
 62
    7
 10
1500.2749438677224
 20
1084.4470126430106
 40
244.94345057107876
 50
320.77546256140533
 51
337.89014148568509
  0
ARC
  8
_0-1_レイヤ___3
  6
CONTINUOUS
 62
    7
 10
1445.0000698936647
 20
1126.0881246598519
 40
314.10722958820566
 50
306.97069886064554
 51
321.26713297617891
  0
ARC
  8
_0-1_レイヤ___3
  6
CONTINUOUS
 62
    7
 10
1395.1095634682235
 20
1186.4865910743724
 40
392.3825776808909
 50
299.34546949716821
 51
307.48698185092053
  0
ARC
  8
_0-1_レイヤ___3
  6
CONTINUOUS
 62
    7
 10
1487.7257362804353
 20
1086.0467532026978
 40
237.94608330399882
 50
319.17659003839117
 51
335.94435484911878
  0
ARC
  8
_0-1_レイヤ___3
  6
CONTINUOUS
 62
    7
 10
1433.5165181610132
 20
1129.2902239879902
 40
307.24925737124147
 50
305.74986490901057
 51
319.68282172489381
  0
ARC
  8
_0-1_レイヤ___3
  6
CONTINUOUS
 62
    7
 10
1384.772901952203
 20
1191.057247900568
 40
385.87181957375583
 50
299.02698568496254
 51
306.26538934550865
  0
ARC
  8
_0-1_レイヤ___3
  6
CONTINUOUS
 62
    7
 10
1473.2662176042568
 20
1089.4579917213491
 40
234.38007868888374
 50
316.88729866573766
 51
333.7118241170466
  0
ARC
  8
_0-1_レイヤ___3
  6
CONTINUOUS
 62
    7
 10
1422.9537798723682
 20
1132.5607720753264
 40
300.58085827985542
 50
305.27652727718151
 51
317.44387382271219
  0
ARC
  8
_0-1_レイヤ___3
  6
CONTINUOUS
 62
    7
 10
1382.3512957496257
 20
1185.7997730515854
 40
367.5005228407083
 50
298.37567958567485
 51
305.65071579371113
  0
ARC
  8
_0-1_レイヤ___3
  6
CONTINUOUS
 62
    7
 10
1409.8538321400979
 20
1137.9020694421251
 40
297.98406282355802
 50
302.56058466482693
 51
315.44930185594211
  0
ARC
  8
_0-1_レイヤ___3
  6
CONTINUOUS
 62
    7
 10
1374.4309470792768
 20
1189.0366843861871
 40
360.15333525561374
 50
297.8008191964359
 51
302.93205919294815
  0
ARC
  8
_0-1_レイヤ___3
  6
CONTINUOUS
 62
    7
 10
1455.9150304855048
 20
1095.3471681951924
 40
235.38980124164354
 50
321.45044524669402
 51
331.00733839638315
  0
ARC
  8
_0-1_レイヤ___3
  6
CONTINUOUS
 62
    7
 10
1452.0821524952021
 20
1092.9705764441924
 40
221.45151434137151
 50
322.00751414875515
 51
329.76354629497598
  0
ARC
  8
_0-1_レイヤ___3
  6
CONTINUOUS
 62
    7
 10
1426.9314778250309
 20
1103.3535238485451
 40
232.99935223187623
 50
323.16095262460135
 51
328.22347168596701
  0
LINE
  8
_0-1_レイヤ___3
  6
CONTINUOUS
 62
    7
 10
1605.8062061209557
 20
977.45429748191441
 11
1601.4062061209552
 21
971.25429748191436
  0
ARC
  8
_0-1_レイヤ___3
  6
CONTINUOUS
 62
    7
 10
1810.4910161295925
 20
1526.8191936594098
 40
545.50967768328178
 50
278.46641330891828
 51
283.79922934549552
  0
ARC
  8
_0-1_レイヤ___3
  6
CONTINUOUS
 62
    7
 10
1811.0768987901304
 20
1517.2467778351233
 40
521.19487129503852
 50
279.66804963166709
 51
287.96200177685449
  0
ARC
  8
_0-1_レイヤ___3
  6
CONTINUOUS
 62
    7
 10
1816.973275670678
 20
1485.2695233653956
 40
474.481514689638
 50
280.83982725093358
 51
291.05096529646539
  0
ARC
  8
_0-1_レイヤ___3
  6
CONTINUOUS
 62
    7
 10
1977.628669584509
 20
1260.0273297256535
 40
196.93812220748396
 50
307.53271643233148
 51
312.07842575219809
  0
ARC
  8
_0-1_レイヤ___3
  6
CONTINUOUS
 62
    7
 10
1822.5883093783027
 20
1463.8413076584518
 40
438.53439166749382
 50
283.78288303206762
 51
296.63801646589781
  0
ARC
  8
_0-1_レイヤ___3
  6
CONTINUOUS
 62
    7
 10
1801.4534370632271
 20
1533.9634397938598
 40
511.68689474114706
 50
282.31695133732421
 51
284.21064834381843
  0
ARC
  8
_0-1_レイヤ___3
  6
CONTINUOUS
 62
    7
 10
1852.5779933593185
 20
1405.7036377928398
 40
373.12242314022956
 50
296.52433295054618
 51
302.96543235556425
  0
ARC
  8
_0-1_レイヤ___3
  6
CONTINUOUS
 62
    7
 10
1850.9976267125394
 20
1406.8623348288904
 40
374.95514329592027
 50
303.071700656958
 51
310.47883988740665
  0
ARC
  8
_0-1_レイヤ___3
  6
CONTINUOUS
 62
    7
 10
1866.8950903961268
 20
1375.2565333657935
 40
325.41465379573566
 50
298.6757839649145
 51
311.05131830198548
  0
ARC
  8
_0-1_レイヤ___3
  6
CONTINUOUS
 62
    7
 10
1821.997782767774
 20
1452.2219314893468
 40
414.49155995392152
 50
282.93873552074223
 51
299.01563549248232
  0
ARC
  8
_0-1_レイヤ___3
  6
CONTINUOUS
 62
    7
 10
1862.1616018789041
 20
1371.871883755759
 40
311.45902182385828
 50
296.75358004868417
 51
311.12420771190153
  0
ARC
  8
_0-1_レイヤ___3
  6
CONTINUOUS
 62
    7
 10
1820.0726307694863
 20
1447.7529201579509
 40
398.17831646063314
 50
284.14916655729633
 51
297.24645611768204
  0
ARC
  8
_0-1_レイヤ___3
  6
CONTINUOUS
 62
    7
 10
1859.8048047522923
 20
1367.3420061028764
 40
295.75468581424389
 50
298.0116251392115
 51
311.09475165149075
  0
ARC
  8
_0-1_レイヤ___3
  6
CONTINUOUS
 62
    7
 10
1819.8392444043661
 20
1436.6999355886192
 40
375.76711822411323
 50
285.30191911925021
 51
298.42479328680486
  0
ARC
  8
_0-1_レイヤ___3
  6
CONTINUOUS
 62
    7
 10
1936.5929596354522
 20
1081.0940169384321
 40
10.097245269488621
 50
104.84379414503179
 51
112.02610350083667
  0
ARC
  8
_0-1_レイヤ___3
  6
CONTINUOUS
 62
    7
 10
1855.2553076839547
 20
1366.19360372694
 40
284.8288464814413
 50
297.61607591179109
 51
311.12975955811112
  0
ARC
  8
_0-1_レイヤ___3
  6
CONTINUOUS
 62
    7
 10
1822.2029379381588
 20
1423.5998446587246
 40
351.0264518974202
 50
288.57246573790826
 51
298.05294369470789
  0
LINE
  8
_0-1_レイヤ___3
  6
CONTINUOUS
 62
    7
 10
1955.8062001209555
 20
1111.2542954819151
 11
1952.4062001209563
 21
1109.6542954819142
  0
ARC
  8
_0-1_レイヤ___3
  6
CONTINUOUS
 62
    7
 10
1854.4008526838888
 20
1358.4527428674312
 40
266.81234697813005
 50
297.75331087787049
 51
311.44558507248729
  0
ARC
  8
_0-1_レイヤ___3
  6
CONTINUOUS
 62
    7
 10
1828.9131278396007
 20
1401.9090184111196
 40
317.14668491733249
 50
293.58495912608055
 51
298.1723632152748
  0
ARC
  8
_0-1_レイヤ___3
  6
CONTINUOUS
 62
    7
 10
1852.1013936170107
 20
1355.0881996227656
 40
253.92014479930356
 50
298.74281150212823
 51
311.27510165753426
  0
ARC
  8
_0-1_レイヤ___3
  6
CONTINUOUS
 62
    7
 10
1698.2417960828452
 20
1097.7010248694285
 40
222.05086746389691
 50
331.42562783584145
 51
355.49357609190002
  0
ARC
  8
_0-1_レイヤ___3
  6
CONTINUOUS
 62
    7
 10
1659.6351919204255
 20
1115.4970088527789
 40
264.48209204074533
 50
325.12102966865336
 51
332.04025680788544
  0
ARC
  8
_0-1_レイヤ___3
  6
CONTINUOUS
 62
    7
 10
1495.3548827832901
 20
1328.0787664055861
 40
520.95960054624413
 50
284.29714172544311
 51
292.05889688527509
  0
ARC
  8
_0-1_レイヤ___3
  6
CONTINUOUS
 62
    7
 10
1676.896835107467
 20
1101.0320479693735
 40
222.83265297861195
 50
327.34442630049767
 51
350.39576751110775
  0
ARC
  8
_0-1_レイヤ___3
  6
CONTINUOUS
 62
    7
 10
1641.7257525949333
 20
1120.1719542329954
 40
262.78748047127146
 50
322.57065775137215
 51
327.96875518330171
  0
ARC
  8
_0-1_レイヤ___3
  6
CONTINUOUS
 62
    7
 10
1509.8221415571761
 20
1273.7664391411254
 40
450.36143482094297
 50
285.33242520610941
 51
299.6192710131383
  0
ARC
  8
_0-1_レイヤ___3
  6
CONTINUOUS
 62
    7
 10
1490.6843369735179
 20
1330.8119561977398
 40
510.44812334863826
 50
283.10324239982111
 51
285.71100455158364
  0
ARC
  8
_0-1_レイヤ___3
  6
CONTINUOUS
 62
    7
 10
1668.0797734922896
 20
1100.843890544329
 40
211.65970985069822
 50
327.65876386294246
 51
345.94852802279286
  0
ARC
  8
_0-1_レイヤ___3
  6
CONTINUOUS
 62
    7
 10
1623.0994138952492
 20
1126.5342001188988
 40
263.4164352508306
 50
316.57312317828524
 51
328.17156537425205
  0
ARC
  8
_0-1_レイヤ___3
  6
CONTINUOUS
 62
    7
 10
1648.3048124525685
 20
1104.9956148904448
 40
213.15805430700365
 50
322.62900326448545
 51
341.12962669409831
  0
ARC
  8
_0-1_レイヤ___3
  6
CONTINUOUS
 62
    7
 10
1599.5880811877373
 20
1139.0069277988873
 40
272.53012002591015
 50
309.54569211200374
 51
323.16306077654963
  0
ARC
  8
_0-1_レイヤ___3
  6
CONTINUOUS
 62
    7
 10
1547.2362682729531
 20
1198.2801892736875
 40
351.57863726952053
 50
296.24830666864591
 51
309.97437874208123
  0
ARC
  8
_0-1_レイヤ___3
  6
CONTINUOUS
 62
    7
 10
1506.5679598428233
 20
1272.7120353902592
 40
436.33605289697255
 50
287.44899053140654
 51
296.71531173429952
  0
ARC
  8
_0-1_レイヤ___3
  6
CONTINUOUS
 62
    7
 10
1630.2197740145152
 20
1110.1337094575649
 40
214.39133919990127
 50
318.91990943237408
 51
337.02611422299191
  0
ARC
  8
_0-1_レイヤ___3
  6
CONTINUOUS
 62
    7
 10
1580.1621413984558
 20
1149.9829444042557
 40
278.32448404680196
 50
306.27249489970393
 51
319.50775470471405
  0
ARC
  8
_0-1_レイヤ___3
  6
CONTINUOUS
 62
    7
 10
1531.4686539432018
 20
1212.2354276714259
 40
357.3297940756874
 50
292.81159942990689
 51
306.66166804979332
  0
ARC
  8
_0-1_レイヤ___3
  6
CONTINUOUS
 62
    7
 10
1613.1205217509405
 20
1115.5992110880595
 40
215.72959858094745
 50
317.44229690377773
 51
332.46044741551367
  0
ARC
  8
_0-1_レイヤ___3
  6
CONTINUOUS
 62
    7
 10
1567.7583979011597
 20
1154.6779211899202
 40
275.57989349368864
 50
302.91482131576959
 51
317.83621218258861
  0
ARC
  8
_0-1_レイヤ___3
  6
CONTINUOUS
 62
    7
 10
1532.1843732608306
 20
1203.504980526277
 40
335.91634766842384
 50
299.8157558937902
 51
303.48306029268497
  0
ARC
  8
_0-1_レイヤ___3
  6
CONTINUOUS
 62
    7
 10
1597.1606341491411
 20
1122.3604429459522
 40
217.76643599713498
 50
313.90216357283316
 51
328.58528399818437
  0
ARC
  8
_0-1_レイヤ___3
  6
CONTINUOUS
 62
    7
 10
1560.3624581907452
 20
1157.2506261123845
 40
268.43263337669367
 50
307.34742370302627
 51
314.39739289194927
  0
ARC
  8
_0-1_レイヤ___3
  6
CONTINUOUS
 62
    7
 10
1600.7301987074352
 20
1113.4731161096192
 40
195.32895538054981
 50
316.83743190766012
 51
324.93453851627572
  0
ARC
  8
_0-1_レイヤ___3
  6
CONTINUOUS
 62
    7
 10
1757.5939533126502
 20
1312.3816734491063
 40
282.03898263233862
 50
315.24777411051025
 51
330.72272146436137
  0
ARC
  8
_0-1_レイヤ___3
  6
CONTINUOUS
 62
    7
 10
1698.7564259439837
 20
1366.3243826343341
 40
361.81429487892149
 50
302.76458954909629
 51
315.74126157013188
  0
ARC
  8
_0-1_レイヤ___3
  6
CONTINUOUS
 62
    7
 10
1642.9099838751104
 20
1447.1252690982783
 40
459.99467873521149
 50
290.23993868743298
 51
303.16726509160236
  0
ARC
  8
_0-1_レイヤ___3
  6
CONTINUOUS
 62
    7
 10
1601.3913890698814
 20
1548.4374422990857
 40
569.42788646869553
 50
274.22128253455429
 51
290.63293586805651
  0
ARC
  8
_0-1_レイヤ___3
  6
CONTINUOUS
 62
    7
 10
1591.5076195368056
 20
1618.3144200708862
 40
639.86019358108274
 50
269.97301017092673
 51
274.64334470901144
  0
LINE
  8
_0-1_レイヤ___3
  6
CONTINUOUS
 62
    7
 10
1591.2062061209556
 20
978.45429748191464
 11
1589.2062061209554
 21
978.45429748191464
  0
ARC
  8
_0-1_レイヤ___3
  6
CONTINUOUS
 62
    7
 10
1752.8933996673391
 20
1308.7241436598842
 40
264.62679822530868
 50
315.99258618514631
 51
331.84415015672744
  0
ARC
  8
_0-1_レイヤ___3
  6
CONTINUOUS
 62
    7
 10
1696.5540706191377
 20
1359.1403651556836
 40
340.18778903779173
 50
303.21566283050879
 51
316.47764755250722
  0
ARC
  8
_0-1_レイヤ___3
  6
CONTINUOUS
 62
    7
 10
1641.9639550882016
 20
1436.463596580395
 40
434.79418740230085
 50
290.49635814027113
 51
303.65235475029999
  0
ARC
  8
_0-1_レイヤ___3
  6
CONTINUOUS
 62
    7
 10
1601.2575823759921
 20
1534.7079638132957
 40
541.08524164990536
 50
274.25526788097829
 51
290.89126712794371
  0
ARC
  8
_0-1_レイヤ___3
  6
CONTINUOUS
 62
    7
 10
1591.350762998979
 20
1602.221744322984
 40
609.16746599291355
 50
269.9864035761093
 51
274.71332255401393
  0
ARC
  8
_0-1_レイヤ___3
  6
CONTINUOUS
 62
    7
 10
1591.0689235699515
 20
1668.4438272179727
 40
675.38954568837551
 50
267.584687687236
 51
270.0116461838619
  0
ARC
  8
_0-1_レイヤ___3
  6
CONTINUOUS
 62
    7
 10
1750.1880576547246
 20
1306.8759102871431
 40
249.13843846813177
 50
316.01422028131469
 51
332.81526668185126
  0
ARC
  8
_0-1_レイヤ___3
  6
CONTINUOUS
 62
    7
 10
1692.6178399251153
 20
1357.8318318487131
 40
325.9656575253008
 50
303.23814634403163
 51
316.5974341180339
  0
ARC
  8
_0-1_レイヤ___3
  6
CONTINUOUS
 62
    7
 10
1639.5109545112189
 20
1432.9425513878732
 40
417.9098166951706
 50
290.4122242694944
 51
303.68357404794762
  0
ARC
  8
_0-1_レイヤ___3
  6
CONTINUOUS
 62
    7
 10
1600.5490486026765
 20
1527.202490001979
 40
519.85251469375908
 50
273.93305781339524
 51
290.81343006975248
  0
ARC
  8
_0-1_レイヤ___3
  6
CONTINUOUS
 62
    7
 10
1591.36055786712
 20
1592.3388137507836
 40
585.48453861480527
 50
269.98489506872539
 51
274.39291789025174
  0
ARC
  8
_0-1_レイヤ___3
  6
CONTINUOUS
 62
    7
 10
1591.0547380833732
 20
1581.5171051964537
 40
574.66282967630252
 50
265.46389431461262
 51
270.01510186310469
  0
ARC
  8
_0-1_レイヤ___3
  6
CONTINUOUS
 62
    7
 10
1745.6353637816767
 20
1301.2115003379772
 40
230.77998666766675
 50
317.92135747540431
 51
334.77369260678256
  0
ARC
  8
_0-1_レイヤ___3
  6
CONTINUOUS
 62
    7
 10
1693.6682588644783
 20
1344.4315496529152
 40
298.32786803087032
 50
304.42619969742566
 51
318.44889085861462
  0
ARC
  8
_0-1_レイヤ___3
  6
CONTINUOUS
 62
    7
 10
1641.1138106693697
 20
1415.3805161869141
 40
386.5754088741607
 50
291.14551835188098
 51
304.90630113812932
  0
ARC
  8
_0-1_レイヤ___3
  6
CONTINUOUS
 62
    7
 10
1602.302790825443
 20
1505.3092083122574
 40
484.46412756386627
 50
276.06221211314272
 51
291.58985894098714
  0
ARC
  8
_0-1_レイヤ___3
  6
CONTINUOUS
 62
    7
 10
1591.5923985896754
 20
1568.6926763818599
 40
548.63851682244842
 50
269.95966889001369
 51
276.47542230679511
  0
ARC
  8
_0-1_レイヤ___3
  6
CONTINUOUS
 62
    7
 10
1591.0694017211299
 20
1535.4874454896431
 40
515.43316816279173
 50
267.23512320094221
 51
270.01520723792146
  0
ARC
  8
_0-1_レイヤ___3
  6
CONTINUOUS
 62
    7
 10
1740.8213182880813
 20
1299.1231350470994
 40
216.99482375700168
 50
318.21602675417654
 51
336.22839318339476
  0
ARC
  8
_0-1_レイヤ___3
  6
CONTINUOUS
 62
    7
 10
1689.3315085777231
 20
1341.2037754843288
 40
283.44333085248468
 50
304.53695308043189
 51
318.80850314881621
  0
ARC
  8
_0-1_レイヤ___3
  6
CONTINUOUS
 62
    7
 10
1638.4820956804106
 20
1409.4903693917126
 40
368.53725422830803
 50
291.0619896478272
 51
305.03033838450324
  0
ARC
  8
_0-1_レイヤ___3
  6
CONTINUOUS
 62
    7
 10
1600.1826568491942
 20
1498.8447302641061
 40
465.70014879887395
 50
274.02688051745736
 51
291.50844612975163
  0
ARC
  8
_0-1_レイヤ___3
  6
CONTINUOUS
 62
    7
 10
1591.3733759850738
 20
1558.8667101546787
 40
526.21244122645464
 50
269.98179798293154
 51
274.52475818652249
  0
LINE
  8
_0-1_レイヤ___3
  6
CONTINUOUS
 62
    7
 10
1591.2062061209556
 20
1032.6542954819142
 11
1586.0062061209558
 21
1032.6542954819142
  0
ARC
  8
_0-1_レイヤ___3
  6
CONTINUOUS
 62
    7
 10
1737.9326147632542
 20
1295.7929744288544
 40
201.75529026867298
 50
319.87648349999881
 51
337.70571106538586
  0
ARC
  8
_0-1_レイヤ___3
  6
CONTINUOUS
 62
    7
 10
1690.9658434830662
 20
1332.0582989364357
 40
261.05181940508595
 50
306.22765876314946
 51
320.43323023307147
  0
ARC
  8
_0-1_レイヤ___3
  6
CONTINUOUS
 62
    7
 10
1642.4176148174165
 20
1393.4289967992295
 40
339.26213535252987
 50
292.82550757584727
 51
306.71622155089483
  0
ARC
  8
_0-1_レイヤ___3
  6
CONTINUOUS
 62
    7
 10
1603.2153649583381
 20
1477.5773576471856
 40
432.04254198042076
 50
276.04135182693199
 51
293.28821133710767
  0
ARC
  8
_0-1_レイヤ___3
  6
CONTINUOUS
 62
    7
 10
1592.4892687124952
 20
1537.7915399682174
 40
493.07019330417472
 50
272.1056997007139
 51
276.54442162135075
  0
ARC
  8
_0-1_レイヤ___3
  6
CONTINUOUS
 62
    7
 10
1725.8131456934716
 20
1298.4293867984411
 40
198.10007392161512
 50
318.44977309600523
 51
335.17399722318521
  0
ARC
  8
_0-1_レイヤ___3
  6
CONTINUOUS
 62
    7
 10
1681.3138409550975
 20
1334.7733207651795
 40
255.5187938468502
 50
305.58593723419239
 51
318.96920741551628
  0
ARC
  8
_0-1_レイヤ___3
  6
CONTINUOUS
 62
    7
 10
1637.1775878741159
 20
1392.7210176080866
 40
328.33549283644072
 50
292.37918038385817
 51
305.96503304537066
  0
ARC
  8
_0-1_レイヤ___3
  6
CONTINUOUS
 62
    7
 10
1602.2661788519094
 20
1469.7192777931057
 40
412.83721615444847
 50
276.92559310020675
 51
292.79084232419797
  0
ARC
  8
_0-1_レイヤ___3
  6
CONTINUOUS
 62
    7
 10
1592.2931472885568
 20
1521.2133304494864
 40
465.17274191877107
 50
274.77384666074562
 51
277.38023389173298
  0
ARC
  8
_0-1_レイヤ___3
  6
CONTINUOUS
 62
    7
 10
1704.6137169840893
 20
1307.5157910144271
 40
206.3380261943081
 50
313.56080550381103
 51
329.06814839975289
  0
ARC
  8
_0-1_レイヤ___3
  6
CONTINUOUS
 62
    7
 10
1661.932813261471
 20
1349.2032297262017
 40
265.96809434227606
 50
301.06277372500301
 51
314.03487675796788
  0
ARC
  8
_0-1_レイヤ___3
  6
CONTINUOUS
 62
    7
 10
1622.7927679504187
 20
1409.5129036931362
 40
337.83346041439256
 50
288.14221073077726
 51
301.47134877721066
  0
ARC
  8
_0-1_レイヤ___3
  6
CONTINUOUS
 62
    7
 10
1598.9855240800978
 20
1473.2300156560295
 40
405.80554414362751
 50
277.87789519366362
 51
288.53524317844028
  0
ARC
  8
_0-1_レイヤ___3
  6
CONTINUOUS
 62
    7
 10
1678.8980840140698
 20
1324.5202532752455
 40
223.71000154251419
 50
306.97309172806735
 51
321.76028824033193
  0
ARC
  8
_0-1_レイヤ___3
  6
CONTINUOUS
 62
    7
 10
1636.2784046907825
 20
1377.2146673751299
 40
291.45122730764797
 50
292.55410982102717
 51
307.43647583108697
  0
ARC
  8
_0-1_レイヤ___3
  6
CONTINUOUS
 62
    7
 10
1605.6429984663741
 20
1442.1304782231537
 40
363.16837057194897
 50
282.26727266129393
 51
293.08949906847164
  0
ARC
  8
_0-1_レイヤ___3
  6
CONTINUOUS
 62
    7
 10
1647.1390386953958
 20
1353.4461157653573
 40
254.296591895652
 50
298.27649842450228
 51
312.39828052659107
  0
ARC
  8
_0-1_レイヤ___3
  6
CONTINUOUS
 62
    7
 10
1618.120283064231
 20
1402.4583235728246
 40
311.21600588280893
 50
289.0319162815631
 51
298.70685985507276
  0
ARC
  8
_0-1_レイヤ___3
  6
CONTINUOUS
 62
    7
 10
1931.3059312367795
 20
796.77908101351989
 40
8.0013112548498562
 50
24.16308093150462
 51
54.024636840975852
  0
ARC
  8
_0-1_レイヤ___3
  6
CONTINUOUS
 62
    7
 10
1934.4526870162247
 20
796.75409387136142
 40
6.683268358073903
 50
76.558754759307035
 51
173.98608813788525
  0
ARC
  8
_0-1_レイヤ___3
  6
CONTINUOUS
 62
    7
 10
1934.0549749435093
 20
796.95579233369131
 40
6.2686279327941454
 50
175.43878706964657
 51
211.78067672198185
  0
ARC
  8
_0-1_レイヤ___3
  6
CONTINUOUS
 62
    7
 10
1939.0574305836271
 20
799.70658291036614
 40
11.973489782478817
 50
210.3627984930003
 51
258.47997533038244
  0
ARC
  8
_0-1_レイヤ___3
  6
CONTINUOUS
 62
    7
 10
1937.3009800847115
 20
792.22345802531606
 40
4.2963116657604319
 50
261.50344294112631
 51
316.28316762070978
  0
ARC
  8
_0-1_レイヤ___3
  6
CONTINUOUS
 62
    7
 10
1936.8301096649061
 20
792.334159334643
 40
4.7195296018035364
 50
319.26376619315926
 51
2.1874590935909266
  0
ARC
  8
_0-1_レイヤ___3
  6
CONTINUOUS
 62
    7
 10
1933.3910339265049
 20
792.20343844951003
 40
8.1610887901415587
 50
2.1829605627543711
 51
16.741683853245078
  0
ARC
  8
_0-1_レイヤ___3
  6
CONTINUOUS
 62
    7
 10
1925.7787077958374
 20
790.05565434686503
 40
16.070013300949782
 50
16.256644595441927
 51
26.612563663415674
  0
ARC
  8
_0-1_レイヤ___3
  6
CONTINUOUS
 62
    7
 10
1905.2058389972672
 20
779.86060086388818
 40
39.030367498506912
 50
26.464630273468249
 51
31.156957212471617
  0
ARC
  8
_0-1_レイヤ___3
  6
CONTINUOUS
 62
    7
 10
2134.7068061520549
 20
826.08998175573447
 40
11.981429356179085
 50
16.307619998539916
 51
42.175119665919574
  0
ARC
  8
_0-1_レイヤ___3
  6
CONTINUOUS
 62
    7
 10
2139.3582814796227
 20
830.19451755024193
 40
5.7790276686644422
 50
42.979594941847061
 51
78.340463321825553
  0
ARC
  8
_0-1_レイヤ___3
  6
CONTINUOUS
 62
    7
 10
2139.8735619255672
 20
831.43624315303043
 40
4.4659999696291317
 50
81.59702510065182
 51
109.18159841928149
  0
ARC
  8
_0-1_レイヤ___3
  6
CONTINUOUS
 62
    7
 10
2140.7527644116344
 20
829.54359161856758
 40
6.5457714555064648
 50
111.00723453359521
 51
146.31238197460542
  0
ARC
  8
_0-1_レイヤ___3
  6
CONTINUOUS
 62
    7
 10
2141.6565168365896
 20
828.55799902318608
 40
7.8509093559521972
 50
143.9850987372501
 51
179.29718355270379
  0
ARC
  8
_0-1_レイヤ___3
  6
CONTINUOUS
 62
    7
 10
2158.7413593633569
 20
832.91238866468518
 40
25.296118075170121
 50
189.69072126190565
 51
207.90328402250307
  0
ARC
  8
_0-1_レイヤ___3
  6
CONTINUOUS
 62
    7
 10
2146.6425884698492
 20
826.57483436017515
 40
11.63827422497949
 50
208.2048013118401
 51
233.04743769733966
  0
ARC
  8
_0-1_レイヤ___3
  6
CONTINUOUS
 62
    7
 10
2143.2112392366907
 20
822.58824311058959
 40
6.3990245386006883
 50
236.14296178309678
 51
291.97916265994286
  0
ARC
  8
_0-1_レイヤ___3
  6
CONTINUOUS
 62
    7
 10
2144.4022074575096
 20
820.6147594012117
 40
4.1394246327265263
 50
286.90941547109327
 51
352.4978139374976
  0
ARC
  8
_0-1_レイヤ___3
  6
CONTINUOUS
 62
    7
 10
2140.6988663972488
 20
820.96454310261322
 40
7.8579235392183113
 50
353.49485248667872
 51
8.7085597437286122
  0
ARC
  8
_0-1_レイヤ___3
  6
CONTINUOUS
 62
    7
 10
2130.3929577957078
 20
819.325673456853
 40
18.293253976366106
 50
8.8951484075461842
 51
18.447465856857562
  0
ARC
  8
_0-1_レイヤ___3
  6
CONTINUOUS
 62
    7
 10
1914.3483254563409
 20
744.73892531059619
 40
246.84968652511432
 50
19.002203782095542
 51
20.071106094162953
  0
ARC
  8
_0-1_レイヤ___3
  6
CONTINUOUS
 62
    7
 10
2136.1653611596234
 20
699.41659597202147
 40
5.9705352639512208
 50
11.964305014613972
 51
67.54141718216168
  0
ARC
  8
_0-1_レイヤ___3
  6
CONTINUOUS
 62
    7
 10
2135.1427915379663
 20
697.60128383140625
 40
8.0427385208771121
 50
65.749201115272044
 51
102.46954605231485
  0
ARC
  8
_0-1_レイヤ___3
  6
CONTINUOUS
 62
    7
 10
2135.6197841618564
 20
698.57712940011311
 40
7.2246424827241444
 50
107.84204105681704
 51
125.28806129734562
  0
ARC
  8
_0-1_レイヤ___3
  6
CONTINUOUS
 62
    7
 10
2138.2468495606645
 20
694.78534754972713
 40
11.837427436080585
 50
125.06491640146443
 51
144.5301681141087
  0
ARC
  8
_0-1_レイヤ___3
  6
CONTINUOUS
 62
    7
 10
2134.5160057125377
 20
698.36723746821463
 40
6.7624415413133203
 50
150.91697319257656
 51
237.33559462021003
  0
ARC
  8
_0-1_レイヤ___3
  6
CONTINUOUS
 62
    7
 10
2138.745689769994
 20
703.66689599641575
 40
13.524922284712158
 50
234.36704620804608
 51
262.61050353792575
  0
ARC
  8
_0-1_レイヤ___3
  6
CONTINUOUS
 62
    7
 10
2137.3247381821702
 20
694.26296834487857
 40
4.0213029963962974
 50
265.45666121485277
 51
332.95148080700858
  0
ARC
  8
_0-1_レイヤ___3
  6
CONTINUOUS
 62
    7
 10
2132.7508674071219
 20
697.2930483375842
 40
9.4929889950150663
 50
329.21454700272608
 51
356.50475438774311
  0
ARC
  8
_0-1_レイヤ___3
  6
CONTINUOUS
 62
    7
 10
2128.7921828127437
 20
697.94032093170927
 40
13.489843994374732
 50
354.78549889193931
 51
11.606377135258185
  0
ARC
  8
_0-1_レイヤ___3
  6
CONTINUOUS
 62
    7
 10
2193.7999359822743
 20
767.80174346994443
 40
4.6841125736592826
 50
173.47169092845675
 51
215.91223012603791
  0
ARC
  8
_0-1_レイヤ___3
  6
CONTINUOUS
 62
    7
 10
2197.2046121668736
 20
767.28684750841296
 40
8.1262060523901631
 50
101.34398754693362
 51
172.59408150874427
  0
ARC
  8
_0-1_レイヤ___3
  6
CONTINUOUS
 62
    7
 10
2195.6348831780015
 20
758.4890957821807
 40
16.765228243027618
 50
29.223983148696568
 51
90.098039112478673
  0
ARC
  8
_0-1_レイヤ___3
  6
CONTINUOUS
 62
    7
 10
2201.0203988333501
 20
762.23923730213755
 40
10.254488969323965
 50
353.3644729231566
 51
25.626294716377163
  0
ARC
  8
_0-1_レイヤ___3
  6
CONTINUOUS
 62
    7
 10
2201.0106806095569
 20
762.95090581486534
 40
10.370421983958106
 50
296.3041926318881
 51
349.46208600156473
  0
ARC
  8
_0-1_レイヤ___3
  6
CONTINUOUS
 62
    7
 10
2203.3161360903382
 20
761.00717543911856
 40
7.7012440414427985
 50
237.74609092741758
 51
287.29924845926934
  0
ARC
  8
_0-1_レイヤ___3
  6
CONTINUOUS
 62
    7
 10
2206.1808129571209
 20
765.70051148963955
 40
13.199411637395158
 50
226.44766682222365
 51
238.10234309355633
  0
ARC
  8
_0-1_レイヤ___3
  6
CONTINUOUS
 62
    7
 10
2213.7896149242379
 20
774.07864255473726
 40
24.515375747334637
 50
218.80874283190272
 51
227.05119586202233
  0
ARC
  8
_0-1_レイヤ___3
  6
CONTINUOUS
 62
    7
 10
2310.6880510663409
 20
849.24074761193197
 40
147.14437862795489
 50
214.89923994049511
 51
217.96804765138285
  0
ARC
  8
_0-1_レイヤ___3
  6
CONTINUOUS
 62
    7
 10
1781.966797501877
 20
763.2779840307262
 40
5.3363234513829969
 50
99.934073775196453
 51
137.91877789531682
  0
ARC
  8
_0-1_レイヤ___3
  6
CONTINUOUS
 62
    7
 10
1781.3095332182911
 20
767.11373759103196
 40
1.4447627323031091
 50
40.618155624118856
 51
100.50177471947612
  0
ARC
  8
_0-1_レイヤ___3
  6
CONTINUOUS
 62
    7
 10
1804.6878456115076
 20
784.73502662894418
 40
27.833761779423533
 50
216.81966124671095
 51
224.70754915517844
  0
ARC
  8
_0-1_レイヤ___3
  6
CONTINUOUS
 62
    7
 10
1777.8755802878379
 20
758.15317680429359
 40
9.9219636215525515
 50
27.628129109004057
 51
44.879546365897291
  0
ARC
  8
_0-1_レイヤ___3
  6
CONTINUOUS
 62
    7
 10
1784.201241978687
 20
761.48226760565024
 40
2.7738229210259036
 50
307.92727562467269
 51
27.295798068703633
  0
ARC
  8
_0-1_レイヤ___3
  6
CONTINUOUS
 62
    7
 10
1781.3841758151834
 20
764.70058647440908
 40
7.0481672054026747
 50
300.92370360112807
 51
309.91040695179186
  0
ARC
  8
_0-1_レイヤ___3
  6
CONTINUOUS
 62
    7
 10
1783.1331030540873
 20
761.38463457419164
 40
3.3110768384958527
 50
227.73497200510869
 51
304.45139522669524
  0
ARC
  8
_0-1_レイヤ___3
  6
CONTINUOUS
 62
    7
 10
1792.9433388682321
 20
772.78033744558797
 40
18.346809759849464
 50
219.88975717022709
 51
228.99773837560633
  0
ARC
  8
_0-1_レイヤ___3
  6
CONTINUOUS
 62
    7
 10
1770.5575421348858
 20
754.36041396149562
 40
10.644624149445754
 50
38.689051500308118
 51
56.670896379927065
  0
ARC
  8
_0-1_レイヤ___3
  6
CONTINUOUS
 62
    7
 10
1775.5993728654084
 20
765.07180396693855
 40
1.9885411739995211
 50
293.93746225438463
 51
2.3776232256495105
  0
ARC
  8
_0-1_レイヤ___3
  6
CONTINUOUS
 62
    7
 10
1793.044140678445
 20
762.23716172065053
 40
15.730783742881037
 50
162.93180549212369
 51
169.31313490144376
  0
ARC
  8
_0-1_レイヤ___3
  6
CONTINUOUS
 62
    7
 10
2126.2399832428905
 20
757.44128998428323
 40
1.8741743575114604
 50
149.43632277212353
 51
191.91649367156225
  0
ARC
  8
_0-1_レイヤ___3
  6
CONTINUOUS
 62
    7
 10
2125.1992089481014
 20
757.94827782762354
 40
0.7261382265949232
 50
91.02667143845612
 51
142.10343091560679
  0
ARC
  8
_0-1_レイヤ___3
  6
CONTINUOUS
 62
    7
 10
2125.1443979675441
 20
756.13862811332183
 40
2.5360158797464556
 50
49.05912549008265
 51
89.055573409928257
  0
ARC
  8
_0-1_レイヤ___3
  6
CONTINUOUS
 62
    7
 10
2126.0075775269715
 20
755.35671344244122
 40
2.8133192661862165
 50
47.001629907340899
 51
73.508607498799705
  0
ARC
  8
_0-1_レイヤ___3
  6
CONTINUOUS
 62
    7
 10
2128.9582293533849
 20
758.43487232634743
 40
1.4514328766784095
 50
224.68015728891666
 51
287.97722844667987
  0
ARC
  8
_0-1_レイヤ___3
  6
CONTINUOUS
 62
    7
 10
2121.4645764320471
 20
756.91723037298914
 40
7.9428044789205341
 50
343.14568006970973
 51
0.9888033019873275
  0
ARC
  8
_0-1_レイヤ___3
  6
CONTINUOUS
 62
    7
 10
2125.8168052183864
 20
755.49181380397101
 40
3.3657964318547853
 50
297.79288786353686
 51
344.88749562828104
  0
ARC
  8
_0-1_レイヤ___3
  6
CONTINUOUS
 62
    7
 10
2126.5014918988077
 20
754.9782299985003
 40
2.6179493291637659
 50
254.59815400218389
 51
289.75133422701612
  0
ARC
  8
_0-1_レイヤ___3
  6
CONTINUOUS
 62
    7
 10
2126.1558755086253
 20
753.90037284983975
 40
1.4877508060385884
 50
215.60092122782049
 51
256.40616047572814
  0
ARC
  8
_0-1_レイヤ___3
  6
CONTINUOUS
 62
    7
 10
2127.218588339711
 20
754.5396734558733
 40
2.725785778040323
 50
188.97801928574594
 51
213.52299172844195
  0
ARC
  8
_0-1_レイヤ___3
  6
CONTINUOUS
 62
    7
 10
2137.5851626759722
 20
756.11976742293962
 40
13.212057255084934
 50
175.94389490374223
 51
188.73071681453902
  0
ARC
  8
_0-1_レイヤ___3
  6
CONTINUOUS
 62
    7
 10
1946.8792262309744
 20
687.5812753718958
 40
3.7291361929192517
 50
271.95124931877098
 51
358.04875068122902
  0
ARC
  8
_0-1_レイヤ___3
  6
CONTINUOUS
 62
    7
 10
1947.2053693448606
 20
687.44796130449117
 40
3.5991748082234798
 50
179.89906975488086
 51
266.82777616187934
  0
ARC
  8
_0-1_レイヤ___3
  6
CONTINUOUS
 62
    7
 10
1947.3278567339059
 20
687.34495912523982
 40
3.7232625069524756
 50
94.956021302284441
 51
178.31713278095535
  0
ARC
  8
_0-1_レイヤ___3
  6
CONTINUOUS
 62
    7
 10
1946.8792262309744
 20
687.32732759193368
 40
3.7291361929192517
 50
1.9512493187709867
 51
88.048750681229023
  0
ARC
  8
_0-1_レイヤ___3
  6
CONTINUOUS
 62
    7
 10
1975.8235889024722
 20
603.63691270039851
 40
3.5872621872286574
 50
272.91792896302587
 51
357.0820710369693
  0
ARC
  8
_0-1_レイヤ___3
  6
CONTINUOUS
 62
    7
 10
1976.1155424776314
 20
603.77595809486422
 40
3.7232625069523033
 50
184.95602130227292
 51
268.31713278094378
  0
ARC
  8
_0-1_レイヤ___3
  6
CONTINUOUS
 62
    7
 10
1976.133174010937
 20
603.32732759193391
 40
3.7291361929185158
 50
91.95124931877325
 51
178.0487506812313
  0
ARC
  8
_0-1_レイヤ___3
  6
CONTINUOUS
 62
    7
 10
1975.807024332426
 20
603.46063545941433
 40
3.599181361922537
 50
359.89916863612569
 51
86.827677280657895
  0
ARC
  8
_0-1_レイヤ___3
  6
CONTINUOUS
 62
    7
 10
2109.8792242309746
 20
648.78127537189584
 40
3.7291361929192517
 50
271.95124931877098
 51
358.04875068122902
  0
ARC
  8
_0-1_レイヤ___3
  6
CONTINUOUS
 62
    7
 10
2110.133172010937
 20
648.78127537189641
 40
3.7291361929193991
 50
181.95124931877328
 51
268.0487506812313
  0
ARC
  8
_0-1_レイヤ___3
  6
CONTINUOUS
 62
    7
 10
2110.133172010937
 20
648.52732759193316
 40
3.7291361929191047
 50
91.951249318764198
 51
178.04875068122223
  0
ARC
  8
_0-1_レイヤ___3
  6
CONTINUOUS
 62
    7
 10
2109.8792242309746
 20
648.52732759193316
 40
3.7291361929189577
 50
1.9512493187755031
 51
88.048750681233543
  0
ARC
  8
_0-1_レイヤ___3
  6
CONTINUOUS
 62
    7
 10
2165.0792242309744
 20
727.78127337189574
 40
3.7291361929192517
 50
271.95124931877098
 51
358.04875068122902
  0
ARC
  8
_0-1_レイヤ___3
  6
CONTINUOUS
 62
    7
 10
2165.3331720109372
 20
727.78127337189574
 40
3.7291361929189577
 50
181.95124931876646
 51
268.04875068122448
  0
ARC
  8
_0-1_レイヤ___3
  6
CONTINUOUS
 62
    7
 10
2165.3331720109372
 20
727.52732559193362
 40
3.7291361929189577
 50
91.95124931877551
 51
178.04875068123354
  0
ARC
  8
_0-1_レイヤ___3
  6
CONTINUOUS
 62
    7
 10
2165.0792242309744
 20
727.52732559193362
 40
3.7291361929192517
 50
1.9512493187709867
 51
88.048750681229023
  0
ARC
  8
_0-1_レイヤ___3
  6
CONTINUOUS
 62
    7
 10
2111.0792242309744
 20
868.18127137189606
 40
3.7291361929196936
 50
271.95124931877325
 51
358.0487506812313
  0
ARC
  8
_0-1_レイヤ___3
  6
CONTINUOUS
 62
    7
 10
2111.4053673448607
 20
868.04795730449086
 40
3.5991748082237809
 50
179.89906975487634
 51
266.82777616187479
  0
ARC
  8
_0-1_レイヤ___3
  6
CONTINUOUS
 62
    7
 10
2111.307909409657
 20
867.9525861932126
 40
3.5031881387769497
 50
91.663754957611118
 51
178.33624504237929
  0
ARC
  8
_0-1_レイヤ___3
  6
CONTINUOUS
 62
    7
 10
2111.157264182697
 20
867.79660272375679
 40
3.658022071306247
 50
4.0396316246954616
 51
89.233522458558426
  0
ARC
  8
_0-1_レイヤ___3
  6
CONTINUOUS
 62
    7
 10
2167.4792242309745
 20
869.38127137189554
 40
3.7291361929186633
 50
271.95124931877098
 51
358.04875068122902
  0
ARC
  8
_0-1_レイヤ___3
  6
CONTINUOUS
 62
    7
 10
2167.8053673448603
 20
869.24795730449148
 40
3.599174808223605
 50
179.89906975489257
 51
266.82777616189105
  0
ARC
  8
_0-1_レイヤ___3
  6
CONTINUOUS
 62
    7
 10
2167.9278547339063
 20
869.14495512523956
 40
3.7232625069532266
 50
94.956021302281798
 51
178.3171327809527
  0
ARC
  8
_0-1_レイヤ___3
  6
CONTINUOUS
 62
    7
 10
2167.4792242309741
 20
869.12732359193399
 40
3.7291361929192517
 50
1.9512493187619413
 51
88.048750681219985
  0
ARC
  8
_0-1_レイヤ___3
  6
CONTINUOUS
 62
    7
 10
2076.9655589774056
 20
899.99103751749374
 40
12.773111465473947
 50
19.497657564156114
 51
44.944876059022796
  0
ARC
  8
_0-1_レイヤ___3
  6
CONTINUOUS
 62
    7
 10
2082.4090640212303
 20
905.21036966043823
 40
5.2353835200886909
 50
46.600489995602103
 51
105.54282612609768
  0
ARC
  8
_0-1_レイヤ___3
  6
CONTINUOUS
 62
    7
 10
2082.6916409681348
 20
904.92370701900882
 40
5.590698728632395
 50
107.5460763072581
 51
146.19371898442111
  0
ARC
  8
_0-1_レイヤ___3
  6
CONTINUOUS
 62
    7
 10
2083.989827332985
 20
903.63684433017454
 40
7.3935324731712555
 50
143.5037445790943
 51
182.96585040449682
  0
ARC
  8
_0-1_レイヤ___3
  6
CONTINUOUS
 62
    7
 10
2099.4787849157979
 20
906.3926509469735
 40
23.08688998456098
 50
187.8127827457742
 51
206.76940106453722
  0
ARC
  8
_0-1_レイヤ___3
  6
CONTINUOUS
 62
    7
 10
2089.444825368023
 20
901.41800893908339
 40
11.887977136713531
 50
207.14442562065173
 51
232.12431252608485
  0
ARC
  8
_0-1_レイヤ___3
  6
CONTINUOUS
 62
    7
 10
2085.9192839758307
 20
897.41750296978296
 40
6.5738176269858908
 50
234.9734067384897
 51
290.35783565866956
  0
ARC
  8
_0-1_レイヤ___3
  6
CONTINUOUS
 62
    7
 10
2086.7968870830846
 20
895.38777732196593
 40
4.3671287122748508
 50
288.82682335591051
 51
352.45427550841094
  0
ARC
  8
_0-1_レイヤ___3
  6
CONTINUOUS
 62
    7
 10
2082.9193612464787
 20
895.71982886164221
 40
8.2566432988195277
 50
353.70353043345642
 51
8.4583179398600485
  0
ARC
  8
_0-1_レイヤ___3
  6
CONTINUOUS
 62
    7
 10
2072.2744082968857
 20
894.17077819800568
 40
19.013691782963015
 50
8.3571794574693037
 51
17.518933176908675
  0
ARC
  8
_0-1_レイヤ___3
  6
CONTINUOUS
 62
    7
 10
2528.1588383407088
 20
1042.8618425065993
 40
460.50742985292862
 50
197.51699802260919
 51
198.086746080371
  0
ARC
  8
_0-1_レイヤ___3
  6
CONTINUOUS
 62
    7
 10
2078.3296693919583
 20
773.84646040880909
 40
6.4324819270403841
 50
12.642322200487159
 51
83.24577049948779
  0
ARC
  8
_0-1_レイヤ___3
  6
CONTINUOUS
 62
    7
 10
2077.9539532747999
 20
773.16715573837143
 40
7.1572689682273891
 50
80.897851403127447
 51
105.79144923341521
  0
ARC
  8
_0-1_レイヤ___3
  6
CONTINUOUS
 62
    7
 10
2079.2797971535483
 20
771.40731117930329
 40
9.2459103030305521
 50
110.7357921476649
 51
148.38354379032737
  0
ARC
  8
_0-1_レイヤ___3
  6
CONTINUOUS
 62
    7
 10
2076.8886874054128
 20
772.93035777946159
 40
6.4114177211828043
 50
148.77226633037588
 51
237.31292398788139
  0
ARC
  8
_0-1_レイヤ___3
  6
CONTINUOUS
 62
    7
 10
2081.4106914388099
 20
778.62852019477998
 40
13.66871854888438
 50
234.25749360753099
 51
263.2588314686891
  0
ARC
  8
_0-1_レイヤ___3
  6
CONTINUOUS
 62
    7
 10
2080.3059144857134
 20
768.76424461029785
 40
3.7434488511023991
 50
262.32863487109148
 51
333.16384530971561
  0
ARC
  8
_0-1_レイヤ___3
  6
CONTINUOUS
 62
    7
 10
2076.8384543401248
 20
771.04551695422288
 40
7.8813668610094805
 50
329.74335184495999
 51
344.31120549338925
  0
ARC
  8
_0-1_レイヤ___3
  6
CONTINUOUS
 62
    7
 10
2071.8103882113724
 20
772.44503225537358
 40
13.100562338782284
 50
344.36488792670548
 51
12.382597679859032
  0
ARC
  8
_0-1_レイヤ___3
  6
CONTINUOUS
 62
    7
 10
2069.2795579641775
 20
831.93735681311011
 40
2.2909138852249651
 50
148.50165867901438
 51
187.09740386623204
  0
ARC
  8
_0-1_レイヤ___3
  6
CONTINUOUS
 62
    7
 10
2067.9669350384779
 20
832.65858881890495
 40
0.7980253331677991
 50
94.364946004833854
 51
143.40821752896679
  0
ARC
  8
_0-1_レイヤ___3
  6
CONTINUOUS
 62
    7
 10
2067.9395884258383
 20
831.56029530233297
 40
1.8942984835374113
 50
62.092779842032812
 51
91.009990054599982
  0
ARC
  8
_0-1_レイヤ___3
  6
CONTINUOUS
 62
    7
 10
2066.991194156064
 20
828.47718608029027
 40
5.0987613659673858
 50
59.144782095734989
 51
68.906429979440432
  0
ARC
  8
_0-1_レイヤ___3
  6
CONTINUOUS
 62
    7
 10
2074.7371304347444
 20
839.18994564553657
 40
8.1527221662028602
 50
230.99766673257832
 51
245.11282771500515
  0
ARC
  8
_0-1_レイヤ___3
  6
CONTINUOUS
 62
    7
 10
2071.6350558189738
 20
833.6414340116346
 40
1.8761805234118683
 50
259.90502314922207
 51
287.72312651939706
  0
ARC
  8
_0-1_レイヤ___3
  6
CONTINUOUS
 62
    7
 10
2063.2925959005747
 20
832.34189994936173
 40
8.9269288537009412
 50
339.35381220116261
 51
356.86887171960177
  0
ARC
  8
_0-1_レイヤ___3
  6
CONTINUOUS
 62
    7
 10
2068.3007661560878
 20
830.36194399924739
 40
3.5433471111955566
 50
295.14190063450303
 51
340.75965758349668
  0
ARC
  8
_0-1_レイヤ___3
  6
CONTINUOUS
 62
    7
 10
2068.9097479941493
 20
829.85460125719214
 40
2.8452157224744545
 50
259.8060239397106
 51
288.36520962027384
  0
ARC
  8
_0-1_レイヤ___3
  6
CONTINUOUS
 62
    7
 10
2068.7433696020862
 20
828.36108773174885
 40
1.3495851724114223
 50
212.58343140382541
 51
255.53234485336725
  0
ARC
  8
_0-1_レイヤ___3
  6
CONTINUOUS
 62
    7
 10
2070.0322729709169
 20
829.12572925383188
 40
2.847841628703105
 50
187.08849115181999
 51
211.5811259238663
  0
ARC
  8
_0-1_レイヤ___3
  6
CONTINUOUS
 62
    7
 10
2101.8957700541669
 20
832.63024197727475
 40
34.903218955233697
 50
181.60227843367869
 51
186.34271344781513
  0
ARC
  8
_0-1_レイヤ___3
  6
CONTINUOUS
 62
    7
 10
2052.6125320984556
 20
723.45347527044453
 40
3.5991813619221125
 50
269.89916863611847
 51
356.82767728065073
  0
ARC
  8
_0-1_レイヤ___3
  6
CONTINUOUS
 62
    7
 10
2052.7888093394386
 20
723.43691070039824
 40
3.5872621872283577
 50
182.91792896303551
 51
267.0820710369789
  0
ARC
  8
_0-1_レイヤ___3
  6
CONTINUOUS
 62
    7
 10
2052.9278547339063
 20
723.14495712523922
 40
3.7232625069529162
 50
94.956021302277279
 51
178.31713278094816
  0
ARC
  8
_0-1_レイヤ___3
  6
CONTINUOUS
 62
    7
 10
2052.4792242309745
 20
723.12732559193364
 40
3.7291361929189577
 50
1.9512493187664703
 51
88.048750681224504
  0
ARC
  8
_0-1_レイヤ___3
  6
CONTINUOUS
 62
    7
 10
2107.6792242309743
 20
802.38127337189553
 40
3.7291361929186633
 50
271.95124931877098
 51
358.04875068122902
  0
ARC
  8
_0-1_レイヤ___3
  6
CONTINUOUS
 62
    7
 10
2107.9331720109367
 20
802.3812733718961
 40
3.7291361929191047
 50
181.95124931877774
 51
268.04875068123579
  0
ARC
  8
_0-1_レイヤ___3
  6
CONTINUOUS
 62
    7
 10
2107.9331720109371
 20
802.12732559193284
 40
3.7291361929193991
 50
91.951249318768717
 51
178.04875068122675
  0
ARC
  8
_0-1_レイヤ___3
  6
CONTINUOUS
 62
    7
 10
2107.6792242309743
 20
802.12732559193341
 40
3.7291361929189577
 50
1.9512493187664703
 51
88.048750681224504
  0
ARC
  8
_0-1_レイヤ___3
  6
CONTINUOUS
 62
    7
 10
2058.1655589774068
 20
618.19104151749286
 40
12.7731114654732
 50
19.497657564161656
 51
44.944876059028346
  0
ARC
  8
_0-1_レイヤ___3
  6
CONTINUOUS
 62
    7
 10
2063.6090640212292
 20
623.41037366043793
 40
5.2353835200888312
 50
46.600489995595971
 51
105.54282612609154
  0
ARC
  8
_0-1_レイヤ___3
  6
CONTINUOUS
 62
    7
 10
2063.8916409681356
 20
623.12371101900908
 40
5.5906987286325656
 50
107.54607630726777
 51
146.1937189844308
  0
ARC
  8
_0-1_レイヤ___3
  6
CONTINUOUS
 62
    7
 10
2065.1898273329839
 20
621.83684833017423
 40
7.3935324731705716
 50
143.50374457908933
 51
182.96585040449185
  0
ARC
  8
_0-1_レイヤ___3
  6
CONTINUOUS
 62
    7
 10
2080.6787849157986
 20
624.59265494697604
 40
23.086889984561747
 50
187.81278274578034
 51
206.76940106454333
  0
ARC
  8
_0-1_レイヤ___3
  6
CONTINUOUS
 62
    7
 10
2070.6448253680246
 20
619.61801293908138
 40
11.887977136713284
 50
207.14442562064036
 51
232.12431252607348
  0
ARC
  8
_0-1_レイヤ___3
  6
CONTINUOUS
 62
    7
 10
2067.1192839758301
 20
615.61750696978322
 40
6.5738176269858117
 50
234.97340673849499
 51
290.35783565867484
  0
ARC
  8
_0-1_レイヤ___3
  6
CONTINUOUS
 62
    7
 10
2067.9968870830853
 20
613.58778132196562
 40
4.3671287122746048
 50
288.82682335590329
 51
352.45427550840373
  0
ARC
  8
_0-1_レイヤ___3
  6
CONTINUOUS
 62
    7
 10
2064.1193612464785
 20
613.91983286164077
 40
8.2566432988195491
 50
353.7035304334641
 51
8.458317939867726
  0
ARC
  8
_0-1_レイヤ___3
  6
CONTINUOUS
 62
    7
 10
2053.4744082968828
 20
612.37078219801106
 40
19.013691782965289
 50
8.3571794574512275
 51
17.518933176890599
  0
ARC
  8
_0-1_レイヤ___3
  6
CONTINUOUS
 62
    7
 10
2509.3588383407091
 20
761.06184650665682
 40
460.50742985294607
 50
197.51699802261595
 51
198.08674608037776
  0
ARC
  8
_0-1_レイヤ___3
  6
CONTINUOUS
 62
    7
 10
2140.4634493169979
 20
635.31453701902819
 40
11.632492320035032
 50
16.684807021626039
 51
43.17821665940496
  0
ARC
  8
_0-1_レイヤ___3
  6
CONTINUOUS
 62
    7
 10
2144.5131613094936
 20
639.07120159614067
 40
6.1088349152326753
 50
43.474861606073389
 51
78.355138923476972
  0
ARC
  8
_0-1_レイヤ___3
  6
CONTINUOUS
 62
    7
 10
2145.0864179316031
 20
640.56494950799674
 40
4.5375754587647856
 50
81.639343656245359
 51
109.03912995125322
  0
ARC
  8
_0-1_レイヤ___3
  6
CONTINUOUS
 62
    7
 10
2145.7640721412199
 20
639.63061921443341
 40
5.6518383486194699
 50
112.44524690881018
 51
131.94622096058214
  0
ARC
  8
_0-1_レイヤ___3
  6
CONTINUOUS
 62
    7
 10
2147.5049306198207
 20
637.63648977530522
 40
8.298751613623395
 50
131.68290479831498
 51
179.87702531106979
  0
ARC
  8
_0-1_レイヤ___3
  6
CONTINUOUS
 62
    7
 10
2163.8736990173666
 20
641.85600391473656
 40
25.022787690591429
 50
189.66661723019016
 51
207.93315308712255
  0
ARC
  8
_0-1_レイヤ___3
  6
CONTINUOUS
 62
    7
 10
2152.0483804607602
 20
635.65629345469915
 40
11.671146859520029
 50
208.23778822538702
 51
233.50049930806551
  0
ARC
  8
_0-1_レイヤ___3
  6
CONTINUOUS
 62
    7
 10
2148.5642570250257
 20
631.55452043868536
 40
6.3118050996097228
 50
236.77888040583576
 51
290.80558515083771
  0
ARC
  8
_0-1_レイヤ___3
  6
CONTINUOUS
 62
    7
 10
2149.3431918341798
 20
629.88559461631439
 40
4.477078174922057
 50
289.07327032431419
 51
352.9268282628687
  0
ARC
  8
_0-1_レイヤ___3
  6
CONTINUOUS
 62
    7
 10
2145.4793144865425
 20
630.23794518692682
 40
8.3558893997756982
 50
353.7916333067397
 51
8.3702150665767618
  0
ARC
  8
_0-1_レイヤ___3
  6
CONTINUOUS
 62
    7
 10
2135.606443599318
 20
628.84516868640787
 40
18.326436316148989
 50
8.1850050926795657
 51
17.691107541667076
  0
ARC
  8
_0-1_レイヤ___3
  6
CONTINUOUS
 62
    7
 10
2005.6919505591263
 20
586.03887661391866
 40
155.11076872859172
 50
18.172361784484849
 51
19.828868514665267
  0
ARC
  8
_0-1_レイヤ___3
  6
CONTINUOUS
 62
    7
 10
1946.3965283233301
 20
864.16246977795083
 40
6.1469483430323892
 50
12.131586189423428
 51
67.32498114413815
  0
ARC
  8
_0-1_レイヤ___3
  6
CONTINUOUS
 62
    7
 10
1945.7008467156406
 20
863.13155250486489
 40
7.3704261563929228
 50
65.42405184668695
 51
104.89572317561229
  0
ARC
  8
_0-1_レイヤ___3
  6
CONTINUOUS
 62
    7
 10
1946.6143141653451
 20
862.6048859814108
 40
8.1485582031634376
 50
110.15828567079478
 51
126.51019929545856
  0
ARC
  8
_0-1_レイヤ___3
  6
CONTINUOUS
 62
    7
 10
1949.1630834779671
 20
858.83237227252607
 40
12.698662269130761
 50
125.62608688391789
 51
143.11471589926759
  0
ARC
  8
_0-1_レイヤ___3
  6
CONTINUOUS
 62
    7
 10
1944.4929549711292
 20
863.17685651252191
 40
6.3910952186424179
 50
149.14857096188234
 51
220.40427377516144
  0
ARC
  8
_0-1_レイヤ___3
  6
CONTINUOUS
 62
    7
 10
1947.9421204771756
 20
866.33636797419172
 40
11.06683174378237
 50
221.28582652333549
 51
246.93381482982608
  0
ARC
  8
_0-1_レイヤ___3
  6
CONTINUOUS
 62
    7
 10
1949.1595817076363
 20
868.22507023590731
 40
13.286971134379007
 50
245.29433338809747
 51
262.4169890513495
  0
ARC
  8
_0-1_レイヤ___3
  6
CONTINUOUS
 62
    7
 10
1947.724740182171
 20
859.06296434487899
 40
4.0213029963960469
 50
265.45666121484641
 51
332.95148080700221
  0
ARC
  8
_0-1_レイヤ___3
  6
CONTINUOUS
 62
    7
 10
1943.1508694071204
 20
862.09304433758291
 40
9.4929889950156863
 50
329.21454700273864
 51
356.50475438775567
  0
ARC
  8
_0-1_レイヤ___3
  6
CONTINUOUS
 62
    7
 10
1939.1921848127454
 20
862.74031693171196
 40
13.489843994372631
 50
354.78549889192738
 51
11.606377135246284
  0
ARC
  8
_0-1_レイヤ___3
  6
CONTINUOUS
 62
    7
 10
2155.2654506629251
 20
551.34041078620385
 40
15.866700712537767
 50
148.99183649274994
 51
181.75564260916985
  0
ARC
  8
_0-1_レイヤ___3
  6
CONTINUOUS
 62
    7
 10
2148.1441433157947
 20
555.46130389631514
 40
7.6413728863480079
 50
117.58077367789635
 51
147.96737853186056
  0
ARC
  8
_0-1_レイヤ___3
  6
CONTINUOUS
 62
    7
 10
2146.5842430575208
 20
557.84502048085983
 40
4.8144020432881849
 50
87.357595514092509
 51
114.25886636653642
  0
ARC
  8
_0-1_レイヤ___3
  6
CONTINUOUS
 62
    7
 10
2146.0297937755759
 20
551.56153880232239
 40
11.119902515055093
 50
58.21996028890063
 51
85.996285452704271
  0
ARC
  8
_0-1_レイヤ___3
  6
CONTINUOUS
 62
    7
 10
2143.0056900496465
 20
546.11037846319391
 40
17.349075034947326
 50
49.355717948405335
 51
59.211387662128338
  0
ARC
  8
_0-1_レイヤ___3
  6
CONTINUOUS
 62
    7
 10
2135.5029299454395
 20
537.5737121810289
 40
28.713734638469781
 50
41.325180588932689
 51
49.091514152681704
  0
ARC
  8
_0-1_レイヤ___3
  6
CONTINUOUS
 62
    7
 10
2090.4467992294185
 20
498.63129802987373
 40
88.26608832982744
 50
36.274486206540573
 51
40.99590712639381
  0
ARC
  8
_0-1_レイヤ___3
  6
CONTINUOUS
 62
    7
 10
2149.408527374535
 20
541.52935126415741
 40
15.353758676674417
 50
353.58655390218684
 51
37.397417153823739
  0
ARC
  8
_0-1_レイヤ___3
  6
CONTINUOUS
 62
    7
 10
2157.3500539942488
 20
541.0439982682567
 40
7.4187676975563086
 50
275.07408729261874
 51
350.45892716023803
  0
ARC
  8
_0-1_レイヤ___3
  6
CONTINUOUS
 62
    7
 10
2157.0843306892239
 20
547.20849592111222
 40
13.585505961887756
 50
225.40575651515738
 51
273.8908916612454
  0
ARC
  8
_0-1_レイヤ___3
  6
CONTINUOUS
 62
    7
 10
2160.9151017525646
 20
551.98394410387266
 40
19.685520018912079
 50
193.9018790259716
 51
227.22479449128679
  0
ARC
  8
_0-1_レイヤ___3
  6
CONTINUOUS
 62
    7
 10
2050.1369018289301
 20
550.31766731533196
 40
1.9485834128254189
 50
145.75128700732176
 51
187.76767316225445
  0
ARC
  8
_0-1_レイヤ___3
  6
CONTINUOUS
 62
    7
 10
2049.1028669218158
 20
550.90481154153622
 40
0.7694991508734861
 50
89.75196301722788
 51
138.53912090363798
  0
ARC
  8
_0-1_レイヤ___3
  6
CONTINUOUS
 62
    7
 10
2049.0529070437656
 20
549.49651403712267
 40
2.178441370511373
 50
61.684534066966677
 51
88.598237037159947
  0
ARC
  8
_0-1_レイヤ___3
  6
CONTINUOUS
 62
    7
 10
2047.7664141196681
 20
545.87473547933769
 40
6.0056815989366532
 50
59.592186909550435
 51
67.277710736311676
  0
ARC
  8
_0-1_レイヤ___3
  6
CONTINUOUS
 62
    7
 10
2055.7494187688308
 20
557.33065513589281
 40
7.9892440479663556
 50
231.77622275782912
 51
246.67570503966823
  0
ARC
  8
_0-1_レイヤ___3
  6
CONTINUOUS
 62
    7
 10
2052.8858933022648
 20
551.53180267069047
 40
1.5664357494600414
 50
258.96999717199986
 51
289.39983507820131
  0
ARC
  8
_0-1_レイヤ___3
  6
CONTINUOUS
 62
    7
 10
2044.606436562417
 20
550.51793749423723
 40
8.8119668624271572
 50
339.23864436762125
 51
356.98403955313819
  0
ARC
  8
_0-1_レイヤ___3
  6
CONTINUOUS
 62
    7
 10
2049.765934534269
 20
548.4732132754732
 40
3.2637509258680253
 50
292.33440831388089
 51
340.69640748616911
  0
ARC
  8
_0-1_レイヤ___3
  6
CONTINUOUS
 62
    7
 10
2050.3061981209562
 20
548.10981504617587
 40
2.7462231642612971
 50
255.23260529016446
 51
284.76739470983563
  0
ARC
  8
_0-1_レイヤ___3
  6
CONTINUOUS
 62
    7
 10
2049.7176970994678
 20
546.60430162466355
 40
1.1553907350049633
 50
217.91626066195181
 51
264.46215185214589
  0
ARC
  8
_0-1_レイヤ___3
  6
CONTINUOUS
 62
    7
 10
2050.7480167255794
 20
547.19851041304878
 40
2.3391483947114304
 50
186.97868964657405
 51
213.88696771222223
  0
ARC
  8
_0-1_レイヤ___3
  6
CONTINUOUS
 62
    7
 10
2073.0680210921405
 20
550.21850763913335
 40
24.862365222475976
 50
180.37841426194115
 51
187.63719482281161
  0
ARC
  8
_0-1_レイヤ___3
  6
CONTINUOUS
 62
    7
 10
2089.085797252123
 20
520.57590440185493
 40
3.5225003990078259
 50
268.70515770429887
 51
358.0216882124663
  0
ARC
  8
_0-1_レイヤ___3
  6
CONTINUOUS
 62
    7
 10
2089.0551320592153
 20
520.71199824007181
 40
3.6580220713066716
 50
184.03963162468364
 51
269.23352245854659
  0
ARC
  8
_0-1_レイヤ___3
  6
CONTINUOUS
 62
    7
 10
2089.1331720109365
 20
520.32732959193311
 40
3.7291361929189577
 50
91.951249318766457
 51
178.0487506812245
  0
ARC
  8
_0-1_レイヤ___3
  6
CONTINUOUS
 62
    7
 10
2088.8792242309751
 20
520.32732959193311
 40
3.7291361929191047
 50
1.9512493187777677
 51
88.048750681235802
  0
ARC
  8
_0-1_レイヤ___3
  6
CONTINUOUS
 62
    7
 10
2034.9485053627984
 20
660.90323542017416
 40
3.658022071306382
 50
274.03963162468841
 51
359.23352245855136
  0
ARC
  8
_0-1_レイヤ___3
  6
CONTINUOUS
 62
    7
 10
2035.3331740109377
 20
660.98127537189555
 40
3.7291361929192517
 50
181.95124931877098
 51
268.04875068122902
  0
ARC
  8
_0-1_レイヤ___3
  6
CONTINUOUS
 62
    7
 10
2035.3331740109377
 20
660.72732759193343
 40
3.7291361929192517
 50
91.951249318770991
 51
178.04875068122902
  0
ARC
  8
_0-1_レイヤ___3
  6
CONTINUOUS
 62
    7
 10
2035.0845992010159
 20
660.93390061308185
 40
3.5225003990074004
 50
358.70515770429637
 51
88.021688212463786
  0
ARC
  8
_0-1_レイヤ___3
  6
CONTINUOUS
 62
    7
 10
2091.4848063333648
 20
662.17569326950581
 40
3.5234835160405704
 50
271.97435683336653
 51
358.02564316663347
  0
ARC
  8
_0-1_レイヤ___3
  6
CONTINUOUS
 62
    7
 10
2091.7155404776308
 20
662.37595809486493
 40
3.7232625069526315
 50
184.95602130228676
 51
268.31713278095765
  0
ARC
  8
_0-1_レイヤ___3
  6
CONTINUOUS
 62
    7
 10
2091.7331720109369
 20
661.92732759193291
 40
3.7291361929193991
 50
91.951249318768717
 51
178.04875068122675
  0
ARC
  8
_0-1_レイヤ___3
  6
CONTINUOUS
 62
    7
 10
2091.4845972010157
 20
662.13390061308189
 40
3.5225003990074004
 50
358.70515770429637
 51
88.021688212463786
  0
ARC
  8
_0-1_レイヤ___3
  6
CONTINUOUS
 62
    7
 10
2165.7697918783424
 20
894.36092769990523
 40
17.163847720857561
 50
148.55759685957983
 51
179.68831459496894
  0
ARC
  8
_0-1_レイヤ___3
  6
CONTINUOUS
 62
    7
 10
2156.8318973292035
 20
899.55030816493945
 40
6.835394577733803
 50
114.41811013212985
 51
146.58758663851498
  0
ARC
  8
_0-1_レイヤ___3
  6
CONTINUOUS
 62
    7
 10
2155.6126026037646
 20
901.58283689042435
 40
4.4887500768482118
 50
84.969566084207145
 51
110.96965470444549
  0
ARC
  8
_0-1_レイヤ___3
  6
CONTINUOUS
 62
    7
 10
2155.6269703028215
 20
895.48584610834098
 40
10.575253102107823
 50
59.67665063859603
 51
87.944936847349496
  0
ARC
  8
_0-1_レイヤ___3
  6
CONTINUOUS
 62
    7
 10
2153.1178278130574
 20
890.87914016430659
 40
15.819338261423376
 50
50.094987831074953
 51
60.256033855026395
  0
ARC
  8
_0-1_レイヤ___3
  6
CONTINUOUS
 62
    7
 10
2147.0327579934069
 20
883.54426702664284
 40
25.349687656930563
 50
42.084542559736732
 51
50.179817990523915
  0
ARC
  8
_0-1_レイヤ___3
  6
CONTINUOUS
 62
    7
 10
2115.0327342954079
 20
855.30264452415906
 40
68.028747858836638
 50
34.930079421087548
 51
41.673908238927027
  0
ARC
  8
_0-1_レイヤ___3
  6
CONTINUOUS
 62
    7
 10
2158.5163370198616
 20
884.85105161863089
 40
15.47455067682295
 50
354.00289224315213
 51
37.420405991156947
  0
ARC
  8
_0-1_レイヤ___3
  6
CONTINUOUS
 62
    7
 10
2166.604282097026
 20
884.28406604150894
 40
7.3769906906018576
 50
307.0226843060222
 51
351.81886194900244
  0
ARC
  8
_0-1_レイヤ___3
  6
CONTINUOUS
 62
    7
 10
2167.1469500308704
 20
884.46330015551894
 40
7.2136626702563778
 50
272.0595668826262
 51
302.72016931144015
  0
ARC
  8
_0-1_レイヤ___3
  6
CONTINUOUS
 62
    7
 10
2166.177838520684
 20
890.58537257999546
 40
13.387547593874338
 50
226.87490663880706
 51
275.26451527646913
  0
ARC
  8
_0-1_レイヤ___3
  6
CONTINUOUS
 62
    7
 10
2169.9317159921425
 20
895.47123016327134
 40
19.528903378052547
 50
194.27975410730818
 51
228.63588647541144
  0
ARC
  8
_0-1_レイヤ___3
  6
CONTINUOUS
 62
    7
 10
2171.6792242309748
 20
801.3812733718953
 40
3.7291361929186633
 50
271.95124931877098
 51
358.04875068122902
  0
ARC
  8
_0-1_レイヤ___3
  6
CONTINUOUS
 62
    7
 10
2171.9331720109367
 20
801.38127337189587
 40
3.7291361929191047
 50
181.95124931877774
 51
268.04875068123579
  0
ARC
  8
_0-1_レイヤ___3
  6
CONTINUOUS
 62
    7
 10
2171.8249460880083
 20
801.23555151486244
 40
3.6187965313507324
 50
90.29683464721731
 51
179.70316535278718
  0
ARC
  8
_0-1_レイヤ___3
  6
CONTINUOUS
 62
    7
 10
2171.6792242309743
 20
801.12732559193375
 40
3.7291361929192517
 50
1.9512493187619413
 51
88.048750681219985
  0
ARC
  8
_0-1_レイヤ___3
  6
CONTINUOUS
 62
    7
 10
2029.8125340984557
 20
897.65347327044481
 40
3.5991813619225628
 50
269.89916863611177
 51
356.82767728064397
  0
ARC
  8
_0-1_レイヤ___3
  6
CONTINUOUS
 62
    7
 10
2029.9888113394388
 20
897.63690870039738
 40
3.5872621872277572
 50
182.91792896302593
 51
267.08207103696935
  0
ARC
  8
_0-1_レイヤ___3
  6
CONTINUOUS
 62
    7
 10
2030.1278567339064
 20
897.34495512523949
 40
3.7232625069523291
 50
94.956021302286842
 51
178.31713278095773
  0
ARC
  8
_0-1_レイヤ___3
  6
CONTINUOUS
 62
    7
 10
2029.6792262309748
 20
897.32732359193278
 40
3.7291361929193991
 50
1.9512493187732514
 51
88.048750681231297
  0
ARC
  8
_0-1_レイヤ___3
  6
CONTINUOUS
 62
    7
 10
2010.5296728042185
 20
847.04645940880937
 40
6.4324807678833009
 50
12.642333644961257
 51
83.245781943961902
  0
ARC
  8
_0-1_レイヤ___3
  6
CONTINUOUS
 62
    7
 10
2010.1539552748004
 20
846.36715373837148
 40
7.1572689682273891
 50
80.897851403127447
 51
105.79144923341521
  0
ARC
  8
_0-1_レイヤ___3
  6
CONTINUOUS
 62
    7
 10
2011.4797991535484
 20
844.60730917930334
 40
9.2459103030305521
 50
110.7357921476649
 51
148.38354379032737
  0
ARC
  8
_0-1_レイヤ___3
  6
CONTINUOUS
 62
    7
 10
2009.0058710486669
 20
846.21421630684893
 40
6.2971876380321925
 50
149.03406968387316
 51
220.62240629432065
  0
ARC
  8
_0-1_レイヤ___3
  6
CONTINUOUS
 62
    7
 10
2012.7442690957639
 20
849.73617715202181
 40
11.430245766284358
 50
221.82184170489157
 51
247.26158998924433
  0
ARC
  8
_0-1_レイヤ___3
  6
CONTINUOUS
 62
    7
 10
2014.5089758314971
 20
852.64308423172508
 40
14.801909563755228
 50
245.31045914391711
 51
260.26539700209867
  0
ARC
  8
_0-1_レイヤ___3
  6
CONTINUOUS
 62
    7
 10
2012.3309073506289
 20
841.95435647184809
 40
3.9135507291629299
 50
265.24069905482025
 51
333.92717798392232
  0
ARC
  8
_0-1_レイヤ___3
  6
CONTINUOUS
 62
    7
 10
2007.5305262323354
 20
844.90914542376004
 40
9.5396339972698723
 50
330.65648822574815
 51
358.34902556063128
  0
ARC
  8
_0-1_レイヤ___3
  6
CONTINUOUS
 62
    7
 10
2002.8886386790407
 20
845.5881827345587
 40
14.209614410636206
 50
356.15087260977725
 51
11.636542500420086
  0
ARC
  8
_0-1_レイヤ___3
  6
CONTINUOUS
 62
    7
 10
1985.085799252123
 20
796.57590040185482
 40
3.5225003990078259
 50
268.70515770429887
 51
358.0216882124663
  0
ARC
  8
_0-1_レイヤ___3
  6
CONTINUOUS
 62
    7
 10
1985.055134059216
 20
796.71199424007114
 40
3.6580220713062128
 50
184.03963162467687
 51
269.23352245853982
  0
ARC
  8
_0-1_レイヤ___3
  6
CONTINUOUS
 62
    7
 10
1985.1331740109372
 20
796.32732559193357
 40
3.7291361929188103
 50
91.951249318777784
 51
178.04875068123582
  0
ARC
  8
_0-1_レイヤ___3
  6
CONTINUOUS
 62
    7
 10
1984.8792262309746
 20
796.327325591933
 40
3.7291361929193991
 50
1.9512493187732514
 51
88.048750681231297
  0
ARC
  8
_0-1_レイヤ___3
  6
CONTINUOUS
 62
    7
 10
1966.2792262309745
 20
810.18127337189583
 40
3.7291361929188103
 50
271.95124931877774
 51
358.04875068123579
  0
ARC
  8
_0-1_レイヤ___3
  6
CONTINUOUS
 62
    7
 10
1966.5085345796997
 20
809.95650424850623
 40
3.5036995545539042
 50
178.40055294069461
 51
268.32629297607991
  0
ARC
  8
_0-1_レイヤ___3
  6
CONTINUOUS
 62
    7
 10
1966.5079114096579
 20
809.95258819321236
 40
3.503188138777682
 50
91.663754957608731
 51
178.3362450423769
  0
ARC
  8
_0-1_レイヤ___3
  6
CONTINUOUS
 62
    7
 10
1966.3572661826965
 20
809.7966047237577
 40
3.6580220713059246
 50
4.0396316246816584
 51
89.233522458544613
  0
ARC
  8
_0-1_レイヤ___3
  6
CONTINUOUS
 62
    7
 10
2016.5296713919583
 20
550.04646440880947
 40
6.4324819270398361
 50
12.642322200482759
 51
83.245770499483413
  0
ARC
  8
_0-1_レイヤ___3
  6
CONTINUOUS
 62
    7
 10
2016.1539552748002
 20
549.36715973837124
 40
7.1572689682273891
 50
80.897851403127447
 51
105.79144923341521
  0
ARC
  8
_0-1_レイヤ___3
  6
CONTINUOUS
 62
    7
 10
2017.4797991535474
 20
547.60731517930367
 40
9.2459103030299907
 50
110.73579214766067
 51
148.38354379032316
  0
ARC
  8
_0-1_レイヤ___3
  6
CONTINUOUS
 62
    7
 10
2014.7926585296677
 20
549.14921658523099
 40
6.1500366031371847
 50
147.49254745071255
 51
219.77835846354338
  0
ARC
  8
_0-1_レイヤ___3
  6
CONTINUOUS
 62
    7
 10
2018.137998645122
 20
552.35212445431614
 40
10.77508327804364
 50
221.48604877934488
 51
246.99053708323282
  0
ARC
  8
_0-1_レイヤ___3
  6
CONTINUOUS
 62
    7
 10
2019.8516288099704
 20
555.27866708460976
 40
14.145260036734868
 50
245.23493316303353
 51
262.503669732741
  0
ARC
  8
_0-1_レイヤ___3
  6
CONTINUOUS
 62
    7
 10
2018.5059164857125
 20
544.96424861029766
 40
3.7434488511023991
 50
262.32863487109148
 51
333.16384530971561
  0
ARC
  8
_0-1_レイヤ___3
  6
CONTINUOUS
 62
    7
 10
2015.038456340124
 20
547.24552095422268
 40
7.8813668610094805
 50
329.74335184495999
 51
344.31120549338925
  0
ARC
  8
_0-1_レイヤ___3
  6
CONTINUOUS
 62
    7
 10
2010.0103902113722
 20
548.64503625537338
 40
13.100562338782284
 50
344.36488792670548
 51
12.382597679859032
  0
ARC
  8
_0-1_レイヤ___3
  6
CONTINUOUS
 62
    7
 10
2007.1369038289299
 20
608.31766531533333
 40
1.9485834128251467
 50
145.75128700735581
 51
187.7676731622885
  0
ARC
  8
_0-1_レイヤ___3
  6
CONTINUOUS
 62
    7
 10
2006.1028689218147
 20
608.90480954153645
 40
0.7694991508732047
 50
89.751963017181112
 51
138.53912090359123
  0
ARC
  8
_0-1_レイヤ___3
  6
CONTINUOUS
 62
    7
 10
2006.0529090437667
 20
607.4965120371229
 40
2.1784413705110599
 50
61.68453406699772
 51
88.598237037190984
  0
ARC
  8
_0-1_レイヤ___3
  6
CONTINUOUS
 62
    7
 10
2004.7664161196678
 20
603.87473347933792
 40
6.0056815989366532
 50
59.592186909550435
 51
67.277710736311676
  0
ARC
  8
_0-1_レイヤ___3
  6
CONTINUOUS
 62
    7
 10
2012.7494207688305
 20
615.33065313589304
 40
7.9892440479663556
 50
231.77622275782912
 51
246.67570503966823
  0
ARC
  8
_0-1_レイヤ___3
  6
CONTINUOUS
 62
    7
 10
2009.8858953022655
 20
609.53180067069241
 40
1.5664357494616614
 50
258.96999717199554
 51
289.39983507819693
  0
ARC
  8
_0-1_レイヤ___3
  6
CONTINUOUS
 62
    7
 10
2001.4925979005743
 20
608.5419019493645
 40
8.9269288537015203
 50
339.35381220114505
 51
356.86887171958421
  0
ARC
  8
_0-1_レイヤ___3
  6
CONTINUOUS
 62
    7
 10
2006.5007681560871
 20
606.56194599924675
 40
3.543347111196101
 50
295.14190063451099
 51
340.75965758350463
  0
ARC
  8
_0-1_レイヤ___3
  6
CONTINUOUS
 62
    7
 10
2007.1097499941504
 20
606.0546032571898
 40
2.8452157224720738
 50
259.80602393969076
 51
288.36520962025401
  0
ARC
  8
_0-1_レイヤ___3
  6
CONTINUOUS
 62
    7
 10
2006.9385830185331
 20
604.55448478891697
 40
1.3419966551410614
 50
212.45592026910239
 51
255.6598559881142
  0
ARC
  8
_0-1_レイヤ___3
  6
CONTINUOUS
 62
    7
 10
2008.247220767106
 20
605.33752314125366
 40
2.8667502772368181
 50
187.68218633735316
 51
211.62546177873136
  0
ARC
  8
_0-1_レイヤ___3
  6
CONTINUOUS
 62
    7
 10
2038.471572485787
 20
608.64400292480525
 40
33.270598827833112
 50
181.01558656495209
 51
186.36718540794371
  0
ARC
  8
_0-1_レイヤ___3
  6
CONTINUOUS
 62
    7
 10
1977.2489988428822
 20
548.35538466672574
 40
16.843089197630018
 50
147.86575966817631
 51
179.66350215570432
  0
ARC
  8
_0-1_レイヤ___3
  6
CONTINUOUS
 62
    7
 10
1969.1664321752535
 20
553.18964932653898
 40
7.4302113123665512
 50
115.1710442640675
 51
146.28106354074868
  0
ARC
  8
_0-1_レイヤ___3
  6
CONTINUOUS
 62
    7
 10
1967.7898265294982
 20
555.47473637284725
 40
4.7844622771176919
 50
87.407958794259841
 51
111.88813183796192
  0
ARC
  8
_0-1_レイヤ___3
  6
CONTINUOUS
 62
    7
 10
1967.2170516459637
 20
549.5471227282826
 40
10.736222566924322
 50
57.622797214576067
 51
85.78476599934659
  0
ARC
  8
_0-1_レイヤ___3
  6
CONTINUOUS
 62
    7
 10
1963.6962122023119
 20
543.40084163592849
 40
17.815220945895661
 50
48.648983903370173
 51
58.64487951254516
  0
ARC
  8
_0-1_レイヤ___3
  6
CONTINUOUS
 62
    7
 10
1954.4095152193058
 20
532.8376185802648
 40
31.8802268362105
 50
41.337526272428569
 51
48.662473727571424
  0
ARC
  8
_0-1_レイヤ___3
  6
CONTINUOUS
 62
    7
 10
1881.6138093739432
 20
470.03969636211878
 40
128.0185555099263
 50
37.772325133382743
 51
40.921103035321956
  0
ARC
  8
_0-1_レイヤ___3
  6
CONTINUOUS
 62
    7
 10
1970.6085293745355
 20
539.12935126415618
 40
15.353758676674721
 50
353.58655390219093
 51
37.397417153827845
  0
ARC
  8
_0-1_レイヤ___3
  6
CONTINUOUS
 62
    7
 10
1978.5500559942493
 20
538.64399826825661
 40
7.4187676975563086
 50
275.07408729261874
 51
350.45892716023803
  0
ARC
  8
_0-1_レイヤ___3
  6
CONTINUOUS
 62
    7
 10
1978.2800295792356
 20
544.99429381445907
 40
13.771170110443101
 50
225.72421477650718
 51
273.85629894132558
  0
ARC
  8
_0-1_レイヤ___3
  6
CONTINUOUS
 62
    7
 10
1981.4318665644691
 20
549.0757306496397
 40
18.903058779467901
 50
192.90409557951645
 51
227.520778079552
  0
ARC
  8
_0-1_レイヤ___3
  6
CONTINUOUS
 62
    7
 10
1972.2792262309747
 20
513.1812773718957
 40
3.7291361929188103
 50
271.95124931877774
 51
358.04875068123579
  0
ARC
  8
_0-1_レイヤ___3
  6
CONTINUOUS
 62
    7
 10
1972.5331740109373
 20
513.18127737189627
 40
3.7291361929193991
 50
181.95124931877328
 51
268.0487506812313
  0
ARC
  8
_0-1_レイヤ___3
  6
CONTINUOUS
 62
    7
 10
1972.5331740109368
 20
512.92732959193302
 40
3.7291361929191047
 50
91.951249318764198
 51
178.04875068122223
  0
ARC
  8
_0-1_レイヤ___3
  6
CONTINUOUS
 62
    7
 10
1972.2792262309747
 20
512.92732959193359
 40
3.7291361929185158
 50
1.9512493187687221
 51
88.048750681226764
  0
ARC
  8
_0-1_レイヤ___3
  6
CONTINUOUS
 62
    7
 10
2013.1833165039768
 20
739.91350173107548
 40
6.1703213589191481
 50
12.550373890408775
 51
84.392855177431983
  0
ARC
  8
_0-1_レイヤ___3
  6
CONTINUOUS
 62
    7
 10
2012.6609479062745
 20
738.56480969534346
 40
7.5735493534934575
 50
81.455552532236553
 51
105.74198370137262
  0
ARC
  8
_0-1_レイヤ___3
  6
CONTINUOUS
 62
    7
 10
2012.0587116982533
 20
740.1185679337226
 40
5.9167902003628869
 50
104.21078056909263
 51
123.11550084728965
  0
ARC
  8
_0-1_レイヤ___3
  6
CONTINUOUS
 62
    7
 10
2013.7508088750378
 20
737.32969072783249
 40
9.1777304457358646
 50
122.45129057612351
 51
147.54870942387066
  0
ARC
  8
_0-1_レイヤ___3
  6
CONTINUOUS
 62
    7
 10
2011.9160077125371
 20
738.96723546821477
 40
6.762441541313069
 50
150.91697319258256
 51
237.33559462021603
  0
ARC
  8
_0-1_レイヤ___3
  6
CONTINUOUS
 62
    7
 10
2016.1456917699938
 20
744.26689399641589
 40
13.524922284712158
 50
234.36704620804608
 51
262.61050353792575
  0
ARC
  8
_0-1_レイヤ___3
  6
CONTINUOUS
 62
    7
 10
2014.9140145947717
 20
734.54885018515654
 40
3.7292868538961215
 50
262.1737582810872
 51
333.31872189971983
  0
ARC
  8
_0-1_レイヤ___3
  6
CONTINUOUS
 62
    7
 10
2011.2727702214625
 20
736.86933954659708
 40
8.0367325251977064
 50
330.19183934752817
 51
344.74166049447399
  0
ARC
  8
_0-1_レイヤ___3
  6
CONTINUOUS
 62
    7
 10
2005.8677404725586
 20
738.37117990294757
 40
13.646497143903261
 50
344.63061456954455
 51
12.196891510210458
  0
ARC
  8
_0-1_レイヤ___3
  6
CONTINUOUS
 62
    7
 10
2123.2788167157223
 20
560.07362427680107
 40
1.9189920089700201
 50
150.64663792511132
 51
192.6215898267711
  0
ARC
  8
_0-1_レイヤ___3
  6
CONTINUOUS
 62
    7
 10
2122.1253752820294
 20
560.62594915976888
 40
0.648354844286168
 50
89.927284864482019
 51
143.20281748972411
  0
ARC
  8
_0-1_レイヤ___3
  6
CONTINUOUS
 62
    7
 10
2122.0661087113331
 20
559.15012720023185
 40
2.1250260263849268
 50
61.312233956601276
 51
88.379629942762989
  0
ARC
  8
_0-1_レイヤ___3
  6
CONTINUOUS
 62
    7
 10
2120.6731374785231
 20
555.28818219704874
 40
6.2138013029906851
 50
59.721076766466524
 51
67.148820879377496
  0
ARC
  8
_0-1_レイヤ___3
  6
CONTINUOUS
 62
    7
 10
2130.9227116554985
 20
571.50268337387274
 40
12.974286537901506
 50
236.73521267691453
 51
247.06208471114689
  0
ARC
  8
_0-1_レイヤ___3
  6
CONTINUOUS
 62
    7
 10
2125.8335421554352
 20
561.23864569572561
 40
1.6846587504031694
 50
271.11070933186858
 51
289.87224469277521
  0
ARC
  8
_0-1_レイヤ___3
  6
CONTINUOUS
 62
    7
 10
2118.4645764320471
 20
559.51723437298995
 40
7.9428044789206611
 50
343.14568006970319
 51
0.9888033019807823
  0
ARC
  8
_0-1_レイヤ___3
  6
CONTINUOUS
 62
    7
 10
2122.816805218386
 20
558.09181780397068
 40
3.3657964318547853
 50
297.79288786353686
 51
344.88749562828104
  0
ARC
  8
_0-1_レイヤ___3
  6
CONTINUOUS
 62
    7
 10
2123.5014918988077
 20
557.57823399849997
 40
2.6179493291637659
 50
254.59815400218389
 51
289.75133422701612
  0
ARC
  8
_0-1_レイヤ___3
  6
CONTINUOUS
 62
    7
 10
2122.93200237061
 20
556.28098950302217
 40
1.2331201497064121
 50
218.44366009238752
 51
264.14443482082027
  0
ARC
  8
_0-1_レイヤ___3
  6
CONTINUOUS
 62
    7
 10
2123.993459412332
 20
556.93781284958561
 40
2.4771288346307934
 50
188.90636358646586
 51
215.07589624789566
  0
ARC
  8
_0-1_レイヤ___3
  6
CONTINUOUS
 62
    7
 10
2134.2872203754669
 20
558.68286577728099
 40
12.917601384745833
 50
175.68713449451536
 51
189.48445419034775
  0
ARC
  8
_0-1_レイヤ___3
  6
CONTINUOUS
 62
    7
 10
2101.8795579641792
 20
935.73735481311076
 40
2.2909138852257147
 50
148.50165867902942
 51
187.09740386624708
  0
ARC
  8
_0-1_レイヤ___3
  6
CONTINUOUS
 62
    7
 10
2100.5669350384783
 20
936.45858681890502
 40
0.7980253331677991
 50
94.364946004833854
 51
143.40821752896679
  0
ARC
  8
_0-1_レイヤ___3
  6
CONTINUOUS
 62
    7
 10
2100.5395884258387
 20
935.36029330233248
 40
1.8942984835379648
 50
62.092779842036805
 51
91.009990054603975
  0
ARC
  8
_0-1_レイヤ___3
  6
CONTINUOUS
 62
    7
 10
2099.5911941560639
 20
932.27718408029716
 40
5.09876136596138
 50
59.144782095702112
 51
68.906429979407562
  0
ARC
  8
_0-1_レイヤ___3
  6
CONTINUOUS
 62
    7
 10
2107.3371304347443
 20
942.98994364553778
 40
8.1527221662038407
 50
230.99766673258262
 51
245.11282771500947
  0
ARC
  8
_0-1_レイヤ___3
  6
CONTINUOUS
 62
    7
 10
2104.2350558189737
 20
937.44143201163638
 40
1.8761805234136377
 50
259.90502314921849
 51
287.72312651939342
  0
ARC
  8
_0-1_レイヤ___3
  6
CONTINUOUS
 62
    7
 10
2095.8925959005728
 20
936.14189794936465
 40
8.9269288537033464
 50
339.35381220114749
 51
356.86887171958665
  0
ARC
  8
_0-1_レイヤ___3
  6
CONTINUOUS
 62
    7
 10
2100.9007661560877
 20
934.16194199924746
 40
3.5433471111958026
 50
295.14190063449865
 51
340.7596575834923
  0
ARC
  8
_0-1_レイヤ___3
  6
CONTINUOUS
 62
    7
 10
2101.5097479941505
 20
933.65459925718994
 40
2.8452157224720738
 50
259.80602393969076
 51
288.36520962025401
  0
ARC
  8
_0-1_レイヤ___3
  6
CONTINUOUS
 62
    7
 10
2101.3433696020861
 20
932.16108573175006
 40
1.3495851724123651
 50
212.58343140385443
 51
255.53234485339624
  0
ARC
  8
_0-1_レイヤ___3
  6
CONTINUOUS
 62
    7
 10
2102.6322729709173
 20
932.92572725382968
 40
2.8478416287024393
 50
187.08849115178185
 51
211.58112592382815
  0
ARC
  8
_0-1_レイヤ___3
  6
CONTINUOUS
 62
    7
 10
2134.4957700541609
 20
936.43023997727425
 40
34.903218955226841
 50
181.60227843367949
 51
186.34271344781592
  0
ARC
  8
_0-1_レイヤ___3
  6
CONTINUOUS
 62
    7
 10
2222.2306458578996
 20
943.3072096796252
 40
2.2700894455998935
 50
153.09941857124156
 51
191.50847798472998
  0
ARC
  8
_0-1_レイヤ___3
  6
CONTINUOUS
 62
    7
 10
2220.7857389472374
 20
943.97504038920772
 40
0.6818618233589152
 50
95.009670951463676
 51
148.20533354104808
  0
ARC
  8
_0-1_レイヤ___3
  6
CONTINUOUS
 62
    7
 10
2220.7650922523053
 20
942.78331766756025
 40
1.8713840799673311
 50
61.911809323627836
 51
91.190960572980956
  0
ARC
  8
_0-1_レイヤ___3
  6
CONTINUOUS
 62
    7
 10
2219.7436311948186
 20
939.67916762964023
 40
5.1216221268420501
 50
58.676635460353488
 51
68.193262185490511
  0
ARC
  8
_0-1_レイヤ___3
  6
CONTINUOUS
 62
    7
 10
2229.1762304715767
 20
952.9179126964857
 40
11.153342090179517
 50
232.62738824028398
 51
244.22423025914952
  0
ARC
  8
_0-1_レイヤ___3
  6
CONTINUOUS
 62
    7
 10
2224.7161516231831
 20
944.56278455767176
 40
1.7329321679502296
 50
256.99556890783958
 51
279.63506245644948
  0
ARC
  8
_0-1_レイヤ___3
  6
CONTINUOUS
 62
    7
 10
2218.5021934810366
 20
942.68704171141962
 40
6.5061528442575645
 50
325.84530536396284
 51
1.4730833737503195
  0
ARC
  8
_0-1_レイヤ___3
  6
CONTINUOUS
 62
    7
 10
2222.033504366419
 20
940.59234306044232
 40
2.4207380614386
 50
254.98100558176913
 51
319.93739968946829
  0
ARC
  8
_0-1_レイヤ___3
  6
CONTINUOUS
 62
    7
 10
2221.7558735086254
 20
939.70037084983801
 40
1.4877508060372362
 50
215.60092122778536
 51
256.40616047569301
  0
ARC
  8
_0-1_レイヤ___3
  6
CONTINUOUS
 62
    7
 10
2222.8185863397093
 20
940.33967145587496
 40
2.7257857780398038
 50
188.97801928579543
 51
213.52299172849143
  0
ARC
  8
_0-1_レイヤ___3
  6
CONTINUOUS
 62
    7
 10
2233.1851606759774
 20
941.9197654229356
 40
13.212057255089878
 50
175.94389490372475
 51
188.73071681452154
  0
ARC
  8
_0-1_レイヤ___3
  6
CONTINUOUS
 62
    7
 10
2205.6857952521227
 20
834.57590040185494
 40
3.5225003990078259
 50
268.70515770429887
 51
358.0216882124663
  0
ARC
  8
_0-1_レイヤ___3
  6
CONTINUOUS
 62
    7
 10
2205.6551300592155
 20
834.71199424007182
 40
3.6580220713063665
 50
184.03963162467909
 51
269.2335224585421
  0
ARC
  8
_0-1_レイヤ___3
  6
CONTINUOUS
 62
    7
 10
2205.5766336422748
 20
834.48386196059516
 40
3.5705599048032672
 50
89.525613725048345
 51
180.47438627495163
  0
ARC
  8
_0-1_レイヤ___3
  6
CONTINUOUS
 62
    7
 10
2205.4792222309748
 20
834.32732559193312
 40
3.7291361929191047
 50
1.9512493187777677
 51
88.048750681235802
  0
ARC
  8
_0-1_レイヤ___3
  6
CONTINUOUS
 62
    7
 10
2199.2788147157221
 20
621.27362227680237
 40
1.9189920089698467
 50
150.64663792514651
 51
192.62158982680626
  0
ARC
  8
_0-1_レイヤ___3
  6
CONTINUOUS
 62
    7
 10
2198.1253732820287
 20
621.82594715976791
 40
0.6483548442870185
 50
89.927284864444431
 51
143.20281748968654
  0
ARC
  8
_0-1_レイヤ___3
  6
CONTINUOUS
 62
    7
 10
2198.0661067113333
 20
620.35012520023201
 40
2.1250260263849268
 50
61.312233956601276
 51
88.379629942762989
  0
ARC
  8
_0-1_レイヤ___3
  6
CONTINUOUS
 62
    7
 10
2196.6731354785229
 20
616.4881801970472
 40
6.213801302992648
 50
59.721076766475569
 51
67.148820879386534
  0
ARC
  8
_0-1_レイヤ___3
  6
CONTINUOUS
 62
    7
 10
2206.9227096554987
 20
632.70268137387291
 40
12.974286537901506
 50
236.73521267691453
 51
247.06208471114689
  0
ARC
  8
_0-1_レイヤ___3
  6
CONTINUOUS
 62
    7
 10
2201.8335401554355
 20
622.43864369572464
 40
1.6846587504023123
 50
271.11070933187398
 51
289.87224469278055
  0
ARC
  8
_0-1_レイヤ___3
  6
CONTINUOUS
 62
    7
 10
2194.4645744320469
 20
620.71723237299182
 40
7.9428044789209142
 50
343.14568006969012
 51
0.9888033019676874
  0
ARC
  8
_0-1_レイヤ___3
  6
CONTINUOUS
 62
    7
 10
2198.8168032183858
 20
619.29181580396971
 40
3.3657964318541191
 50
297.79288786355107
 51
344.88749562829526
  0
ARC
  8
_0-1_レイヤ___3
  6
CONTINUOUS
 62
    7
 10
2199.5014898988079
 20
618.77823199850013
 40
2.6179493291637659
 50
254.59815400218389
 51
289.75133422701612
  0
ARC
  8
_0-1_レイヤ___3
  6
CONTINUOUS
 62
    7
 10
2198.9320003706102
 20
617.4809875030229
 40
1.233120149706733
 50
218.44366009239573
 51
264.14443482082845
  0
ARC
  8
_0-1_レイヤ___3
  6
CONTINUOUS
 62
    7
 10
2199.9934574123317
 20
618.13781084958578
 40
2.4771288346307934
 50
188.90636358646586
 51
215.07589624789566
  0
ARC
  8
_0-1_レイヤ___3
  6
CONTINUOUS
 62
    7
 10
2210.2872183754662
 20
619.88286377728116
 40
12.917601384745833
 50
175.68713449451536
 51
189.48445419034775
  0
ARC
  8
_0-1_レイヤ___3
  6
CONTINUOUS
 62
    7
 10
1987.6776969532302
 20
646.30413460665579
 40
16.672173125270085
 50
147.69450297328183
 51
179.48392783296069
  0
ARC
  8
_0-1_レイヤ___3
  6
CONTINUOUS
 62
    7
 10
1979.5583345604405
 20
651.23037726033374
 40
7.1790000673199792
 50
114.28137406221977
 51
146.29332255818784
  0
ARC
  8
_0-1_レイヤ___3
  6
CONTINUOUS
 62
    7
 10
1978.2192673182094
 20
653.53525007296525
 40
4.5355862499318604
 50
85.106124094236051
 51
110.8330966944188
  0
ARC
  8
_0-1_レイヤ___3
  6
CONTINUOUS
 62
    7
 10
1977.8170516459654
 20
647.34712072828302
 40
10.736222566923956
 50
57.622797214581979
 51
85.784765999352501
  0
ARC
  8
_0-1_レイヤ___3
  6
CONTINUOUS
 62
    7
 10
1974.2962122023091
 20
641.20083963592833
 40
17.815220945897597
 50
48.648983903361724
 51
58.644879512536711
  0
ARC
  8
_0-1_レイヤ___3
  6
CONTINUOUS
 62
    7
 10
1965.0095152193062
 20
630.63761658026465
 40
31.8802268362105
 50
41.337526272428569
 51
48.662473727571424
  0
ARC
  8
_0-1_レイヤ___3
  6
CONTINUOUS
 62
    7
 10
1892.2138093739431
 20
567.83969436211862
 40
128.0185555099263
 50
37.772325133382743
 51
40.921103035321956
  0
ARC
  8
_0-1_レイヤ___3
  6
CONTINUOUS
 62
    7
 10
1981.2085293745361
 20
636.92934926415774
 40
15.353758676673685
 50
353.58655390218763
 51
37.397417153824499
  0
ARC
  8
_0-1_レイヤ___3
  6
CONTINUOUS
 62
    7
 10
1989.1500559942488
 20
636.44399626825702
 40
7.4187676975563086
 50
275.07408729261874
 51
350.45892716023803
  0
ARC
  8
_0-1_レイヤ___3
  6
CONTINUOUS
 62
    7
 10
1988.8607113614171
 20
642.11124558444226
 40
13.091132047723493
 50
236.66238857177518
 51
274.14171382724089
  0
ARC
  8
_0-1_レイヤ___3
  6
CONTINUOUS
 62
    7
 10
1991.7128143759719
 20
646.79735992228302
 40
18.574563602417722
 50
192.88824401763654
 51
237.25641988230925
  0
ARC
  8
_0-1_レイヤ___3
  6
CONTINUOUS
 62
    7
 10
1756.6999735379459
 20
522.74791811857881
 40
17.094100465563308
 50
148.36332520730735
 51
179.64341664644772
  0
ARC
  8
_0-1_レイヤ___3
  6
CONTINUOUS
 62
    7
 10
1748.3394224805886
 20
527.67343349063651
 40
7.3949025643689978
 50
116.09923268230803
 51
146.87688201428438
  0
ARC
  8
_0-1_レイヤ___3
  6
CONTINUOUS
 62
    7
 10
1746.804263683262
 20
530.20349654182553
 40
4.4553857698654173
 50
87.402177800603695
 51
112.68186947041696
  0
ARC
  8
_0-1_レイヤ___3
  6
CONTINUOUS
 62
    7
 10
1746.2485292224806
 20
523.54824129763244
 40
11.131877132492843
 50
58.250446967111131
 51
86.097229436081918
  0
ARC
  8
_0-1_レイヤ___3
  6
CONTINUOUS
 62
    7
 10
1743.0939761703519
 20
518.07874004983262
 40
17.443947594147879
 50
49.052340844618399
 51
58.89291238518237
  0
ARC
  8
_0-1_レイヤ___3
  6
CONTINUOUS
 62
    7
 10
1735.1970162490375
 20
508.98598476199595
 40
29.487209471223217
 50
41.36912281289343
 51
49.041597862098243
  0
ARC
  8
_0-1_レイヤ___3
  6
CONTINUOUS
 62
    7
 10
1684.921918168485
 20
465.46065086033707
 40
95.984900067666729
 50
36.574030804486974
 51
41.033142337307083
  0
ARC
  8
_0-1_レイヤ___3
  6
CONTINUOUS
 62
    7
 10
1749.9689096193072
 20
513.62210673375216
 40
15.049154029942711
 50
352.40976957100264
 51
36.882768781466126
  0
ARC
  8
_0-1_レイヤ___3
  6
CONTINUOUS
 62
    7
 10
1757.6791667633579
 20
512.94303292626864
 40
7.3249000151767332
 50
275.69630633030135
 51
349.70778235898251
  0
ARC
  8
_0-1_レイヤ___3
  6
CONTINUOUS
 62
    7
 10
1757.4800335792349
 20
519.39429381445734
 40
13.771170110441878
 50
225.7242147765084
 51
273.85629894132683
  0
ARC
  8
_0-1_レイヤ___3
  6
CONTINUOUS
 62
    7
 10
1760.6318705644703
 20
523.4757306496391
 40
18.903058779468729
 50
192.904095579515
 51
227.52077807955055
  0
ARC
  8
_0-1_レイヤ___3
  6
CONTINUOUS
 62
    7
 10
1968.679226230975
 20
702.78127537189619
 40
3.7291361929191047
 50
271.95124931876421
 51
358.04875068122226
  0
ARC
  8
_0-1_レイヤ___3
  6
CONTINUOUS
 62
    7
 10
1969.0053693448601
 20
702.64796130449099
 40
3.59917480822318
 50
179.89906975488537
 51
266.82777616188389
  0
ARC
  8
_0-1_レイヤ___3
  6
CONTINUOUS
 62
    7
 10
1969.1278567339059
 20
702.54495912523964
 40
3.7232625069524756
 50
94.956021302284441
 51
178.31713278095535
  0
ARC
  8
_0-1_レイヤ___3
  6
CONTINUOUS
 62
    7
 10
1968.6792262309746
 20
702.52732759193293
 40
3.7291361929193991
 50
1.9512493187732514
 51
88.048750681231297
  0
ARC
  8
_0-1_レイヤ___3
  6
CONTINUOUS
 62
    7
 10
2034.8125340984557
 20
843.05347527044489
 40
3.5991813619225628
 50
269.89916863611177
 51
356.82767728064397
  0
ARC
  8
_0-1_レイヤ___3
  6
CONTINUOUS
 62
    7
 10
2034.9155424776309
 20
843.17595609486432
 40
3.7232625069520098
 50
184.95602130227769
 51
268.31713278094855
  0
ARC
  8
_0-1_レイヤ___3
  6
CONTINUOUS
 62
    7
 10
2034.9331740109374
 20
842.72732559193344
 40
3.7291361929188103
 50
91.951249318777784
 51
178.04875068123582
  0
ARC
  8
_0-1_レイヤ___3
  6
CONTINUOUS
 62
    7
 10
2034.6792262309748
 20
842.72732559193287
 40
3.7291361929193991
 50
1.9512493187732514
 51
88.048750681231297
  0
ARC
  8
_0-1_レイヤ___3
  6
CONTINUOUS
 62
    7
 10
2196.0708869426335
 20
528.36090795088296
 40
9.1987227707317381
 50
27.822775058745169
 51
54.549075272671253
  0
ARC
  8
_0-1_レイヤ___3
  6
CONTINUOUS
 62
    7
 10
2199.7104018444561
 20
530.15534131909988
 40
5.9459135514577079
 50
73.428997708720601
 51
129.02878593435952
  0
ARC
  8
_0-1_レイヤ___3
  6
CONTINUOUS
 62
    7
 10
2200.309400707918
 20
529.06768385055557
 40
7.1713969142158387
 50
127.27410423167451
 51
172.09233527311955
  0
ARC
  8
_0-1_レイヤ___3
  6
CONTINUOUS
 62
    7
 10
2199.4549709435091
 20
529.55579633369041
 40
6.2686279327940388
 50
175.4387870696425
 51
211.78067672197781
  0
ARC
  8
_0-1_レイヤ___3
  6
CONTINUOUS
 62
    7
 10
2204.4574265836263
 20
532.30658691036638
 40
11.973489782478692
 50
210.36279849300399
 51
258.47997533038614
  0
ARC
  8
_0-1_レイヤ___3
  6
CONTINUOUS
 62
    7
 10
2202.7009760847118
 20
524.8234620253163
 40
4.2963116657604319
 50
261.50344294112631
 51
316.28316762070978
  0
ARC
  8
_0-1_レイヤ___3
  6
CONTINUOUS
 62
    7
 10
2202.1831147484954
 20
524.95547496832273
 40
4.7690652354082887
 50
319.43817362571633
 51
2.8704979309259504
  0
ARC
  8
_0-1_レイヤ___3
  6
CONTINUOUS
 62
    7
 10
2198.2736283229401
 20
524.91342822428521
 40
8.6771149077055352
 50
1.8549689249996679
 51
16.200256976441228
  0
ARC
  8
_0-1_レイヤ___3
  6
CONTINUOUS
 62
    7
 10
2189.2927643699045
 20
522.14866957972106
 40
18.073342744657911
 50
16.673751063643277
 51
26.221721590537914
  0
ARC
  8
_0-1_レイヤ___3
  6
CONTINUOUS
 62
    7
 10
2159.5835698066162
 20
508.0393772086353
 40
50.961489132757663
 50
25.693778444028752
 51
28.882197447019603
  0
ARC
  8
_0-1_レイヤ___3
  6
CONTINUOUS
 62
    7
 10
1872.7999511214728
 20
650.42547645781212
 40
10.646189012557123
 50
16.528875091207357
 51
55.263375855496534
  0
ARC
  8
_0-1_レイヤ___3
  6
CONTINUOUS
 62
    7
 10
1876.6389376263346
 20
655.21629809177398
 40
4.5416404487106181
 50
60.63248698847547
 51
111.06970561604923
  0
ARC
  8
_0-1_レイヤ___3
  6
CONTINUOUS
 62
    7
 10
1876.5521356337774
 20
654.76362115883205
 40
4.9388654890991992
 50
108.24095587549354
 51
129.86825232261972
  0
ARC
  8
_0-1_レイヤ___3
  6
CONTINUOUS
 62
    7
 10
1878.4669172872475
 20
652.55535260285114
 40
7.8613646560004558
 50
130.26240508857438
 51
180.7365085389782
  0
ARC
  8
_0-1_レイヤ___3
  6
CONTINUOUS
 62
    7
 10
1895.2737030173666
 20
656.65600391473617
 40
25.022787690591141
 50
189.66661723018819
 51
207.93315308712059
  0
ARC
  8
_0-1_レイヤ___3
  6
CONTINUOUS
 62
    7
 10
1883.4483844607603
 20
650.4562934546999
 40
11.671146859520455
 50
208.23778822538941
 51
233.5004993080679
  0
ARC
  8
_0-1_レイヤ___3
  6
CONTINUOUS
 62
    7
 10
1879.964261025026
 20
646.35452043868554
 40
6.3118050996094137
 50
236.77888040583545
 51
290.80558515083737
  0
ARC
  8
_0-1_レイヤ___3
  6
CONTINUOUS
 62
    7
 10
1880.7968910830857
 20
644.58778132196585
 40
4.3671287122746048
 50
288.82682335590329
 51
352.45427550840373
  0
ARC
  8
_0-1_レイヤ___3
  6
CONTINUOUS
 62
    7
 10
1876.9193652464792
 20
644.919832861641
 40
8.2566432988195491
 50
353.7035304334641
 51
8.458317939867726
  0
ARC
  8
_0-1_レイヤ___3
  6
CONTINUOUS
 62
    7
 10
1866.2744122968861
 20
643.3707821980056
 40
19.013691782963015
 50
8.3571794574693037
 51
17.518933176908675
  0
ARC
  8
_0-1_レイヤ___3
  6
CONTINUOUS
 62
    7
 10
2322.1588423407666
 20
792.06184650657065
 40
460.50742985297427
 50
197.51699802260362
 51
198.08674608036543
  0
ARC
  8
_0-1_レイヤ___3
  6
CONTINUOUS
 62
    7
 10
1872.7775946596757
 20
523.33295179345726
 40
5.9765069415403378
 50
12.773118704095198
 51
68.518439169752739
  0
ARC
  8
_0-1_レイヤ___3
  6
CONTINUOUS
 62
    7
 10
1871.970264448239
 20
521.96582888003149
 40
7.5484702322885768
 50
66.615889829686324
 51
105.08153963747016
  0
ARC
  8
_0-1_レイヤ___3
  6
CONTINUOUS
 62
    7
 10
1872.9701545015303
 20
520.98215060016685
 40
8.7871227949381261
 50
109.71284751492715
 51
149.40648842305671
  0
ARC
  8
_0-1_レイヤ___3
  6
CONTINUOUS
 62
    7
 10
1870.5926605296672
 20
522.14921658523053
 40
6.1500366031371705
 50
147.4925474507103
 51
219.77835846354114
  0
ARC
  8
_0-1_レイヤ___3
  6
CONTINUOUS
 62
    7
 10
1873.9380006451215
 20
525.35212445431625
 40
10.77508327804364
 50
221.48604877934488
 51
246.99053708323282
  0
ARC
  8
_0-1_レイヤ___3
  6
CONTINUOUS
 62
    7
 10
1875.6516308099704
 20
528.27866708461102
 40
14.145260036735777
 50
245.23493316303461
 51
262.50366973274208
  0
ARC
  8
_0-1_レイヤ___3
  6
CONTINUOUS
 62
    7
 10
1874.3140165947711
 20
517.94885418515662
 40
3.7292868538961215
 50
262.1737582810872
 51
333.31872189971983
  0
ARC
  8
_0-1_レイヤ___3
  6
CONTINUOUS
 62
    7
 10
1870.6727722214623
 20
520.26934354659716
 40
8.0367325251977064
 50
330.19183934752817
 51
344.74166049447399
  0
ARC
  8
_0-1_レイヤ___3
  6
CONTINUOUS
 62
    7
 10
1865.267742472558
 20
521.77118390294766
 40
13.646497143903261
 50
344.63061456954455
 51
12.196891510210458
  0
ARC
  8
_0-1_レイヤ___3
  6
CONTINUOUS
 62
    7
 10
1863.0788207157225
 20
581.47362227680276
 40
1.9189920089698467
 50
150.64663792514651
 51
192.62158982680626
  0
ARC
  8
_0-1_レイヤ___3
  6
CONTINUOUS
 62
    7
 10
1861.9253792820286
 20
582.02594715976886
 40
0.6483548442858846
 50
89.927284864431897
 51
143.202817489674
  0
ARC
  8
_0-1_レイヤ___3
  6
CONTINUOUS
 62
    7
 10
1861.8661127113342
 20
580.55012520023183
 40
2.1250260263846092
 50
61.312233956632873
 51
88.379629942794594
  0
ARC
  8
_0-1_レイヤ___3
  6
CONTINUOUS
 62
    7
 10
1860.4731414785188
 20
576.68818019704702
 40
6.2138013029946109
 50
59.721076766439388
 51
67.148820879350353
  0
ARC
  8
_0-1_レイヤ___3
  6
CONTINUOUS
 62
    7
 10
1868.5494227688305
 20
588.33065313589259
 40
7.9892440479663556
 50
231.77622275782912
 51
246.67570503966823
  0
ARC
  8
_0-1_レイヤ___3
  6
CONTINUOUS
 62
    7
 10
1865.6858973022645
 20
582.53180067069252
 40
1.5664357494617405
 50
258.96999717203505
 51
289.39983507823649
  0
ARC
  8
_0-1_レイヤ___3
  6
CONTINUOUS
 62
    7
 10
1857.4064469682507
 20
581.51793649424008
 40
8.8119605180809977
 50
339.23863568313209
 51
356.98403086864909
  0
ARC
  8
_0-1_レイヤ___3
  6
CONTINUOUS
 62
    7
 10
1862.5659385342688
 20
579.47321327547286
 40
3.2637509258680253
 50
292.33440831388089
 51
340.69640748616911
  0
ARC
  8
_0-1_レイヤ___3
  6
CONTINUOUS
 62
    7
 10
1863.1062021209555
 20
579.1098150461761
 40
2.7462231642618553
 50
255.23260529016446
 51
284.76739470983563
  0
ARC
  8
_0-1_レイヤ___3
  6
CONTINUOUS
 62
    7
 10
1862.5235775578922
 20
577.57374175648181
 40
1.1255749836248883
 50
217.13079751649366
 51
264.01428967706676
  0
ARC
  8
_0-1_レイヤ___3
  6
CONTINUOUS
 62
    7
 10
1863.4585094460158
 20
578.16846346510147
 40
2.2317781691338858
 50
187.5739207862471
 51
214.81419217684336
  0
ARC
  8
_0-1_レイヤ___3
  6
CONTINUOUS
 62
    7
 10
1875.8279659009975
 20
579.64797258208478
 40
14.689238816692466
 50
174.50616093044928
 51
186.93516722098278
  0
ARC
  8
_0-1_レイヤ___3
  6
CONTINUOUS
 62
    7
 10
1897.2792282309747
 20
807.18127337189628
 40
3.7291361929193991
 50
271.9512493187687
 51
358.04875068122675
  0
ARC
  8
_0-1_レイヤ___3
  6
CONTINUOUS
 62
    7
 10
1897.6053713448607
 20
807.04795930449052
 40
3.5991748082233381
 50
179.89906975487847
 51
266.82777616187695
  0
ARC
  8
_0-1_レイヤ___3
  6
CONTINUOUS
 62
    7
 10
1897.5888133394392
 20
806.87168826343168
 40
3.5872621872277572
 50
92.91792896303069
 51
177.0820710369741
  0
ARC
  8
_0-1_レイヤ___3
  6
CONTINUOUS
 62
    7
 10
1897.2968597642812
 20
806.73264286896426
 40
3.7232625069526315
 50
4.9560213022867119
 51
88.317132780957607
  0
ARC
  8
_0-1_レイヤ___3
  6
CONTINUOUS
 62
    7
 10
1901.8235909024729
 20
551.63691470039737
 40
3.5872621872279078
 50
272.91792896302832
 51
357.08207103697168
  0
ARC
  8
_0-1_レイヤ___3
  6
CONTINUOUS
 62
    7
 10
1902.1155444776309
 20
551.77596009486479
 40
3.7232625069524756
 50
184.95602130228446
 51
268.31713278095538
  0
ARC
  8
_0-1_レイヤ___3
  6
CONTINUOUS
 62
    7
 10
1902.1331760109376
 20
551.32732959193333
 40
3.7291361929192517
 50
91.951249318770991
 51
178.04875068122902
  0
ARC
  8
_0-1_レイヤ___3
  6
CONTINUOUS
 62
    7
 10
1901.8070263324262
 20
551.46063745941433
 40
3.5991813619224122
 50
359.89916863611398
 51
86.827677280646199
  0
ARC
  8
_0-1_レイヤ___3
  6
CONTINUOUS
 62
    7
 10
1848.0858012521235
 20
691.97590240185491
 40
3.5225003990069599
 50
268.70515770430313
 51
358.02168821247056
  0
ARC
  8
_0-1_レイヤ___3
  6
CONTINUOUS
 62
    7
 10
1848.0551360592158
 20
692.11199624007236
 40
3.6580220713065352
 50
184.03963162469071
 51
269.23352245855369
  0
ARC
  8
_0-1_レイヤ___3
  6
CONTINUOUS
 62
    7
 10
1847.9786773761771
 20
691.88182622669387
 40
3.5725812881922798
 50
89.5585636314147
 51
180.44143636858081
  0
ARC
  8
_0-1_レイヤ___3
  6
CONTINUOUS
 62
    7
 10
1847.8792282309746
 20
691.72732759193366
 40
3.7291361929188103
 50
1.9512493187641931
 51
88.048750681222231
  0
ARC
  8
_0-1_レイヤ___3
  6
CONTINUOUS
 62
    7
 10
1904.2792272309744
 20
693.38127430135444
 40
3.729135157047998
 50
271.95126523427331
 51
358.04876659673135
  0
ARC
  8
_0-1_レイヤ___3
  6
CONTINUOUS
 62
    7
 10
1904.533176010937
 20
693.38127537189621
 40
3.7291361929193991
 50
181.95124931877328
 51
268.0487506812313
  0
ARC
  8
_0-1_レイヤ___3
  6
CONTINUOUS
 62
    7
 10
1904.3998681434562
 20
693.05512569338475
 40
3.5991813619228461
 50
89.899168636116514
 51
176.82767728064871
  0
ARC
  8
_0-1_レイヤ___3
  6
CONTINUOUS
 62
    7
 10
1904.2968587642804
 20
692.93264599210715
 40
3.723261413661882
 50
4.9560054127404047
 51
88.317116891411303
  0
ARC
  8
_0-1_レイヤ___3
  6
CONTINUOUS
 62
    7
 10
1814.1068101520523
 20
724.68998175573461
 40
11.981429356181298
 50
16.307619998533983
 51
42.175119665913648
  0
ARC
  8
_0-1_レイヤ___3
  6
CONTINUOUS
 62
    7
 10
1818.7582854796233
 20
728.79451755024149
 40
5.7790276686652078
 50
42.979594941861976
 51
78.34046332184046
  0
ARC
  8
_0-1_レイヤ___3
  6
CONTINUOUS
 62
    7
 10
1819.2735659255675
 20
730.03624315303171
 40
4.4659999696274628
 50
81.597025100669214
 51
109.18159841929889
  0
ARC
  8
_0-1_レイヤ___3
  6
CONTINUOUS
 62
    7
 10
1820.2896833063637
 20
727.95843989367654
 40
6.7679780402335288
 50
111.52738034677807
 51
146.49632290166929
  0
ARC
  8
_0-1_レイヤ___3
  6
CONTINUOUS
 62
    7
 10
1820.4284821569313
 20
727.36545190267975
 40
7.2231353149925095
 50
143.1799959374664
 51
180.88172458222849
  0
ARC
  8
_0-1_レイヤ___3
  6
CONTINUOUS
 62
    7
 10
1838.1413633633588
 20
731.51238866468418
 40
25.296118075171531
 50
189.69072126190244
 51
207.9032840224998
  0
ARC
  8
_0-1_レイヤ___3
  6
CONTINUOUS
 62
    7
 10
1826.0425924698479
 20
725.17483436017471
 40
11.638274224978488
 50
208.20480131184434
 51
233.0474376973439
  0
ARC
  8
_0-1_レイヤ___3
  6
CONTINUOUS
 62
    7
 10
1822.6112432366908
 20
721.18824311058972
 40
6.3990245386007505
 50
236.14296178309138
 51
291.97916265993746
  0
ARC
  8
_0-1_レイヤ___3
  6
CONTINUOUS
 62
    7
 10
1823.8022114575092
 20
719.21475940121127
 40
4.1394246327265263
 50
286.90941547109327
 51
352.4978139374976
  0
ARC
  8
_0-1_レイヤ___3
  6
CONTINUOUS
 62
    7
 10
1820.0988703972484
 20
719.56454310261279
 40
7.8579235392183113
 50
353.49485248667872
 51
8.7085597437286122
  0
ARC
  8
_0-1_レイヤ___3
  6
CONTINUOUS
 62
    7
 10
1809.7929617957079
 20
717.92567345685256
 40
18.293253976366106
 50
8.8951484075461842
 51
18.447465856857562
  0
ARC
  8
_0-1_レイヤ___3
  6
CONTINUOUS
 62
    7
 10
1593.7483294563413
 20
643.33892531059576
 40
246.84968652511432
 50
19.002203782095542
 51
20.071106094162953
  0
ARC
  8
_0-1_レイヤ___3
  6
CONTINUOUS
 62
    7
 10
1814.9379412946143
 20
597.48064580991866
 40
6.7070300849475695
 50
15.334110989968456
 51
84.281796936092661
  0
ARC
  8
_0-1_レイヤ___3
  6
CONTINUOUS
 62
    7
 10
1814.3693337318468
 20
596.21035315518384
 40
8.039661586767771
 50
81.150135828916916
 51
102.6681690370722
  0
ARC
  8
_0-1_レイヤ___3
  6
CONTINUOUS
 62
    7
 10
1815.8798011535482
 20
595.40731317930522
 40
9.2459103030291949
 50
110.73579214767186
 51
148.38354379033436
  0
ARC
  8
_0-1_レイヤ___3
  6
CONTINUOUS
 62
    7
 10
1813.9160097125375
 20
596.96723746821419
 40
6.7624415413128673
 50
150.91697319257574
 51
237.33559462020921
  0
ARC
  8
_0-1_レイヤ___3
  6
CONTINUOUS
 62
    7
 10
1818.1456937699936
 20
602.26689599641588
 40
13.524922284712158
 50
234.36704620804608
 51
262.61050353792575
  0
ARC
  8
_0-1_レイヤ___3
  6
CONTINUOUS
 62
    7
 10
1816.7247421821703
 20
592.86296834487871
 40
4.0213029963962974
 50
265.45666121485277
 51
332.95148080700858
  0
ARC
  8
_0-1_レイヤ___3
  6
CONTINUOUS
 62
    7
 10
1812.1508714071217
 20
595.89304833758433
 40
9.4929889950150663
 50
329.21454700272608
 51
356.50475438774311
  0
ARC
  8
_0-1_レイヤ___3
  6
CONTINUOUS
 62
    7
 10
1808.1921868127433
 20
596.5403209317094
 40
13.489843994374732
 50
354.78549889193931
 51
11.606377135258185
  0
ARC
  8
_0-1_レイヤ___3
  6
CONTINUOUS
 62
    7
 10
1805.6947441307204
 20
656.0712805981251
 40
1.9340275349646718
 50
150.81741306368795
 51
192.45081468819444
  0
ARC
  8
_0-1_レイヤ___3
  6
CONTINUOUS
 62
    7
 10
1804.5701243094145
 20
656.58645710499741
 40
0.7078552433199468
 50
90.317474507957115
 51
142.81262784617562
  0
ARC
  8
_0-1_レイヤ___3
  6
CONTINUOUS
 62
    7
 10
1804.4254599031119
 20
653.49335321540423
 40
3.8035530884386248
 50
62.083868678578483
 51
87.879410059134187
  0
ARC
  8
_0-1_レイヤ___3
  6
CONTINUOUS
 62
    7
 10
1816.3621216575161
 20
672.15069066365686
 40
18.360888421653133
 50
236.41813469176918
 51
244.52989068575872
  0
ARC
  8
_0-1_レイヤ___3
  6
CONTINUOUS
 62
    7
 10
1808.2807732527021
 20
657.12487417199497
 40
1.5616208030135192
 50
276.81946440927112
 51
289.66157542109261
  0
ARC
  8
_0-1_レイヤ___3
  6
CONTINUOUS
 62
    7
 10
1800.8645804320452
 20
655.51723237299029
 40
7.9428044789224757
 50
343.14568006970501
 51
0.9888033019826073
  0
ARC
  8
_0-1_レイヤ___3
  6
CONTINUOUS
 62
    7
 10
1805.216809218387
 20
654.09181580397046
 40
3.3657964318542293
 50
297.7928878635293
 51
344.88749562827348
  0
ARC
  8
_0-1_レイヤ___3
  6
CONTINUOUS
 62
    7
 10
1805.9014958988075
 20
653.57823199850031
 40
2.6179493291637659
 50
254.59815400218389
 51
289.75133422701612
  0
ARC
  8
_0-1_レイヤ___3
  6
CONTINUOUS
 62
    7
 10
1805.5558795086249
 20
652.50037484983977
 40
1.4877508060385884
 50
215.60092122782049
 51
256.40616047572814
  0
ARC
  8
_0-1_レイヤ___3
  6
CONTINUOUS
 62
    7
 10
1806.6185923397102
 20
653.13967545587502
 40
2.7257857780410499
 50
188.97801928578522
 51
213.52299172848123
  0
ARC
  8
_0-1_レイヤ___3
  6
CONTINUOUS
 62
    7
 10
1816.9851666759719
 20
654.71976942293452
 40
13.212057255084726
 50
175.94389490372012
 51
188.73071681451691
  0
ARC
  8
_0-1_レイヤ___3
  6
CONTINUOUS
 62
    7
 10
1789.2792282309751
 20
547.38127737189643
 40
3.7291361929193991
 50
271.9512493187687
 51
358.04875068122675
  0
ARC
  8
_0-1_レイヤ___3
  6
CONTINUOUS
 62
    7
 10
1789.533176010937
 20
547.38127737189643
 40
3.7291361929193991
 50
181.95124931877328
 51
268.0487506812313
  0
ARC
  8
_0-1_レイヤ___3
  6
CONTINUOUS
 62
    7
 10
1789.533176010937
 20
547.12732959193318
 40
3.7291361929193991
 50
91.951249318768717
 51
178.04875068122675
  0
ARC
  8
_0-1_レイヤ___3
  6
CONTINUOUS
 62
    7
 10
1789.2792282309751
 20
547.12732959193318
 40
3.7291361929193991
 50
1.9512493187732514
 51
88.048750681231297
  0
ARC
  8
_0-1_レイヤ___3
  6
CONTINUOUS
 62
    7
 10
1844.479228230975
 20
626.38127537189632
 40
3.7291361929193991
 50
271.9512493187687
 51
358.04875068122675
  0
ARC
  8
_0-1_レイヤ___3
  6
CONTINUOUS
 62
    7
 10
1844.7331760109375
 20
626.38127537189575
 40
3.7291361929189577
 50
181.95124931876646
 51
268.04875068122448
  0
ARC
  8
_0-1_レイヤ___3
  6
CONTINUOUS
 62
    7
 10
1844.60207531577
 20
626.25842828710063
 40
3.5958755628775259
 50
89.934244506574089
 51
180.06575549342585
  0
ARC
  8
_0-1_レイヤ___3
  6
CONTINUOUS
 62
    7
 10
1844.479228230975
 20
626.12732759193307
 40
3.7291361929191047
 50
1.9512493187777677
 51
88.048750681235802
  0
ARC
  8
_0-1_レイヤ___3
  6
CONTINUOUS
 62
    7
 10
1902.0490008428833
 20
718.15538066672673
 40
16.843089197630871
 50
147.86575966817898
 51
179.66350215570699
  0
ARC
  8
_0-1_レイヤ___3
  6
CONTINUOUS
 62
    7
 10
1893.9664341752537
 20
722.98964532653883
 40
7.4302113123669535
 50
115.17104426406483
 51
146.281063540746
  0
ARC
  8
_0-1_レイヤ___3
  6
CONTINUOUS
 62
    7
 10
1892.5898285294966
 20
725.27473237284823
 40
4.7844622771168064
 50
87.40795879424536
 51
111.88813183794745
  0
ARC
  8
_0-1_レイヤ___3
  6
CONTINUOUS
 62
    7
 10
1892.0170536459648
 20
719.34711872828302
 40
10.736222566923956
 50
57.622797214581979
 51
85.784765999352501
  0
ARC
  8
_0-1_レイヤ___3
  6
CONTINUOUS
 62
    7
 10
1888.4962142023085
 20
713.20083763592834
 40
17.815220945897597
 50
48.648983903361724
 51
58.644879512536711
  0
ARC
  8
_0-1_レイヤ___3
  6
CONTINUOUS
 62
    7
 10
1879.2095172193103
 20
702.63761458026522
 40
31.880226836207353
 50
41.337526272434225
 51
48.662473727577073
  0
ARC
  8
_0-1_レイヤ___3
  6
CONTINUOUS
 62
    7
 10
1806.4138103739328
 20
639.83972874534345
 40
128.01853243384019
 50
37.772312536117028
 51
40.92109043805624
  0
ARC
  8
_0-1_レイヤ___3
  6
CONTINUOUS
 62
    7
 10
1895.4085318614325
 20
708.9293482641574
 40
15.353756093638498
 50
353.58655657390597
 51
37.397419825542848
  0
ARC
  8
_0-1_レイヤ___3
  6
CONTINUOUS
 62
    7
 10
1903.3500569942494
 20
708.44399497405391
 40
7.4187664968688924
 50
275.07409586946062
 51
350.45893573707991
  0
ARC
  8
_0-1_レイヤ___3
  6
CONTINUOUS
 62
    7
 10
1903.0800315792358
 20
714.79429181445767
 40
13.771170110441878
 50
225.7242147765084
 51
273.85629894132683
  0
ARC
  8
_0-1_レイヤ___3
  6
CONTINUOUS
 62
    7
 10
1906.2318653554853
 20
718.87572764964148
 40
18.903055874847034
 50
192.90410070613274
 51
227.52078320616829
  0
ARC
  8
_0-1_レイヤ___3
  6
CONTINUOUS
 62
    7
 10
1908.4848083333645
 20
625.17569326950593
 40
3.5234835160405704
 50
271.97435683336653
 51
358.02564316663347
  0
ARC
  8
_0-1_レイヤ___3
  6
CONTINUOUS
 62
    7
 10
1908.7155434776309
 20
625.37595697172208
 40
3.7232614136615885
 50
184.95600541274521
 51
268.31711689141611
  0
ARC
  8
_0-1_レイヤ___3
  6
CONTINUOUS
 62
    7
 10
1908.7331750109377
 20
624.92732866247479
 40
3.729135157047998
 50
91.951265234273308
 51
178.04876659673135
  0
ARC
  8
_0-1_レイヤ___3
  6
CONTINUOUS
 62
    7
 10
1908.4845992010155
 20
625.13390061308201
 40
3.5225003990074004
 50
358.70515770429637
 51
88.021688212463786
  0
ARC
  8
_0-1_レイヤ___3
  6
CONTINUOUS
 62
    7
 10
1829.8125360984557
 20
763.45347527044453
 40
3.599181361922279
 50
269.89916863610694
 51
356.82767728063914
  0
ARC
  8
_0-1_レイヤ___3
  6
CONTINUOUS
 62
    7
 10
1829.9155444776306
 20
763.57595609486452
 40
3.7232625069518717
 50
184.95602130228471
 51
268.3171327809556
  0
ARC
  8
_0-1_レイヤ___3
  6
CONTINUOUS
 62
    7
 10
1829.9331760109374
 20
763.12732559193364
 40
3.7291361929192517
 50
91.951249318780043
 51
178.04875068123809
  0
ARC
  8
_0-1_レイヤ___3
  6
CONTINUOUS
 62
    7
 10
1829.6792282309741
 20
763.12732559193307
 40
3.7291361929196936
 50
1.9512493187687221
 51
88.048750681226764
  0
ARC
  8
_0-1_レイヤ___3
  6
CONTINUOUS
 62
    7
 10
2196.9833125039768
 20
580.11350373107575
 40
6.1703213589190087
 50
12.550373890413637
 51
84.392855177436843
  0
ARC
  8
_0-1_レイヤ___3
  6
CONTINUOUS
 62
    7
 10
2196.4609439062742
 20
578.76481169534429
 40
7.5735493534927834
 50
81.455552532236865
 51
105.74198370137292
  0
ARC
  8
_0-1_レイヤ___3
  6
CONTINUOUS
 62
    7
 10
2195.8587076982549
 20
580.3185699337223
 40
5.9167902003635806
 50
104.21078056910801
 51
123.11550084730503
  0
ARC
  8
_0-1_レイヤ___3
  6
CONTINUOUS
 62
    7
 10
2197.5508048750366
 20
577.52969272783446
 40
9.1777304457335536
 50
122.45129057612641
 51
147.54870942387356
  0
ARC
  8
_0-1_レイヤ___3
  6
CONTINUOUS
 62
    7
 10
2195.5256397832086
 20
579.07318768815287
 40
6.6440925860531133
 50
149.41006334747792
 51
236.16508195015746
  0
ARC
  8
_0-1_レイヤ___3
  6
CONTINUOUS
 62
    7
 10
2199.7959290600184
 20
584.50218194240165
 40
13.54151711979007
 50
233.94648527559974
 51
263.2581025891709
  0
ARC
  8
_0-1_レイヤ___3
  6
CONTINUOUS
 62
    7
 10
2198.7140105947715
 20
574.74885418515669
 40
3.7292868538961215
 50
262.1737582810872
 51
333.31872189971983
  0
ARC
  8
_0-1_レイヤ___3
  6
CONTINUOUS
 62
    7
 10
2195.0727662214626
 20
577.06934354659722
 40
8.0367325251977064
 50
330.19183934752817
 51
344.74166049447399
  0
ARC
  8
_0-1_レイヤ___3
  6
CONTINUOUS
 62
    7
 10
2189.6677405490063
 20
578.57118290294807
 40
13.64649294820004
 50
344.63061408171797
 51
12.196891022383848
  0
ARC
  8
_0-1_レイヤ___3
  6
CONTINUOUS
 62
    7
 10
2208.2792222309745
 20
679.38127537189587
 40
3.7291361929192517
 50
271.95124931877098
 51
358.04875068122902
  0
ARC
  8
_0-1_レイヤ___3
  6
CONTINUOUS
 62
    7
 10
2208.6053653448607
 20
679.24796130449124
 40
3.5991748082234798
 50
179.89906975488086
 51
266.82777616187934
  0
ARC
  8
_0-1_レイヤ___3
  6
CONTINUOUS
 62
    7
 10
2208.5079074096575
 20
679.15259019321297
 40
3.5031881387772423
 50
91.663754957615907
 51
178.33624504238409
  0
ARC
  8
_0-1_レイヤ___3
  6
CONTINUOUS
 62
    7
 10
2208.3572621826966
 20
678.99660672375717
 40
3.658022071306382
 50
4.0396316246884396
 51
89.233522458551406
  0
ARC
  8
_0-1_レイヤ___3
  6
CONTINUOUS
 62
    7
 10
2190.0857952521233
 20
692.77590240185475
 40
3.5225003990071073
 50
268.70515770430086
 51
358.02168821246829
  0
ARC
  8
_0-1_レイヤ___3
  6
CONTINUOUS
 62
    7
 10
2190.0551300592156
 20
692.9119962400722
 40
3.6580220713065352
 50
184.03963162469071
 51
269.23352245855369
  0
ARC
  8
_0-1_レイヤ___3
  6
CONTINUOUS
 62
    7
 10
2190.1331700109367
 20
692.52732759193293
 40
3.7291361929193991
 50
91.951249318768717
 51
178.04875068122675
  0
ARC
  8
_0-1_レイヤ___3
  6
CONTINUOUS
 62
    7
 10
2189.8792222309744
 20
692.5273275919335
 40
3.7291361929189577
 50
1.9512493187664703
 51
88.048750681224504
  0
ARC
  8
_0-1_レイヤ___3
  6
CONTINUOUS
 62
    7
 10
2201.4416705518515
 20
981.8454924059705
 40
5.8899032176489676
 50
11.843144637850584
 51
67.177877693528188
  0
ARC
  8
_0-1_レイヤ___3
  6
CONTINUOUS
 62
    7
 10
2200.6408482004599
 20
980.38592350049612
 40
7.547783803534359
 50
65.872072986817244
 51
105.63864942107291
  0
ARC
  8
_0-1_レイヤ___3
  6
CONTINUOUS
 62
    7
 10
2199.8700667808516
 20
982.02082630919335
 40
5.7735036126209334
 50
102.64494876877488
 51
122.05126792703084
  0
ARC
  8
_0-1_レイヤ___3
  6
CONTINUOUS
 62
    7
 10
2202.2431394817663
 20
978.20778146707937
 40
10.264684086672482
 50
121.98347757239443
 51
145.27936081370285
  0
ARC
  8
_0-1_レイヤ___3
  6
CONTINUOUS
 62
    7
 10
2199.7160026479924
 20
980.76723246821473
 40
6.7624401249131605
 50
150.91697621278567
 51
237.33559764041917
  0
ARC
  8
_0-1_レイヤ___3
  6
CONTINUOUS
 62
    7
 10
2203.945687769994
 20
986.06689199641608
 40
13.524922284712158
 50
234.36704620804608
 51
262.61050353792575
  0
ARC
  8
_0-1_レイヤ___3
  6
CONTINUOUS
 62
    7
 10
2202.7126502093515
 20
976.45134156867471
 40
3.830670899522973
 50
262.40266508421468
 51
332.36101481463652
  0
ARC
  8
_0-1_レイヤ___3
  6
CONTINUOUS
 62
    7
 10
2198.0416661563845
 20
979.50012608220163
 40
9.3981522241777551
 50
329.10362529437526
 51
356.91472812163437
  0
ARC
  8
_0-1_レイヤ___3
  6
CONTINUOUS
 62
    7
 10
2193.1657800884586
 20
980.25752479208734
 40
14.316256796281888
 50
354.93779380919131
 51
11.265537300419561
  0
ARC
  8
_0-1_レイヤ___3
  6
CONTINUOUS
 62
    7
 10
2161.4776914414738
 20
979.90412960665594
 40
16.672169622662398
 50
147.69449942810922
 51
179.48392428778808
  0
ARC
  8
_0-1_レイヤ___3
  6
CONTINUOUS
 62
    7
 10
2153.3583325604404
 20
984.83037126033537
 40
7.1790000673187997
 50
114.28137406222775
 51
146.29332255819583
  0
ARC
  8
_0-1_レイヤ___3
  6
CONTINUOUS
 62
    7
 10
2152.0192653182089
 20
987.13524407296518
 40
4.5355862499318604
 50
85.106124094236051
 51
110.8330966944188
  0
ARC
  8
_0-1_レイヤ___3
  6
CONTINUOUS
 62
    7
 10
2151.6170496459649
 20
980.94711472828294
 40
10.736222566923956
 50
57.622797214581979
 51
85.784765999352501
  0
ARC
  8
_0-1_レイヤ___3
  6
CONTINUOUS
 62
    7
 10
2148.0962102023113
 20
974.80083363592883
 40
17.815220945895661
 50
48.648983903370173
 51
58.64487951254516
  0
ARC
  8
_0-1_レイヤ___3
  6
CONTINUOUS
 62
    7
 10
2138.8095132193057
 20
964.23761058026514
 40
31.8802268362105
 50
41.337526272428569
 51
48.662473727571424
  0
ARC
  8
_0-1_レイヤ___3
  6
CONTINUOUS
 62
    7
 10
2066.0138437571727
 20
901.43968936211934
 40
128.01852736329462
 50
37.772335461287554
 51
40.921113363226766
  0
ARC
  8
_0-1_レイヤ___3
  6
CONTINUOUS
 62
    7
 10
2155.1788092315264
 20
970.65667666885588
 40
15.141146327751931
 50
353.62051710312898
 51
37.405975193284561
  0
ARC
  8
_0-1_レイヤ___3
  6
CONTINUOUS
 62
    7
 10
2162.4661796644982
 20
970.08795532509964
 40
7.8395229597375682
 50
307.57022363801502
 51
351.83311587459553
  0
ARC
  8
_0-1_レイヤ___3
  6
CONTINUOUS
 62
    7
 10
2163.1431580392882
 20
970.07599084033359
 40
7.4361238843651014
 50
273.57006118788178
 51
303.48861974519747
  0
ARC
  8
_0-1_レイヤ___3
  6
CONTINUOUS
 62
    7
 10
2162.660709361417
 20
975.71124158444206
 40
13.091132047723493
 50
236.66238857177518
 51
274.14171382724089
  0
ARC
  8
_0-1_レイヤ___3
  6
CONTINUOUS
 62
    7
 10
2165.5128123759723
 20
980.39735592228396
 40
18.574563602418369
 50
192.88824401763941
 51
237.25641988231209
  0
ARC
  8
_0-1_レイヤ___3
  6
CONTINUOUS
 62
    7
 10
1919.0792262309747
 20
822.38127337189553
 40
3.7291361929186633
 50
271.95124931877098
 51
358.04875068122902
  0
ARC
  8
_0-1_レイヤ___3
  6
CONTINUOUS
 62
    7
 10
1919.1882138489257
 20
822.23631320988488
 40
3.5820588846842218
 50
179.7123046158305
 51
270.28769538418305
  0
ARC
  8
_0-1_レイヤ___3
  6
CONTINUOUS
 62
    7
 10
1919.1998661434563
 20
822.05512369338464
 40
3.5991813619228461
 50
89.899168636116514
 51
176.82767728064871
  0
ARC
  8
_0-1_レイヤ___3
  6
CONTINUOUS
 62
    7
 10
1919.0968577642809
 20
821.93264286896465
 40
3.7232625069524596
 50
4.9560213022751469
 51
88.317132780946039
  0
ARC
  8
_0-1_レイヤ___3
  6
CONTINUOUS
 62
    7
 10
1771.4792292309744
 20
666.98127430135514
 40
3.7291351570484403
 50
271.95126523426649
 51
358.04876659672453
  0
ARC
  8
_0-1_レイヤ___3
  6
CONTINUOUS
 62
    7
 10
1771.7331780109373
 20
666.98127537189578
 40
3.7291361929189577
 50
181.95124931876646
 51
268.04875068122448
  0
ARC
  8
_0-1_レイヤ___3
  6
CONTINUOUS
 62
    7
 10
1771.7331780109373
 20
666.72732759193366
 40
3.7291361929189577
 50
91.95124931877551
 51
178.04875068123354
  0
ARC
  8
_0-1_レイヤ___3
  6
CONTINUOUS
 62
    7
 10
1771.4792292309744
 20
666.72732866247429
 40
3.7291351570484403
 50
1.9512334032754624
 51
88.048734765733499
  0
ARC
  8
_0-1_レイヤ___3
  6
CONTINUOUS
 62
    7
 10
1748.0792302309749
 20
665.58127537189648
 40
3.7291361929193991
 50
271.9512493187687
 51
358.04875068122675
  0
ARC
  8
_0-1_レイヤ___3
  6
CONTINUOUS
 62
    7
 10
1748.4053733448604
 20
665.44796130449072
 40
3.5991748082233381
 50
179.89906975487847
 51
266.82777616187695
  0
ARC
  8
_0-1_レイヤ___3
  6
CONTINUOUS
 62
    7
 10
1748.3888153394389
 20
665.27169026343188
 40
3.5872621872277572
 50
92.91792896303069
 51
177.0820710369741
  0
ARC
  8
_0-1_レイヤ___3
  6
CONTINUOUS
 62
    7
 10
1748.0968617642811
 20
665.13264486896446
 40
3.7232625069526315
 50
4.9560213022867119
 51
88.317132780957607
  0
ARC
  8
_0-1_レイヤ___3
  6
CONTINUOUS
 62
    7
 10
1715.0420309482324
 20
698.09911236417918
 40
11.526164280641325
 50
17.965551127803316
 51
44.33570998817877
  0
ARC
  8
_0-1_レイヤ___3
  6
CONTINUOUS
 62
    7
 10
1718.952423447899
 20
701.91513068700658
 40
6.0623612520670376
 50
44.367717560288341
 51
79.413450016177364
  0
ARC
  8
_0-1_レイヤ___3
  6
CONTINUOUS
 62
    7
 10
1719.5109752961775
 20
703.31871684121381
 40
4.5892952036731858
 50
83.051135612402987
 51
109.14058747681747
  0
ARC
  8
_0-1_レイヤ___3
  6
CONTINUOUS
 62
    7
 10
1720.6636661431544
 20
701.37136766200854
 40
6.8218297974038347
 50
112.92666818332091
 51
148.51440475619151
  0
ARC
  8
_0-1_レイヤ___3
  6
CONTINUOUS
 62
    7
 10
1720.6307945374544
 20
700.9387659406849
 40
7.0303478255259355
 50
145.36636480112656
 51
182.31895546967752
  0
ARC
  8
_0-1_レイヤ___3
  6
CONTINUOUS
 62
    7
 10
1736.9898545612837
 20
703.86496404955835
 40
23.603039254272247
 50
187.81803977881566
 51
206.49739083093169
  0
ARC
  8
_0-1_レイヤ___3
  6
CONTINUOUS
 62
    7
 10
1726.4427080517539
 20
698.70905849020971
 40
11.863829411130631
 50
206.93872032095865
 51
232.04655561952768
  0
ARC
  8
_0-1_レイヤ___3
  6
CONTINUOUS
 62
    7
 10
1722.8206525440464
 20
694.5833835446706
 40
6.3909991732897007
 50
234.90448890576272
 51
291.91726733587831
  0
ARC
  8
_0-1_レイヤ___3
  6
CONTINUOUS
 62
    7
 10
1723.9840812854682
 20
692.64481834387595
 40
4.1734648735334465
 50
287.0275623693808
 51
352.97372682573791
  0
ARC
  8
_0-1_レイヤ___3
  6
CONTINUOUS
 62
    7
 10
1719.8641976302856
 20
693.0387919254872
 40
8.3113689735445035
 50
353.75237395947494
 51
8.4094744138415169
  0
ARC
  8
_0-1_レイヤ___3
  6
CONTINUOUS
 62
    7
 10
1708.7440914242472
 20
691.44715593732428
 40
19.544753507800841
 50
8.2577539082714928
 51
17.284731221549858
  0
ARC
  8
_0-1_レイヤ___3
  6
CONTINUOUS
 62
    7
 10
2429.1310460165732
 20
922.9531148122436
 40
737.12801335463291
 50
197.47067398517999
 51
197.82957445466621
  0
ARC
  8
_0-1_レイヤ___3
  6
CONTINUOUS
 62
    7
 10
1715.3296753919581
 20
571.24646440880952
 40
6.4324819270398361
 50
12.642322200482759
 51
83.245770499483413
  0
ARC
  8
_0-1_レイヤ___3
  6
CONTINUOUS
 62
    7
 10
1714.9539592747999
 20
570.56715973837129
 40
7.1572689682273891
 50
80.897851403127447
 51
105.79144923341521
  0
ARC
  8
_0-1_レイヤ___3
  6
CONTINUOUS
 62
    7
 10
1716.2798031535472
 20
568.80731517930371
 40
9.2459103030299907
 50
110.73579214766067
 51
148.38354379032316
  0
ARC
  8
_0-1_レイヤ___3
  6
CONTINUOUS
 62
    7
 10
1714.1020857169046
 20
570.30052273489162
 40
6.6099101699018412
 50
149.51008221329883
 51
237.0427118713379
  0
ARC
  8
_0-1_レイヤ___3
  6
CONTINUOUS
 62
    7
 10
1718.5629703847799
 20
575.86935446675113
 40
13.727921948547099
 50
234.06344902305224
 51
262.64768069552122
  0
ARC
  8
_0-1_レイヤ___3
  6
CONTINUOUS
 62
    7
 10
1717.1309113506295
 20
566.15436047184744
 40
3.9135507291617753
 50
265.24069905481286
 51
333.92717798391499
  0
ARC
  8
_0-1_レイヤ___3
  6
CONTINUOUS
 62
    7
 10
1712.3305302323331
 20
569.10914942375996
 40
9.539633997272162
 50
330.65648822575196
 51
358.34902556063508
  0
ARC
  8
_0-1_レイヤ___3
  6
CONTINUOUS
 62
    7
 10
1707.6886426790425
 20
569.78818673455862
 40
14.209614410634101
 50
356.15087260977782
 51
11.636542500420664
  0
ARC
  8
_0-1_レイヤ___3
  6
CONTINUOUS
 62
    7
 10
1706.2795639641774
 20
629.33735881311009
 40
2.2909138852249651
 50
148.50165867901438
 51
187.09740386623204
  0
ARC
  8
_0-1_レイヤ___3
  6
CONTINUOUS
 62
    7
 10
1704.9669410384781
 20
630.05859081890492
 40
0.7980253331677991
 50
94.364946004833854
 51
143.40821752896679
  0
ARC
  8
_0-1_レイヤ___3
  6
CONTINUOUS
 62
    7
 10
1704.9395944258385
 20
628.96029730233238
 40
1.8942984835379648
 50
62.092779842036805
 51
91.009990054603975
  0
ARC
  8
_0-1_レイヤ___3
  6
CONTINUOUS
 62
    7
 10
1703.9912001560633
 20
625.87718808029706
 40
5.09876136596138
 50
59.144782095702112
 51
68.906429979407562
  0
ARC
  8
_0-1_レイヤ___3
  6
CONTINUOUS
 62
    7
 10
1713.3762384715772
 20
639.11791669648551
 40
11.153342090179517
 50
232.62738824028398
 51
244.22423025914952
  0
ARC
  8
_0-1_レイヤ___3
  6
CONTINUOUS
 62
    7
 10
1708.9161596231827
 20
630.762788557671
 40
1.7329321679495056
 50
256.99556890783884
 51
279.63506245644879
  0
ARC
  8
_0-1_レイヤ___3
  6
CONTINUOUS
 62
    7
 10
1700.4274631084547
 20
629.63340107840054
 40
8.7978207589845816
 50
339.09593839898127
 51
356.22588704435191
  0
ARC
  8
_0-1_レイヤ___3
  6
CONTINUOUS
 62
    7
 10
1705.3718750414096
 20
627.62883886130226
 40
3.465314702359195
 50
294.45070491931676
 51
340.88907460472518
  0
ARC
  8
_0-1_レイヤ___3
  6
CONTINUOUS
 62
    7
 10
1706.0702470145998
 20
626.9812989268371
 40
2.6127895152967193
 50
255.27672020865549
 51
286.36019071472901
  0
ARC
  8
_0-1_レイヤ___3
  6
CONTINUOUS
 62
    7
 10
1705.712684199073
 20
625.77093863468122
 40
1.3518370576099834
 50
215.06497461615277
 51
256.89632540419149
  0
ARC
  8
_0-1_レイヤ___3
  6
CONTINUOUS
 62
    7
 10
1706.8361412772413
 20
626.43427820646423
 40
2.6544590198811377
 50
187.79401532804545
 51
212.85225833124508
  0
ARC
  8
_0-1_レイヤ___3
  6
CONTINUOUS
 62
    7
 10
1732.4114513482778
 20
629.46398250388143
 40
28.408201431717583
 50
180.82630388472572
 51
186.85288879117422
  0
ARC
  8
_0-1_レイヤ___3
  6
CONTINUOUS
 62
    7
 10
1744.679230230975
 20
599.7812753718955
 40
3.7291361929185158
 50
271.95124931877325
 51
358.0487506812313
  0
ARC
  8
_0-1_レイヤ___3
  6
CONTINUOUS
 62
    7
 10
1744.9331780109374
 20
599.78127537189607
 40
3.7291361929191047
 50
181.95124931877774
 51
268.04875068123579
  0
ARC
  8
_0-1_レイヤ___3
  6
CONTINUOUS
 62
    7
 10
1744.9331780109374
 20
599.52732759193282
 40
3.7291361929193991
 50
91.951249318768717
 51
178.04875068122675
  0
ARC
  8
_0-1_レイヤ___3
  6
CONTINUOUS
 62
    7
 10
1744.6792302309746
 20
599.52732759193339
 40
3.7291361929188103
 50
1.9512493187641931
 51
88.048750681222231
  0
ARC
  8
_0-1_レイヤ___3
  6
CONTINUOUS
 62
    7
 10
2141.6894527310483
 20
497.29422151969459
 40
10.3491025867616
 50
16.620011338504135
 51
56.601566755461107
  0
ARC
  8
_0-1_レイヤ___3
  6
CONTINUOUS
 62
    7
 10
2145.1274283664588
 20
501.73821075691649
 40
4.7654207537858042
 50
61.706281772605031
 51
108.61592062555339
  0
ARC
  8
_0-1_レイヤ___3
  6
CONTINUOUS
 62
    7
 10
2145.1521316337776
 20
501.56362315883541
 40
4.9388654890965498
 50
108.24095587551065
 51
129.86825232263681
  0
ARC
  8
_0-1_レイヤ___3
  6
CONTINUOUS
 62
    7
 10
2147.0669132872481
 20
499.35535460284996
 40
7.8613646560010082
 50
130.26240508856554
 51
180.73650853896936
  0
ARC
  8
_0-1_レイヤ___3
  6
CONTINUOUS
 62
    7
 10
2163.8736990173666
 20
503.45600591473669
 40
25.022787690591429
 50
189.66661723019016
 51
207.93315308712255
  0
ARC
  8
_0-1_レイヤ___3
  6
CONTINUOUS
 62
    7
 10
2152.0483804607602
 20
497.25629545469928
 40
11.671146859520029
 50
208.23778822538702
 51
233.50049930806551
  0
ARC
  8
_0-1_レイヤ___3
  6
CONTINUOUS
 62
    7
 10
2148.5642570250257
 20
493.15452243868549
 40
6.3118050996097228
 50
236.77888040583576
 51
290.80558515083771
  0
ARC
  8
_0-1_レイヤ___3
  6
CONTINUOUS
 62
    7
 10
2149.3431918341803
 20
491.48559661631396
 40
4.4770781749216386
 50
289.07327032430987
 51
352.92682826286438
  0
ARC
  8
_0-1_レイヤ___3
  6
CONTINUOUS
 62
    7
 10
2145.4793144865425
 20
491.83794718692639
 40
8.3558893997756982
 50
353.7916333067397
 51
8.3702150665767618
  0
ARC
  8
_0-1_レイヤ___3
  6
CONTINUOUS
 62
    7
 10
2135.606443599318
 20
490.44517068640744
 40
18.326436316148989
 50
8.1850050926795657
 51
17.691107541667076
  0
ARC
  8
_0-1_レイヤ___3
  6
CONTINUOUS
 62
    7
 10
2005.6919505591072
 20
447.63887861391822
 40
155.11076872861031
 50
18.172361784482483
 51
19.828868514662901
  0
ARC
  8
_0-1_レイヤ___3
  6
CONTINUOUS
 62
    7
 10
1844.6125360984558
 20
487.85347927044484
 40
3.5991813619225628
 50
269.89916863611177
 51
356.82767728064397
  0
ARC
  8
_0-1_レイヤ___3
  6
CONTINUOUS
 62
    7
 10
1844.7155444776308
 20
487.97596009486426
 40
3.7232625069521657
 50
184.95602130227994
 51
268.31713278095083
  0
ARC
  8
_0-1_レイヤ___3
  6
CONTINUOUS
 62
    7
 10
1844.7331760109375
 20
487.52732959193338
 40
3.7291361929189577
 50
91.95124931877551
 51
178.04875068123354
  0
ARC
  8
_0-1_レイヤ___3
  6
CONTINUOUS
 62
    7
 10
1844.479228230975
 20
487.52732959193281
 40
3.7291361929193991
 50
1.9512493187732514
 51
88.048750681231297
  0
ARC
  8
_0-1_レイヤ___3
  6
CONTINUOUS
 62
    7
 10
1908.3485053627987
 20
486.70323742017388
 40
3.6580220713060774
 50
274.03963162468392
 51
359.23352245854687
  0
ARC
  8
_0-1_レイヤ___3
  6
CONTINUOUS
 62
    7
 10
1908.733175010937
 20
486.78127630135464
 40
3.729135157047704
 50
181.95123340327322
 51
268.0487347657313
  0
ARC
  8
_0-1_レイヤ___3
  6
CONTINUOUS
 62
    7
 10
1908.7331750109377
 20
486.52733066247436
 40
3.7291351570482929
 50
91.951265234277813
 51
178.04876659673585
  0
ARC
  8
_0-1_レイヤ___3
  6
CONTINUOUS
 62
    7
 10
1908.484599201015
 20
486.73390261308214
 40
3.5225003990076948
 50
358.70515770429188
 51
88.021688212459281
  0
LINE
  8
_0-1_レイヤ___3
  6
CONTINUOUS
 62
    7
 10
1264.0062101209558
 20
1033.0542954819152
 11
1424.8062081209559
 21
940.05429748191489
  0
LINE
  8
_0-1_レイヤ___3
  6
CONTINUOUS
 62
    7
 10
1382.6062081209559
 20
964.85429748191507
 11
1382.6062081209559
 21
971.25429748191436
  0
LINE
  8
_0-1_レイヤ___3
  6
CONTINUOUS
 62
    7
 10
1382.6062081209559
 20
971.25429748191436
 11
1399.6062081209561
 21
982.25429748191459
  0
ARC
  8
_0-1_レイヤ___3
  6
CONTINUOUS
 62
    7
 10
1390.3050309193945
 20
976.40000994243167
 40
10.990203816571615
 50
32.18686985569699
 51
59.963420852632538
  0
ARC
  8
_0-1_レイヤ___3
  6
CONTINUOUS
 62
    7
 10
1387.4291602927638
 20
972.39015163244403
 40
15.908406493957274
 50
58.225334556789022
 51
79.946666729774918
  0
ARC
  8
_0-1_レイヤ___3
  6
CONTINUOUS
 62
    7
 10
1387.2247065735021
 20
965.87585421122412
 40
22.377949161506319
 50
82.343492461589761
 51
145.30269367418416
  0
ARC
  8
_0-1_レイヤ___3
  6
CONTINUOUS
 62
    7
 10
1402.3272775094458
 20
954.31689691796407
 40
41.384600884063339
 50
144.04765816503769
 51
157.37976552334356
  0
ARC
  8
_0-1_レイヤ___3
  6
CONTINUOUS
 62
    7
 10
1432.0551641531988
 20
941.10919388108016
 40
73.909501795601159
 50
156.79236404282136
 51
166.84155725900391
  0
ARC
  8
_0-1_レイヤ___3
  6
CONTINUOUS
 62
    7
 10
1479.9124977469824
 20
928.38982383247696
 40
123.41480919831946
 50
166.14936270852493
 51
170.45520679810701
  0
LINE
  8
_0-1_レイヤ___3
  6
CONTINUOUS
 62
    7
 10
1358.2062101209563
 20
948.85429748191484
 11
1382.6062081209559
 21
964.85429748191507
  0
LINE
  8
_0-1_レイヤ___3
  6
CONTINUOUS
 62
    7
 10
1229.6062121209559
 20
1022.8542954819147
 11
1358.0062101209558
 21
948.85429748191484
  0
ARC
  8
_0-1_レイヤ___3
  6
CONTINUOUS
 62
    7
 10
1468.8385699135918
 20
929.68523607427983
 40
112.47784178429988
 50
161.54333295538254
 51
170.18745659554219
  0
ARC
  8
_0-1_レイヤ___3
  6
CONTINUOUS
 62
    7
 10
1418.2961922518948
 20
946.13874338752737
 40
59.32752941061834
 50
150.4097698816467
 51
161.16293622376079
  0
ARC
  8
_0-1_レイヤ___3
  6
CONTINUOUS
 62
    7
 10
1393.9815006405065
 20
959.58924320493736
 40
31.54373500342404
 50
128.03465306096425
 51
149.84637981387581
  0
ARC
  8
_0-1_レイヤ___3
  6
CONTINUOUS
 62
    7
 10
1386.7164227209107
 20
967.46867099702911
 40
20.879332785582712
 50
80.378387771773092
 51
125.65359587873211
  0
ARC
  8
_0-1_レイヤ___3
  6
CONTINUOUS
 62
    7
 10
1386.8166866778347
 20
970.88049187411627
 40
17.505096000097577
 50
57.561916515720974
 51
78.835264511564176
  0
LINE
  8
_0-1_レイヤ___3
  6
CONTINUOUS
 62
    7
 10
1396.2062081209558
 20
985.65429548191446
 11
1280.8062101209562
 21
1052.2542954819146
  0
LINE
  8
_0-1_レイヤ___3
  6
CONTINUOUS
 62
    7
 10
1280.8062101209562
 20
1052.2542954819146
 11
1262.8062101209559
 21
1041.8542954819145
  0
LINE
  8
_0-1_レイヤ___3
  6
CONTINUOUS
 62
    7
 10
1262.8062101209559
 20
1041.8542954819145
 11
1262.8062101209559
 21
1029.6542954819142
  0
ARC
  8
_0-1_レイヤ___3
  6
CONTINUOUS
 62
    7
 10
1248.9312632451654
 20
1034.84176891981
 40
14.812968354617029
 50
327.36933018416795
 51
339.50056746167138
  0
ARC
  8
_0-1_レイヤ___3
  6
CONTINUOUS
 62
    7
 10
1259.3301327830093
 20
1027.9103728198618
 40
2.3292480453701629
 50
296.96193175655651
 51
333.03806824342752
  0
ARC
  8
_0-1_レイヤ___3
  6
CONTINUOUS
 62
    7
 10
1260.015431935765
 20
1026.5939462594697
 40
0.8453080896648517
 50
241.04584356153438
 51
296.01655500968059
  0
LINE
  8
_0-1_レイヤ___3
  6
CONTINUOUS
 62
    7
 10
1259.6062101209557
 20
1025.854295481915
 11
1247.206210120956
 21
1032.8542954819147
  0
LINE
  8
_0-1_レイヤ___3
  6
CONTINUOUS
 62
    7
 10
1247.206210120956
 20
1032.8542954819147
 11
1229.6062121209559
 21
1022.8542954819147
  0
LINE
  8
_0-1_レイヤ___3
  6
CONTINUOUS
 62
    7
 10
2225.4061961209554
 20
1046.0542954819152
 11
2225.4061961209554
 21
484.25430348191469
  0
LINE
  8
_0-0_文字
  6
CONTINUOUS
 62
    7
 10
1486.6062081209561
 20
1093.2542954819144
 11
1570.2062061209558
 21
1237.8542934819147
  0
LINE
  8
_0-0_文字
  6
CONTINUOUS
 62
    7
 10
1570.2062061209558
 20
1237.8542934819147
 11
1604.0062061209555
 21
1237.8542934819147
  0
LINE
  8
_0-0_文字
  6
CONTINUOUS
 62
    7
 10
1518.8062061209557
 20
934.8542974819145
 11
1366.8062101209557
 21
664.45430148191463
  0
LINE
  8
_0-0_文字
  6
CONTINUOUS
 62
    7
 10
1366.8062101209557
 20
664.45430148191463
 11
1323.0062101209558
 21
664.45430148191463
  0
LINE
  8
_0-0_文字
  6
CONTINUOUS
 62
    7
 10
1415.2062081209556
 20
1394.8542894819147
 11
1478.0062081209558
 21
1500.2542894819146
  0
LINE
  8
_0-0_文字
  6
CONTINUOUS
 62
    7
 10
1478.0062081209558
 20
1500.2542894819146
 11
1511.8062061209559
 21
1500.2542894819146
  0
LINE
  8
_0-0_文字
  6
CONTINUOUS
 62
    7
 10
1935.2062001209561
 20
1352.0542914819148
 11
1906.4062021209561
 21
1352.0542914819148
  0
LINE
  8
_0-0_文字
  6
CONTINUOUS
 62
    7
 10
2080.6061981209564
 20
1114.6542954819147
 11
1935.2062001209561
 21
1352.0542914819148
  0
LINE
  8
_0-0_文字
  6
CONTINUOUS
 62
    7
 10
1063.0062141209557
 20
1161.4542934819144
 11
1000.4062141209557
 21
1264.2542914819148
  0
LINE
  8
_0-0_文字
  6
CONTINUOUS
 62
    7
 10
1000.4062141209557
 20
1264.2542914819148
 11
966.60621612095622
 21
1264.2542914819148
  0
LINE
  8
_0-0_文字
  6
CONTINUOUS
 62
    7
 10
1333.8062101209562
 20
990.85429548191485
 11
1271.2062101209565
 21
1093.6542954819147
  0
LINE
  8
_0-0_文字
  6
CONTINUOUS
 62
    7
 10
1271.2062101209565
 20
1093.6542954819147
 11
1237.206210120956
 21
1093.6542954819147
  0
TEXT
  8
_0-0_文字
 62
    7
 10
1614.5862061209555
 20
1223.6942934819151
 40
45.999999999999943
 41
1.0000000000000011
 50
0
  1
AYシールMS-1
  0
TEXT
  8
_0-0_文字
 62
    7
 10
1510.5662061209564
 20
1481.2142894819146
 40
45.999999999999943
 41
1.0000000000000011
 50
0
  1
リベットルーフ
  0
TEXT
  8
_0-0_文字
 62
    7
 10
1002.2060254613943
 20
637.62699846819544
 40
46.000000000000227
 41
0.999999999999995
 50
0
  1
AYブチルテープ
  0
TEXT
  8
_0-0_文字
 62
    7
 10
954.35758518827708
 20
1068.2629609262499
 40
46.000000000000227
 41
0.9999999999999952
 50
0
  1
AYシールMS-1
  0
TEXT
  8
_0-0_文字
 62
    7
 10
732.34082232101355
 20
1234.7755330766979
 40
45.999999999999943
 41
1.0000000000000013
 50
0
  1
YK押え金物
  0
TEXT
  8
_0-0_文字
 62
    7
 10
1601.4279924817315
 20
1326.9635280029036
 40
45.999999999999943
 41
1.0000000000000011
 50
0
  1
AYボンド580NF
  0
ENDSEC
  0
EOF
