  0
SECTION
  2
HEADER
  9
$ACADVER
  1
AC1009
  9
$INSBASE
 10
0
 20
0
 30
0
  9
$EXTMIN
 10
0
 20
0
  9
$EXTMAX
 10
840
 20
594
  9
$LIMMIN
 10
0
 20
0
  9
$LIMMAX
 10
840
 20
594
  9
$LTSCALE
 40
2
  0
ENDSEC
  0
SECTION
  2
TABLES
  0
TABLE
  2
LTYPE
 70
     9
  0
LTYPE
  2
CONTINUOUS
 70
    64
  3
実線
 72
    65
 73
     0
 40
0.0
  0
LTYPE
  2
DASHED1
 70
    64
  3
--  --  --  --  --  --  --  --  
 72
    65
 73
     2
 40
2.5
 49
1.25
 49
-1.25
  0
LTYPE
  2
DASHED2
 70
    64
  3
----    ----    ----    ----    
 72
    65
 73
     2
 40
5.0
 49
2.5
 49
-2.5
  0
LTYPE
  2
DASHED3
 70
    64
  3
------  ------  ------  ------  
 72
    65
 73
     2
 40
5.0
 49
3.75
 49
-1.25
  0
LTYPE
  2
CENTER1
 70
    64
  3
----- - ----- - ----- - ----- - 
 72
    65
 73
     4
 40
10.0
 49
6.25
 49
-1.25
 49
1.25
 49
-1.25
  0
LTYPE
  2
CENTER2
 70
    64
  3
----------  --  ----------  --  
 72
    65
 73
     4
 40
20.0
 49
12.5
 49
-2.5
 49
2.5
 49
-2.5
  0
LTYPE
  2
PHANTOM1
 70
    64
  3
--- - - --- - - --- - - --- - - 
 72
    65
 73
     6
 40
10.0
 49
3.25
 49
-1.25
 49
1.25
 49
-1.25
 49
1.25
 49
-1.25
  0
LTYPE
  2
PHANTOM2
 70
    64
  3
--------  -  -  --------  -  -  
 72
    65
 73
     6
 40
20.0
 49
10.0
 49
-2.5
 49
1.25
 49
-2.5
 49
1.25
 49
-2.5
  0
LTYPE
  2
DOT
 70
    64
  3
-   -   -   -   -   -   -   -   
 72
    65
 73
     2
 40
2.5
 49
0.625
 49
-1.875
  0
LTYPE
  2
DUMMY
 70
    64
  3
ダミー
 72
    65
 73
     0
 40
0.0
  0
LTYPE
  2
RAND1
 70
    64
  3
ランダム線1
 72
    65
 73
     4
 40
10.0
 49
1.0
 49
-2.0
 49
3.0
 49
-4.0
  0
LTYPE
  2
RAND2
 70
    64
  3
ランダム線2
 72
    65
 73
     4
 40
14.0
 49
2.0
 49
-3.0
 49
4.0
 49
-5.0
  0
LTYPE
  2
RAND3
 70
    64
  3
ランダム線3
 72
    65
 73
     4
 40
18.0
 49
3.0
 49
-4.0
 49
5.0
 49
-6.0
  0
LTYPE
  2
RAND4
 70
    64
  3
ランダム線4
 72
    65
 73
     4
 40
22.0
 49
4.0
 49
-5.0
 49
6.0
 49
-7.0
  0
LTYPE
  2
RAND5
 70
    64
  3
ランダム線5
 72
    65
 73
     4
 40
26.0
 49
5.0
 49
-6.0
 49
7.0
 49
-8.0
  0
LTYPE
  2
LONG1
 70
    64
  3
----------  --  ----------  --  
 72
    65
 73
     4
 40
40.0
 49
32.5
 49
-2.5
 49
2.5
 49
-2.5
  0
LTYPE
  2
LONG2
 70
    64
  3
--------  -  -  --------  -  -  
 72
    65
 73
     6
 40
40.0
 49
30.0
 49
-2.5
 49
1.25
 49
-2.5
 49
1.25
 49
-2.5
  0
LTYPE
  2
LONG3
 70
    64
  3
+++++++++++++++..+++++++++++++++
 72
    65
 73
     2
 40
40.0
 49
37.5
 49
-2.5
  0
LTYPE
  2
LONG4
 70
    64
  3
+++++++++++++++..+++++++++++++++
 72
    65
 73
     2
 40
80.0
 49
75.0
 49
-5.0
  0
LTYPE
  2
LONG5
 70
    64
  3
----------  --  ----------  --  
 72
    65
 73
     4
 40
60.0
 49
37.5
 49
-7.5
 49
7.5
 49
-7.5
  0
LTYPE
  2
dashed
 70
   64
  3
-------   -------------   ------
 72
   65
 73
    2
 40
7.5
 49
6
 49
-1.5
  0
LTYPE
  2
dashed_spaced
 70
   64
  3
----        --------        ----
 72
   65
 73
    2
 40
12
 49
6
 49
-6
  0
LTYPE
  2
long_dashed_dotted
 70
   64
  3
------------- --- --------------
 72
   65
 73
    4
 40
15.25
 49
12
 49
-1.5
 49
0.25
 49
-1.5
  0
LTYPE
  2
long_dashed_double-dotted
 70
   64
  3
----------- --- --- ------------
 72
   65
 73
    6
 40
17
 49
12
 49
-1.5
 49
0.25
 49
-1.5
 49
0.25
 49
-1.5
  0
LTYPE
  2
long_dashed_triplicate-dotted
 70
   64
  3
--------- --- --- --- ----------
 72
   65
 73
    8
 40
18.75
 49
12
 49
-1.5
 49
0.25
 49
-1.5
 49
0.25
 49
-1.5
 49
0.25
 49
-1.5
  0
LTYPE
  2
dotted
 70
   64
  3
   -       -       -       -    
 72
   65
 73
    2
 40
1.75
 49
0.25
 49
-1.5
  0
LTYPE
  2
chain
 70
   64
  3
-------------- -- --------------
 72
   65
 73
    4
 40
18.5
 49
12
 49
-1.5
 49
3.5
 49
-1.5
  0
LTYPE
  2
chain_double_dash
 70
   64
  3
------------ -- -- -------------
 72
   65
 73
    6
 40
23.5
 49
12
 49
-1.5
 49
3.5
 49
-1.5
 49
3.5
 49
-1.5
  0
LTYPE
  2
dashed_dotted
 70
   64
  3
-----------     -     ----------
 72
   65
 73
    4
 40
9.25
 49
6
 49
-1.5
 49
0.25
 49
-1.5
  0
LTYPE
  2
double-dashed_dotted
 70
   64
  3
------   -----------   -   -----
 72
   65
 73
    6
 40
16.75
 49
6
 49
-1.5
 49
6
 49
-1.5
 49
0.25
 49
-1.5
  0
LTYPE
  2
dashed_double-dotted
 70
   64
  3
---------    -    -    ---------
 72
   65
 73
    6
 40
11
 49
6
 49
-1.5
 49
0.25
 49
-1.5
 49
0.25
 49
-1.5
  0
LTYPE
  2
double-dashed_double-dotted
 70
   64
  3
-----   ---------   -   -   ----
 72
   65
 73
    8
 40
18.5
 49
6
 49
-1.5
 49
6
 49
-1.5
 49
0.25
 49
-1.5
 49
0.25
 49
-1.5
  0
LTYPE
  2
dashed_triplicate-dotted
 70
   64
  3
-------    -    -    -    ------
 72
   65
 73
    8
 40
12.75
 49
6
 49
-1.5
 49
0.25
 49
-1.5
 49
0.25
 49
-1.5
 49
0.25
 49
-1.5
  0
LTYPE
  2
double-dashed_triplicate-dotted
 70
   64
  3
-----  ---------  -  -  -  -----
 72
   65
 73
   10
 40
20.25
 49
6
 49
-1.5
 49
6
 49
-1.5
 49
0.25
 49
-1.5
 49
0.25
 49
-1.5
 49
0.25
 49
-1.5
  0
LTYPE
  2
undefined
 70
   64
  3
--------------------------------
 72
   65
 73
    0
 40
0
  0
ENDTAB
  0
TABLE
  2
STYLE
  5
3
100
AcDbSymbolTable
 70
     1
  0
STYLE
  5
10
100
AcDbSymbolTableRecord
100
AcDbTextStyleTableRecord
  2
STANDARD
 70
     0
 40
0.0
 41
1.0
 50
0.0
 71
     0
 42
0.2
  3
txt
  4
bigfont.shx
  0
STYLE
  5
26
100
AcDbSymbolTableRecord
100
AcDbTextStyleTableRecord
  2
TATEGAKI
 70
    68
 40
0.0
 41
1.0
 50
0.0
 71
     0
 42
1.0
  3
txt
  4
bigfont.shx
  0
ENDTAB
  0
TABLE
  2
LAYER
 70
    2
  0
LAYER
  2
_0-0_レイヤ___1
 70
   64
 62
    7
  6
CONTINUOUS
  0
LAYER
  2
ADD_LINE
 70
   64
 62
    7
  6
CONTINUOUS
  0
ENDTAB
  0
ENDSEC
  0
SECTION
  2
BLOCKS
  0
ENDSEC
  0
SECTION
  2
ENTITIES
  0
ARC
  8
_0-0_レイヤ___1
  6
CONTINUOUS
 62
    7
 10
670.78999649999992
 20
295.20250050000004
 40
69.929998999999995
 50
18.148699000000001
 51
32.996099000000001
  0
ARC
  8
_0-0_レイヤ___1
  6
CONTINUOUS
 62
    7
 10
700.65999549999992
 20
304.25750049999999
 40
38.734999000000002
 50
359.742885
 51
19.181757000000005
  0
ARC
  8
_0-0_レイヤ___1
  6
CONTINUOUS
 62
    7
 10
701.4699955000001
 20
304.63250049999999
 40
38.124999000000003
 50
329.41537799999998
 51
359.176153
  0
LINE
  8
_0-0_レイヤ___1
  6
CONTINUOUS
 62
    7
 10
739.58999549999999
 20
304.08250050000004
 11
739.58999549999999
 21
304.28250050000008
  0
ARC
  8
_0-0_レイヤ___1
  6
CONTINUOUS
 62
    7
 10
686.00999649999994
 20
313.57749950000004
 40
55.984999000000002
 50
315.35325
 51
329.58512899999999
  0
ARC
  8
_0-0_レイヤ___1
  6
CONTINUOUS
 62
    7
 10
676.1999965
 20
323.32749950000004
 40
69.814999
 50
301.94618600000001
 51
315.31840299999999
  0
ARC
  8
_0-0_レイヤ___1
  6
CONTINUOUS
 62
    7
 10
659.03999649999992
 20
346.61749950000001
 40
98.629998999999998
 50
290.66144400000007
 51
303.40504800000008
  0
ARC
  8
_0-0_レイヤ___1
  6
CONTINUOUS
 62
    7
 10
640.71999649999998
 20
386.54749850000007
 40
142.48999800000001
 50
279.66458899999998
 51
291.88903399999992
  0
ARC
  8
_0-0_レイヤ___1
  6
CONTINUOUS
 62
    7
 10
630.84499750000009
 20
243.11250150000001
 40
0.8149999999999999
 50
347.22019599999999
 51
211.17553500000002
  0
ARC
  8
_0-0_レイヤ___1
  6
CONTINUOUS
 62
    7
 10
631.42499750000002
 20
292.78250050000008
 40
50.109999000000002
 50
268.54026099999999
 51
270.986693
  0
ARC
  8
_0-0_レイヤ___1
  6
CONTINUOUS
 62
    7
 10
632.24999649999995
 20
410.24249850000001
 40
167.55999800000001
 50
270.013869
 51
281.21559500000001
  0
ARC
  8
_0-0_レイヤ___1
  6
CONTINUOUS
 62
    7
 10
632.24499650000007
 20
428.40749850000009
 40
185.729997
 50
255.21222699999998
 51
269.75155399999994
  0
ARC
  8
_0-0_レイヤ___1
  6
CONTINUOUS
 62
    7
 10
622.76999750000004
 20
387.2524985
 40
143.474998
 50
243.16065599999999
 51
251.97874100000001
  0
ARC
  8
_0-0_レイヤ___1
  6
CONTINUOUS
 62
    7
 10
611.7099975000001
 20
355.94249950000005
 40
110.284998
 50
252.41029300000002
 51
255.79178800000005
  0
ARC
  8
_0-0_レイヤ___1
  6
CONTINUOUS
 62
    7
 10
597.79999750000002
 20
335.73249950000002
 40
86.239998999999997
 50
229.01462100000003
 51
242.50723400000004
  0
ARC
  8
_0-0_レイヤ___1
  6
CONTINUOUS
 62
    7
 10
587.46999750000009
 20
323.01749949999999
 40
69.864998999999997
 50
213.76945499999999
 51
228.57248300000001
  0
ARC
  8
_0-0_レイヤ___1
  6
CONTINUOUS
 62
    7
 10
561.85999850000007
 20
305.08750050000003
 40
38.449998999999998
 50
189.06163900000001
 51
212.935834
  0
LINE
  8
_0-0_レイヤ___1
  6
CONTINUOUS
 62
    7
 10
523.6899985
 20
304.28250050000008
 11
523.6899985
 21
304.08250050000004
  0
ARC
  8
_0-0_レイヤ___1
  6
CONTINUOUS
 62
    7
 10
559.46999849999997
 20
302.97250050000002
 40
35.799999
 50
178.22004499999997
 51
186.31586299999998
  0
ARC
  8
_0-0_レイヤ___1
  6
CONTINUOUS
 62
    7
 10
560.63499849999994
 20
304.59250050000003
 40
37.149999000000001
 50
163.919184
 51
180.78729300000001
  0
ARC
  8
_0-0_レイヤ___1
  6
CONTINUOUS
 62
    7
 10
576.43499750000001
 20
301.38750049999999
 40
53.039999000000002
 50
152.49274700000001
 51
165.257779
  0
ARC
  8
_0-0_レイヤ___1
  6
CONTINUOUS
 62
    7
 10
589.38999749999994
 20
296.75750049999999
 40
66.874999000000003
 50
143.34508600000004
 51
154.18280900000002
  0
ARC
  8
_0-0_レイヤ___1
  6
CONTINUOUS
 62
    7
 10
696.72499650000009
 20
310.14250049999998
 40
40.129998999999998
 50
330.75024999999999
 51
358.345732
  0
LINE
  8
_0-0_レイヤ___1
  6
CONTINUOUS
 62
    7
 10
736.83999549999999
 20
308.98250050000001
 11
736.83999549999999
 21
309.18250050000006
  0
ARC
  8
_0-0_レイヤ___1
  6
CONTINUOUS
 62
    7
 10
684.43999650000001
 20
318.63249949999999
 40
55.119999
 50
315.10767499999992
 51
329.10495399999996
  0
ARC
  8
_0-0_レイヤ___1
  6
CONTINUOUS
 62
    7
 10
668.98499650000008
 20
335.20249950000004
 40
77.629998999999998
 50
302.01754599999998
 51
314.39306900000003
  0
ARC
  8
_0-0_レイヤ___1
  6
CONTINUOUS
 62
    7
 10
655.50499650000006
 20
354.89249949999999
 40
101.774998
 50
290.61595299999999
 51
302.63440600000001
  0
ARC
  8
_0-0_レイヤ___1
  6
CONTINUOUS
 62
    7
 10
643.91499649999992
 20
377.67749950000007
 40
127.21499799999999
 50
278.41946999999999
 51
291.88868300000001
  0
ARC
  8
_0-0_レイヤ___1
  6
CONTINUOUS
 62
    7
 10
630.86499750000007
 20
249.45250050000004
 40
0.795
 50
347.53795400000001
 51
211.205963
  0
ARC
  8
_0-0_レイヤ___1
  6
CONTINUOUS
 62
    7
 10
631.43999749999989
 20
290.41250050000008
 40
41.389999000000003
 50
268.26750700000002
 51
271.17924399999993
  0
ARC
  8
_0-0_レイヤ___1
  6
CONTINUOUS
 62
    7
 10
631.89999650000004
 20
420.23749850000002
 40
171.20499699999999
 50
270.13021500000002
 51
280.377409
  0
ARC
  8
_0-0_レイヤ___1
  6
CONTINUOUS
 62
    7
 10
633.01999649999993
 20
434.36749850000001
 40
185.34499700000001
 50
254.195336
 51
269.51167400000003
  0
ARC
  8
_0-0_レイヤ___1
  6
CONTINUOUS
 62
    7
 10
617.43999749999989
 20
375.58749950000004
 40
124.35499799999999
 50
240.99447600000002
 51
253.70176600000002
  0
ARC
  8
_0-0_レイヤ___1
  6
CONTINUOUS
 62
    7
 10
600.93999749999989
 20
343.46749950000003
 40
88.439999
 50
227.71859799999999
 51
240.31352699999999
  0
ARC
  8
_0-0_レイヤ___1
  6
CONTINUOUS
 62
    7
 10
575.25999750000005
 20
315.76249949999999
 40
50.799999
 50
208.67744400000001
 51
227.95855399999999
  0
ARC
  8
_0-0_レイヤ___1
  6
CONTINUOUS
 62
    7
 10
563.24999849999995
 20
309.34250050000003
 40
37.009999000000001
 50
180.24828799999997
 51
209.032803
  0
ARC
  8
_0-0_レイヤ___1
  6
CONTINUOUS
 62
    7
 10
570.94999749999988
 20
308.9975005
 40
44.709999000000003
 50
158.36426599999999
 51
180.01927499999999
  0
ARC
  8
_0-0_レイヤ___1
  6
CONTINUOUS
 62
    7
 10
590.08999749999998
 20
301.68250050000006
 40
65.199999000000005
 50
139.66555899999997
 51
158.59024099999996
  0
ARC
  8
_0-0_レイヤ___1
  6
CONTINUOUS
 62
    7
 10
601.27999750000004
 20
293.35250050000002
 40
78.999999000000003
 50
122.495351
 51
140.42380800000001
  0
ARC
  8
_0-0_レイヤ___1
  6
CONTINUOUS
 62
    7
 10
620.66499750000003
 20
267.02750050000009
 40
111.52999800000001
 50
106.55387400000001
 51
123.54291900000001
  0
LINE
  8
_0-0_レイヤ___1
  6
CONTINUOUS
 62
    7
 10
631.18999749999989
 20
380.08249850000004
 11
629.93999749999989
 21
380.08249850000004
  0
ARC
  8
_0-0_レイヤ___1
  6
CONTINUOUS
 62
    7
 10
629.69999749999988
 20
239.96250150000003
 40
140.11999800000001
 50
89.900851999999986
 51
107.03852799999999
  0
ARC
  8
_0-0_レイヤ___1
  6
CONTINUOUS
 62
    7
 10
633.52499650000004
 20
225.7425015
 40
154.349998
 50
76.830752000000004
 51
90.625385999999992
  0
LINE
  8
_0-0_レイヤ___1
  6
CONTINUOUS
 62
    7
 10
631.8399965000001
 20
380.08249850000004
 11
631.43999749999989
 21
380.08249850000004
  0
ARC
  8
_0-0_レイヤ___1
  6
CONTINUOUS
 62
    7
 10
640.46999649999998
 20
253.65750050000008
 40
125.584998
 50
63.329874999999994
 51
77.014707999999999
  0
ARC
  8
_0-0_レイヤ___1
  6
CONTINUOUS
 62
    7
 10
656.63499649999994
 20
288.22250050000002
 40
87.449999000000005
 50
43.241948000000001
 51
62.629140999999997
  0
ARC
  8
_0-0_レイヤ___1
  6
CONTINUOUS
 62
    7
 10
672.56999649999989
 20
303.71750050000003
 40
64.899998999999994
 50
18.010617
 51
43.187459000000004
  0
ARC
  8
_0-0_レイヤ___1
  6
CONTINUOUS
 62
    7
 10
683.9349964999999
 20
308.88250049999999
 40
52.704999000000001
 50
359.83738199999999
 51
16.422820999999995
  0
ARC
  8
_0-0_レイヤ___1
  6
CONTINUOUS
 62
    7
 10
340.2450015
 20
-50.247494499999959
 40
226.194997
 50
351.38794999999999
 51
359.893236
  0
ARC
  8
_0-0_レイヤ___1
  6
CONTINUOUS
 62
    7
 10
303.92000150000001
 20
-49.197494499999948
 40
266.639996
 50
347.156992
 51
358.27661599999999
  0
ARC
  8
_0-0_レイヤ___1
  6
CONTINUOUS
 62
    7
 10
270.29500250000001
 20
-47.252494499999955
 40
305.009995
 50
346.67169699999999
 51
357.00912299999999
  0
LINE
  8
_0-0_レイヤ___1
  6
CONTINUOUS
 62
    7
 10
567.08999749999998
 20
-117.76749349999994
 11
563.88999850000005
 21
-128.96749349999999
  0
ARC
  8
_0-0_レイヤ___1
  6
CONTINUOUS
 62
    7
 10
271.63000249999999
 20
-48.897494499999993
 40
308.55999500000001
 50
346.05266300000005
 51
356.28884799999997
  0
LINE
  8
_0-0_レイヤ___1
  6
CONTINUOUS
 62
    7
 10
571.08999749999998
 20
-123.46749349999999
 11
567.28999750000003
 21
-137.01749349999994
  0
ARC
  8
_0-0_レイヤ___1
  6
CONTINUOUS
 62
    7
 10
263.98000250000001
 20
-50.667494499999975
 40
321.21499499999999
 50
346.70797399999998
 51
355.58054900000002
  0
LINE
  8
_0-0_レイヤ___1
  6
CONTINUOUS
 62
    7
 10
576.58999749999998
 20
-124.96749349999999
 11
571.93999749999989
 21
-142.11749349999997
  0
ARC
  8
_0-0_レイヤ___1
  6
CONTINUOUS
 62
    7
 10
299.60000149999996
 20
-62.592494499999987
 40
289.98999600000002
 50
343.08444800000001
 51
351.157735
  0
LINE
  8
_0-0_レイヤ___1
  6
CONTINUOUS
 62
    7
 10
588.88999749999994
 20
-127.71749349999999
 11
582.73999750000007
 21
-151.61749349999997
  0
LINE
  8
_0-0_レイヤ___1
  6
CONTINUOUS
 62
    7
 10
593.33999749999998
 20
-139.56749349999996
 11
589.28999750000003
 21
-155.0174935
  0
LINE
  8
_0-0_レイヤ___1
  6
CONTINUOUS
 62
    7
 10
599.03999750000003
 20
-147.16749349999998
 11
596.28999750000003
 21
-158.16749349999998
  0
LINE
  8
_0-0_レイヤ___1
  6
CONTINUOUS
 62
    7
 10
605.78999750000003
 20
-153.11749349999997
 11
603.88999749999994
 21
-160.71749249999993
  0
ARC
  8
_0-0_レイヤ___1
  6
CONTINUOUS
 62
    7
 10
629.83999749999998
 20
-164.23749249999997
 40
17.59
 50
160.679811
 51
172.75041999999996
  0
LINE
  8
_0-0_レイヤ___1
  6
CONTINUOUS
 62
    7
 10
661.28999649999992
 20
-15.967495499999984
 11
661.28999649999992
 21
-15.517495499999939
  0
LINE
  8
_0-0_レイヤ___1
  6
CONTINUOUS
 62
    7
 10
661.68999650000001
 20
-16.167495499999973
 11
661.68999650000001
 21
-17.217495499999984
  0
LINE
  8
_0-0_レイヤ___1
  6
CONTINUOUS
 62
    7
 10
662.73999649999996
 20
-17.667495499999973
 11
661.68999650000001
 21
-17.017495499999939
  0
ARC
  8
_0-0_レイヤ___1
  6
CONTINUOUS
 62
    7
 10
661.78499650000003
 20
-18.47249549999998
 40
0.9799999999999999
 50
12.065837
 51
55.314290999999997
  0
ARC
  8
_0-0_レイヤ___1
  6
CONTINUOUS
 62
    7
 10
653.49999649999995
 20
-20.47249549999998
 40
9.4550000000000001
 50
356.71016900000001
 51
12.259042000000049
  0
LINE
  8
_0-0_レイヤ___1
  6
CONTINUOUS
 62
    7
 10
663.18999650000001
 20
-21.267495499999939
 11
663.38999650000005
 21
-27.367494499999964
  0
ARC
  8
_0-0_レイヤ___1
  6
CONTINUOUS
 62
    7
 10
662.40499649999992
 20
-27.03749449999998
 40
0.79
 50
312.78284400000001
 51
5.1421380000000108
  0
ARC
  8
_0-0_レイヤ___1
  6
CONTINUOUS
 62
    7
 10
658.21999649999998
 20
-21.81749549999995
 40
7.2850000000000001
 50
275.66908899999999
 51
310.38191
  0
ARC
  8
_0-0_レイヤ___1
  6
CONTINUOUS
 62
    7
 10
658.68999650000001
 20
-20.017495499999939
 40
9.2550000000000008
 50
253.04722099999998
 51
268.77224699999994
  0
ARC
  8
_0-0_レイヤ___1
  6
CONTINUOUS
 62
    7
 10
656.99499650000007
 20
-23.257495499999948
 40
6.1950000000000003
 50
283.95640900000001
 51
290.24906499999997
  0
ARC
  8
_0-0_レイヤ___1
  6
CONTINUOUS
 62
    7
 10
668.5599964999999
 20
6.55750450000005
 40
37.589998999999999
 50
247.68821599999998
 51
250.46280499999997
  0
LINE
  8
_0-0_レイヤ___1
  6
CONTINUOUS
 62
    7
 10
654.48999649999996
 20
-32.017494499999941
 11
654.48999649999996
 21
-28.417494499999975
  0
ARC
  8
_0-0_レイヤ___1
  6
CONTINUOUS
 62
    7
 10
654.66499649999992
 20
-32.987494499999968
 40
0.9849999999999999
 50
46.891921000000004
 51
100.32898199999998
  0
ARC
  8
_0-0_レイヤ___1
  6
CONTINUOUS
 62
    7
 10
656.94499649999989
 20
-27.352494499999978
 40
5.1699999999999999
 50
251.91539
 51
261.60359299999999
  0
ARC
  8
_0-0_レイヤ___1
  6
CONTINUOUS
 62
    7
 10
666.77999649999992
 20
-65.732494499999973
 40
34.909998999999999
 50
106.54464
 51
107.660794
  0
LINE
  8
_0-0_レイヤ___1
  6
CONTINUOUS
 62
    7
 10
657.23999649999996
 20
-32.267494499999941
 11
659.98999649999996
 21
-31.817494499999952
  0
ARC
  8
_0-0_レイヤ___1
  6
CONTINUOUS
 62
    7
 10
655.09999650000009
 20
-0.2774954999999863
 40
31.885000000000002
 50
278.458191
 51
290.64109100000002
  0
ARC
  8
_0-0_レイヤ___1
  6
CONTINUOUS
 62
    7
 10
653.74999649999995
 20
6.8875045000000341
 40
39.024999000000001
 50
288.51215200000001
 51
300.33630799999992
  0
ARC
  8
_0-0_レイヤ___1
  6
CONTINUOUS
 62
    7
 10
633.22999649999997
 20
43.70750350000003
 40
81.174999
 50
299.71116899999998
 51
302.41444799999999
  0
ARC
  8
_0-0_レイヤ___1
  6
CONTINUOUS
 62
    7
 10
638.59999650000009
 20
36.832504500000027
 40
72.494999000000007
 50
301.74302299999999
 51
322.08168499999999
  0
ARC
  8
_0-0_レイヤ___1
  6
CONTINUOUS
 62
    7
 10
665.16499649999992
 20
17.617504500000052
 40
39.394998999999999
 50
320.448847
 51
340.677751
  0
ARC
  8
_0-0_レイヤ___1
  6
CONTINUOUS
 62
    7
 10
678.49499650000007
 20
13.572504500000036
 40
25.484999999999999
 50
339.34663499999999
 51
353.03832999999997
  0
ARC
  8
_0-0_レイヤ___1
  6
CONTINUOUS
 62
    7
 10
757.00499549999995
 20
2.93250450000005
 40
53.944999000000003
 50
170.555305
 51
171.95233300000001
  0
ARC
  8
_0-0_レイヤ___1
  6
CONTINUOUS
 62
    7
 10
703.59999549999998
 20
11.937504500000045
 40
0.245
 50
320.38506500000005
 51
92.745032000000009
  0
LINE
  8
_0-0_レイヤ___1
  6
CONTINUOUS
 62
    7
 10
704.03999550000003
 20
11.982504500000061
 11
703.78999550000003
 21
17.482504500000061
  0
LINE
  8
_0-0_レイヤ___1
  6
CONTINUOUS
 62
    7
 10
703.78999550000003
 20
17.482504500000061
 11
703.38999549999994
 21
29.332504500000027
  0
LINE
  8
_0-0_レイヤ___1
  6
CONTINUOUS
 62
    7
 10
703.38999549999994
 20
29.332504500000027
 11
702.13999549999994
 21
32.93250450000005
  0
ARC
  8
_0-0_レイヤ___1
  6
CONTINUOUS
 62
    7
 10
694.91999650000002
 20
31.227504500000009
 40
7.1749999999999998
 50
13.743717999999999
 51
34.407273000000004
  0
ARC
  8
_0-0_レイヤ___1
  6
CONTINUOUS
 62
    7
 10
698.70499649999988
 20
34.532504500000016
 40
2.4500000000000002
 50
17.772116
 51
63.755085999999984
  0
ARC
  8
_0-0_レイヤ___1
  6
CONTINUOUS
 62
    7
 10
699.24999550000007
 20
36.297504500000059
 40
0.6949999999999999
 50
38.900604000000001
 51
99.024359000000004
  0
LINE
  8
_0-0_レイヤ___1
  6
CONTINUOUS
 62
    7
 10
699.13999549999994
 20
36.982504500000061
 11
698.9399954999999
 21
36.982504500000061
  0
ARC
  8
_0-0_レイヤ___1
  6
CONTINUOUS
 62
    7
 10
699.23499549999997
 20
36.227504500000009
 40
0.76
 50
97.243948000000003
 51
156.49582000000001
  0
ARC
  8
_0-0_レイヤ___1
  6
CONTINUOUS
 62
    7
 10
699.20999549999988
 20
35.867504500000052
 40
1.135
 50
144.10442800000001
 51
189.41453500000003
  0
LINE
  8
_0-0_レイヤ___1
  6
CONTINUOUS
 62
    7
 10
698.0899965000001
 20
35.68250450000005
 11
698.0899965000001
 21
34.232504500000061
  0
LINE
  8
_0-0_レイヤ___1
  6
CONTINUOUS
 62
    7
 10
698.0899965000001
 20
34.232504500000061
 11
698.0899965000001
 21
33.582504500000027
  0
LINE
  8
_0-0_レイヤ___1
  6
CONTINUOUS
 62
    7
 10
698.0899965000001
 20
33.582504500000027
 11
698.0899965000001
 21
31.032504500000016
  0
ARC
  8
_0-0_レイヤ___1
  6
CONTINUOUS
 62
    7
 10
672.26999649999993
 20
31.087504500000023
 40
25.82
 50
335.62688300000008
 51
359.43219700000003
  0
LINE
  8
_0-0_レイヤ___1
  6
CONTINUOUS
 62
    7
 10
698.0899965000001
 20
30.832504500000027
 11
698.0899965000001
 21
31.032504500000016
  0
ARC
  8
_0-0_レイヤ___1
  6
CONTINUOUS
 62
    7
 10
666.06499650000001
 20
33.227504500000009
 40
32.729999999999997
 50
320.55676399999999
 51
336.990566
  0
ARC
  8
_0-0_レイヤ___1
  6
CONTINUOUS
 62
    7
 10
650.47499650000009
 20
45.507503500000041
 40
52.599998999999997
 50
304.26314899999994
 51
321.321685
  0
ARC
  8
_0-0_レイヤ___1
  6
CONTINUOUS
 62
    7
 10
642.84999650000009
 20
56.077503500000034
 40
65.519998999999999
 50
284.80255299999999
 51
304.42515200000003
  0
LINE
  8
_0-0_レイヤ___1
  6
CONTINUOUS
 62
    7
 10
659.98999649999996
 20
-7.4674954999999841
 11
655.3399965000001
 21
-8.56749549999995
  0
LINE
  8
_0-0_レイヤ___1
  6
CONTINUOUS
 62
    7
 10
655.3399965000001
 20
-13.417495499999973
 11
655.3399965000001
 21
-8.56749549999995
  0
ARC
  8
_0-0_レイヤ___1
  6
CONTINUOUS
 62
    7
 10
643.60499649999997
 20
-51.527494499999989
 40
40.009999000000001
 50
64.163742999999997
 51
73.241533000000004
  0
ARC
  8
_0-0_レイヤ___1
  6
CONTINUOUS
 62
    7
 10
658.11499649999996
 20
-10.72249549999998
 40
2.6150000000000002
 50
66.895514000000006
 51
94.923914000000011
  0
ARC
  8
_0-0_レイヤ___1
  6
CONTINUOUS
 62
    7
 10
657.80499650000002
 20
-11.717495499999984
 40
3.605
 50
88.658383000000001
 51
124.984413
  0
ARC
  8
_0-0_レイヤ___1
  6
CONTINUOUS
 62
    7
 10
656.38499649999994
 20
-14.782495499999982
 40
6.875
 50
36.765625999999997
 51
50.550747000000001
  0
ARC
  8
_0-0_レイヤ___1
  6
CONTINUOUS
 62
    7
 10
651.93999650000001
 20
-20.047495499999968
 40
13.76
 50
50.196916999999999
 51
58.461404999999999
  0
ARC
  8
_0-0_レイヤ___1
  6
CONTINUOUS
 62
    7
 10
657.08499649999999
 20
-15.327495499999941
 40
6.8399999999999999
 50
17.972353999999996
 51
42.958728999999991
  0
LINE
  8
_0-0_レイヤ___1
  6
CONTINUOUS
 62
    7
 10
664.03999649999992
 20
-14.667495499999973
 11
663.38999650000005
 21
-13.217495499999984
  0
LINE
  8
_0-0_レイヤ___1
  6
CONTINUOUS
 62
    7
 10
664.03999649999992
 20
-15.117495499999961
 11
664.23999649999996
 21
-15.117495499999961
  0
ARC
  8
_0-0_レイヤ___1
  6
CONTINUOUS
 62
    7
 10
663.32999649999988
 20
-15.252495499999952
 40
0.92
 50
8.4575460000000007
 51
39.467426000000003
  0
LINE
  8
_0-0_レイヤ___1
  6
CONTINUOUS
 62
    7
 10
664.03999649999992
 20
-15.31749549999995
 11
664.8399965000001
 21
-17.867495499999961
  0
LINE
  8
_0-0_レイヤ___1
  6
CONTINUOUS
 62
    7
 10
664.8399965000001
 20
-19.117495499999961
 11
664.8399965000001
 21
-17.867495499999961
  0
LINE
  8
_0-0_レイヤ___1
  6
CONTINUOUS
 62
    7
 10
665.0899965000001
 20
-19.117495499999961
 11
665.0899965000001
 21
-23.167495499999973
  0
LINE
  8
_0-0_レイヤ___1
  6
CONTINUOUS
 62
    7
 10
665.0899965000001
 20
-23.167495499999973
 11
665.0899965000001
 21
-26.967494499999987
  0
ARC
  8
_0-0_レイヤ___1
  6
CONTINUOUS
 62
    7
 10
660.76999649999993
 20
-25.917494499999975
 40
4.4050000000000002
 50
317.97802200000001
 51
348.89188200000001
  0
ARC
  8
_0-0_レイヤ___1
  6
CONTINUOUS
 62
    7
 10
656.77999649999992
 20
-19.477495499999975
 40
11.869999999999999
 50
287.95027800000003
 51
307.69792899999999
  0
ARC
  8
_0-0_レイヤ___1
  6
CONTINUOUS
 62
    7
 10
655.4499965
 20
-15.392495499999939
 40
16.23
 50
268.91172299999999
 51
288.65889199999998
  0
ARC
  8
_0-0_レイヤ___1
  6
CONTINUOUS
 62
    7
 10
544.30499850000001
 20
-159.08249249999994
 40
3.23
 50
84.051829000000012
 51
111.13743599999999
  0
LINE
  8
_0-0_レイヤ___1
  6
CONTINUOUS
 62
    7
 10
543.13999850000005
 20
-156.2674935
 11
541.88999850000005
 21
-157.56749349999996
  0
ARC
  8
_0-0_レイヤ___1
  6
CONTINUOUS
 62
    7
 10
542.4249984999999
 20
-158.95249249999995
 40
2.7250000000000001
 50
35.651226000000001
 51
58.466426999999996
  0
ARC
  8
_0-0_レイヤ___1
  6
CONTINUOUS
 62
    7
 10
538.01499850000005
 20
-165.00749249999996
 40
10.205
 50
55.138226000000003
 51
61.164489000000003
  0
ARC
  8
_0-0_レイヤ___1
  6
CONTINUOUS
 62
    7
 10
541.91499849999991
 20
-158.47249349999993
 40
2.6150000000000002
 50
66.895514000000006
 51
94.923914000000011
  0
LINE
  8
_0-0_レイヤ___1
  6
CONTINUOUS
 62
    7
 10
541.6899985
 20
-155.86749349999997
 11
541.4399985
 21
-155.86749349999997
  0
ARC
  8
_0-0_レイヤ___1
  6
CONTINUOUS
 62
    7
 10
542.60499849999997
 20
-154.10249349999992
 40
5.5650000000000004
 50
241.99659699999995
 51
271.40628499999997
  0
ARC
  8
_0-0_レイヤ___1
  6
CONTINUOUS
 62
    7
 10
553.3299985000001
 20
-126.40249349999999
 40
34.909998999999999
 50
252.33920599999999
 51
253.45536000000004
  0
ARC
  8
_0-0_レイヤ___1
  6
CONTINUOUS
 62
    7
 10
543.28999849999991
 20
-154.30749349999996
 40
5.5599999999999996
 50
271.030214
 51
286.73816599999998
  0
ARC
  8
_0-0_レイヤ___1
  6
CONTINUOUS
 62
    7
 10
540.66499849999991
 20
-145.78749349999998
 40
14.475
 50
286.98044099999993
 51
293.95100999999994
  0
ARC
  8
_0-0_レイヤ___1
  6
CONTINUOUS
 62
    7
 10
545.5499984999999
 20
-157.33749349999994
 40
2.085
 50
292.27585699999997
 51
318.17350599999997
  0
ARC
  8
_0-0_レイヤ___1
  6
CONTINUOUS
 62
    7
 10
542.46499850000009
 20
-154.69249349999996
 40
6.1500000000000004
 50
318.95773800000001
 51
329.97476699999999
  0
LINE
  8
_0-0_レイヤ___1
  6
CONTINUOUS
 62
    7
 10
547.78999849999991
 20
-157.56749349999996
 11
548.03999849999991
 21
-157.36749349999997
  0
ARC
  8
_0-0_レイヤ___1
  6
CONTINUOUS
 62
    7
 10
545.11999850000007
 20
-157.6474935
 40
2.9300000000000002
 50
5.5218239999999996
 51
32.665156000000003
  0
ARC
  8
_0-0_レイヤ___1
  6
CONTINUOUS
 62
    7
 10
545.71999849999997
 20
-157.22249349999993
 40
2.1000000000000001
 50
27.080318999999999
 51
72.859150999999997
  0
ARC
  8
_0-0_レイヤ___1
  6
CONTINUOUS
 62
    7
 10
543.68499849999989
 20
-160.79249249999998
 40
6.1749999999999998
 50
64.523157999999995
 51
90.860793000000001
  0
LINE
  8
_0-0_レイヤ___1
  6
CONTINUOUS
 62
    7
 10
543.58999850000009
 20
-154.81749349999996
 11
543.38999850000005
 21
-154.81749349999996
  0
ARC
  8
_0-0_レイヤ___1
  6
CONTINUOUS
 62
    7
 10
543.27499850000004
 20
-164.10749249999998
 40
9.2899999999999991
 50
89.299243000000004
 51
110.71669499999999
  0
ARC
  8
_0-0_レイヤ___1
  6
CONTINUOUS
 62
    7
 10
541.60999850000007
 20
-157.93749349999996
 40
3.165
 50
120.818766
 51
157.35243700000004
  0
LINE
  8
_0-0_レイヤ___1
  6
CONTINUOUS
 62
    7
 10
538.6899985
 20
-156.71749349999993
 11
538.6899985
 21
-157.36749349999997
  0
LINE
  8
_0-0_レイヤ___1
  6
CONTINUOUS
 62
    7
 10
538.6899985
 20
-157.36749349999997
 11
538.6899985
 21
-157.96749349999993
  0
ARC
  8
_0-0_レイヤ___1
  6
CONTINUOUS
 62
    7
 10
542.00999849999994
 20
-155.94749349999995
 40
3.8849999999999998
 50
211.31180899999998
 51
238.68822099999997
  0
ARC
  8
_0-0_レイヤ___1
  6
CONTINUOUS
 62
    7
 10
542.66999850000002
 20
-155.53749349999998
 40
3.415
 50
237.58103199999999
 51
257.77955700000001
  0
ARC
  8
_0-0_レイヤ___1
  6
CONTINUOUS
 62
    7
 10
543.3149985
 20
-152.54749349999997
 40
6.4699999999999998
 50
257.81557500000002
 51
270.677074
  0
ARC
  8
_0-0_レイヤ___1
  6
CONTINUOUS
 62
    7
 10
543.28499850000003
 20
-154.67249349999997
 40
4.3449999999999998
 50
271.39592900000002
 51
300.49487900000003
  0
ARC
  8
_0-0_レイヤ___1
  6
CONTINUOUS
 62
    7
 10
544.46499850000009
 20
-156.48749349999997
 40
2.2850000000000001
 50
302.39158200000008
 51
354.20556500000004
  0
LINE
  8
_0-0_レイヤ___1
  6
CONTINUOUS
 62
    7
 10
546.53999849999991
 20
-156.91749349999998
 11
546.73999849999996
 21
-156.91749349999998
  0
ARC
  8
_0-0_レイヤ___1
  6
CONTINUOUS
 62
    7
 10
545.51999849999993
 20
-156.91749349999998
 40
1.22
 50
359.97743700000001
 51
59.512319000000012
  0
ARC
  8
_0-0_レイヤ___1
  6
CONTINUOUS
 62
    7
 10
545.6749984999999
 20
-156.00249349999996
 40
0.4849999999999999
 50
15.967564000000001
 51
63.643570000000004
  0
ARC
  8
_0-0_レイヤ___1
  6
CONTINUOUS
 62
    7
 10
545.43499849999989
 20
-156.17749349999997
 40
0.76
 50
53.171804999999999
 51
85.716088999999997
  0
ARC
  8
_0-0_レイヤ___1
  6
CONTINUOUS
 62
    7
 10
544.12999850000006
 20
-157.78249349999999
 40
2.73
 50
60.054916000000006
 51
82.370515999999995
  0
ARC
  8
_0-0_レイヤ___1
  6
CONTINUOUS
 62
    7
 10
543.52499850000004
 20
-162.62249249999996
 40
7.6050000000000004
 50
82.725999999999999
 51
91.035056999999995
  0
ARC
  8
_0-0_レイヤ___1
  6
CONTINUOUS
 62
    7
 10
542.92999850000001
 20
-160.40749249999999
 40
5.4100000000000001
 50
85.112637000000007
 51
112.717195
  0
ARC
  8
_0-0_レイヤ___1
  6
CONTINUOUS
 62
    7
 10
541.12499849999995
 20
-156.83249349999994
 40
1.4950000000000001
 50
108.844793
 51
142.230535
  0
ARC
  8
_0-0_レイヤ___1
  6
CONTINUOUS
 62
    7
 10
542.52999849999992
 20
-157.71249349999994
 40
3.1549999999999998
 50
145.279641
 51
161.59022300000001
  0
LINE
  8
_0-0_レイヤ___1
  6
CONTINUOUS
 62
    7
 10
539.78999849999991
 20
-156.5174935
 11
539.78999849999991
 21
-156.91749349999998
  0
ARC
  8
_0-0_レイヤ___1
  6
CONTINUOUS
 62
    7
 10
540.55499850000001
 20
-157.03749349999998
 40
0.775
 50
170.997105
 51
223.20835
  0
ARC
  8
_0-0_レイヤ___1
  6
CONTINUOUS
 62
    7
 10
540.7049985000001
 20
-157.49749349999996
 40
0.52
 50
187.876935
 51
237.38758000000001
  0
ARC
  8
_0-0_レイヤ___1
  6
CONTINUOUS
 62
    7
 10
541.79499850000002
 20
-155.98749349999997
 40
2.3799999999999999
 50
234.83544300000003
 51
246.35685899999999
  0
ARC
  8
_0-0_レイヤ___1
  6
CONTINUOUS
 62
    7
 10
552.74999849999995
 20
-89.117494499999964
 40
2.9199999999999999
 50
83.335883999999993
 51
112.370721
  0
LINE
  8
_0-0_レイヤ___1
  6
CONTINUOUS
 62
    7
 10
551.63999850000005
 20
-86.417494499999975
 11
550.33999850000009
 21
-87.717494499999987
  0
LINE
  8
_0-0_レイヤ___1
  6
CONTINUOUS
 62
    7
 10
553.08999850000009
 20
-87.267494499999941
 11
551.38999850000005
 21
-86.217494499999987
  0
ARC
  8
_0-0_レイヤ___1
  6
CONTINUOUS
 62
    7
 10
550.36499849999996
 20
-88.822494499999948
 40
2.6150000000000002
 50
66.895514000000006
 51
94.923914000000011
  0
LINE
  8
_0-0_レイヤ___1
  6
CONTINUOUS
 62
    7
 10
550.13999850000005
 20
-86.217494499999987
 11
549.9399985
 21
-86.217494499999987
  0
ARC
  8
_0-0_レイヤ___1
  6
CONTINUOUS
 62
    7
 10
551.41999850000002
 20
-82.75749449999995
 40
7.1550000000000002
 50
243.589043
 51
257.32318700000002
  0
ARC
  8
_0-0_レイヤ___1
  6
CONTINUOUS
 62
    7
 10
558.66999850000002
 20
-50.627494499999955
 40
40.094999000000001
 50
257.29785199999998
 51
259.250246
  0
ARC
  8
_0-0_レイヤ___1
  6
CONTINUOUS
 62
    7
 10
549.54499850000002
 20
-95.267493499999944
 40
5.5049999999999999
 50
65.334936999999996
 51
72.590026000000009
  0
ARC
  8
_0-0_レイヤ___1
  6
CONTINUOUS
 62
    7
 10
551.71499850000009
 20
-84.932494499999962
 40
5.335
 50
271.36196000000007
 51
287.49010700000008
  0
ARC
  8
_0-0_レイヤ___1
  6
CONTINUOUS
 62
    7
 10
545.27999849999992
 20
-65.177494499999966
 40
26.114999999999998
 50
287.92005
 51
291.82496099999997
  0
ARC
  8
_0-0_レイヤ___1
  6
CONTINUOUS
 62
    7
 10
554.11499849999996
 20
-87.302494499999966
 40
2.29
 50
292.40903900000001
 51
317.28312999999997
  0
ARC
  8
_0-0_レイヤ___1
  6
CONTINUOUS
 62
    7
 10
551.63499849999994
 20
-85.057494499999962
 40
5.6349999999999998
 50
317.66236900000001
 51
329.51952999999997
  0
LINE
  8
_0-0_レイヤ___1
  6
CONTINUOUS
 62
    7
 10
556.28999849999991
 20
-87.717494499999987
 11
556.48999849999996
 21
-87.517494499999941
  0
ARC
  8
_0-0_レイヤ___1
  6
CONTINUOUS
 62
    7
 10
553.4549985000001
 20
-87.737494499999968
 40
3.0449999999999999
 50
4.1906359999999996
 51
30.014818000000002
  0
ARC
  8
_0-0_レイヤ___1
  6
CONTINUOUS
 62
    7
 10
554.03499850000003
 20
-87.63249449999995
 40
2.3849999999999998
 50
30.582826000000004
 51
71.562076000000019
  0
ARC
  8
_0-0_レイヤ___1
  6
CONTINUOUS
 62
    7
 10
552.00499850000006
 20
-91.72749349999998
 40
6.7599999999999998
 50
65.677412000000004
 51
89.706539000000006
  0
LINE
  8
_0-0_レイヤ___1
  6
CONTINUOUS
 62
    7
 10
552.03999849999991
 20
-84.967494499999987
 11
551.83999850000009
 21
-84.967494499999987
  0
LINE
  8
_0-0_レイヤ___1
  6
CONTINUOUS
 62
    7
 10
552.03999849999991
 20
-84.767494499999941
 11
551.83999850000009
 21
-84.767494499999941
  0
ARC
  8
_0-0_レイヤ___1
  6
CONTINUOUS
 62
    7
 10
551.72499850000008
 20
-94.057493499999964
 40
9.2899999999999991
 50
89.299243000000004
 51
110.71669499999999
  0
ARC
  8
_0-0_レイヤ___1
  6
CONTINUOUS
 62
    7
 10
549.85999850000007
 20
-87.822494499999948
 40
2.835
 50
120.059471
 51
160.32935599999999
  0
LINE
  8
_0-0_レイヤ___1
  6
CONTINUOUS
 62
    7
 10
546.98999849999996
 20
-86.867494499999964
 11
546.98999849999996
 21
-87.517494499999941
  0
LINE
  8
_0-0_レイヤ___1
  6
CONTINUOUS
 62
    7
 10
546.98999849999996
 20
-87.517494499999941
 11
546.98999849999996
 21
-88.117494499999964
  0
ARC
  8
_0-0_レイヤ___1
  6
CONTINUOUS
 62
    7
 10
549.99999849999995
 20
-86.66249449999998
 40
3.165
 50
207.3244
 51
240.429025
  0
ARC
  8
_0-0_レイヤ___1
  6
CONTINUOUS
 62
    7
 10
551.28999849999991
 20
-85.202494499999943
 40
3.915
 50
239.262855
 51
258.28186699999998
  0
ARC
  8
_0-0_レイヤ___1
  6
CONTINUOUS
 62
    7
 10
551.78999849999991
 20
-82.762494499999946
 40
6.4050000000000002
 50
258.34444300000001
 51
270.45689900000002
  0
ARC
  8
_0-0_レイヤ___1
  6
CONTINUOUS
 62
    7
 10
551.79499850000002
 20
-85.042494499999975
 40
4.125
 50
270.60123800000002
 51
301.28957100000002
  0
ARC
  8
_0-0_レイヤ___1
  6
CONTINUOUS
 62
    7
 10
552.88999850000005
 20
-86.752494499999955
 40
2.375
 50
301.84758499999992
 51
352.34193699999992
  0
LINE
  8
_0-0_レイヤ___1
  6
CONTINUOUS
 62
    7
 10
554.98999849999996
 20
-87.067494499999952
 11
555.23999849999996
 21
-87.067494499999952
  0
ARC
  8
_0-0_レイヤ___1
  6
CONTINUOUS
 62
    7
 10
553.99499850000007
 20
-87.112494499999968
 40
1.2450000000000001
 50
2.0697000000000001
 51
61.449252999999992
  0
ARC
  8
_0-0_レイヤ___1
  6
CONTINUOUS
 62
    7
 10
554.12499849999995
 20
-86.152494499999989
 40
0.4849999999999999
 50
15.967564000000001
 51
63.643570000000004
  0
ARC
  8
_0-0_レイヤ___1
  6
CONTINUOUS
 62
    7
 10
553.88499849999994
 20
-86.327494499999943
 40
0.76
 50
53.171804999999999
 51
85.716088999999997
  0
ARC
  8
_0-0_レイヤ___1
  6
CONTINUOUS
 62
    7
 10
552.67999850000001
 20
-87.612494499999968
 40
2.4049999999999998
 50
58.330448000000004
 51
82.007517000000021
  0
ARC
  8
_0-0_レイヤ___1
  6
CONTINUOUS
 62
    7
 10
552.00999849999994
 20
-92.692493499999955
 40
7.5250000000000004
 50
82.331614999999999
 51
91.279755999999992
  0
ARC
  8
_0-0_レイヤ___1
  6
CONTINUOUS
 62
    7
 10
551.37999850000006
 20
-90.557494499999962
 40
5.4100000000000001
 50
85.112637000000007
 51
112.717195
  0
ARC
  8
_0-0_レイヤ___1
  6
CONTINUOUS
 62
    7
 10
549.65999850000003
 20
-87.102494499999978
 40
1.635
 50
110.37526
 51
171.769622
  0
LINE
  8
_0-0_レイヤ___1
  6
CONTINUOUS
 62
    7
 10
548.23999849999996
 20
-86.667494499999975
 11
548.23999849999996
 21
-87.067494499999952
  0
ARC
  8
_0-0_レイヤ___1
  6
CONTINUOUS
 62
    7
 10
549.00499850000006
 20
-87.187494499999957
 40
0.775
 50
170.997105
 51
223.20835
  0
ARC
  8
_0-0_レイヤ___1
  6
CONTINUOUS
 62
    7
 10
549.2049985000001
 20
-87.807494499999962
 40
0.5749999999999999
 50
191.11080100000001
 51
236.05166700000001
  0
ARC
  8
_0-0_レイヤ___1
  6
CONTINUOUS
 62
    7
 10
550.26999849999993
 20
-86.727494499999978
 40
2.0800000000000001
 50
228.29725700000003
 51
241.962264
  0
LINE
  8
_0-0_レイヤ___1
  6
CONTINUOUS
 62
    7
 10
662.53999649999992
 20
-18.917495499999973
 11
662.73999649999996
 21
-18.917495499999973
  0
LINE
  8
_0-0_レイヤ___1
  6
CONTINUOUS
 62
    7
 10
662.53999649999992
 20
-18.917495499999973
 11
662.73999649999996
 21
-18.267495499999939
  0
ARC
  8
_0-0_レイヤ___1
  6
CONTINUOUS
 62
    7
 10
659.98999649999996
 20
-18.592495499999984
 40
2.7999999999999998
 50
10.780258999999999
 51
52.622593999999999
  0
ARC
  8
_0-0_レイヤ___1
  6
CONTINUOUS
 62
    7
 10
658.49999649999995
 20
-20.922495499999968
 40
5.7999999999999998
 50
51.761459000000002
 51
75.108424999999997
  0
ARC
  8
_0-0_レイヤ___1
  6
CONTINUOUS
 62
    7
 10
658.08499649999999
 20
-22.31749549999995
 40
7.0099999999999998
 50
75.906191000000007
 51
93.213126000000017
  0
LINE
  8
_0-0_レイヤ___1
  6
CONTINUOUS
 62
    7
 10
657.68999650000001
 20
-15.31749549999995
 11
657.43999650000001
 21
-15.31749549999995
  0
ARC
  8
_0-0_レイヤ___1
  6
CONTINUOUS
 62
    7
 10
657.82999649999988
 20
-29.252494499999955
 40
13.94
 50
91.592843000000002
 51
103.85078699999998
  0
ARC
  8
_0-0_レイヤ___1
  6
CONTINUOUS
 62
    7
 10
655.96999649999998
 20
-19.142495499999939
 40
3.73
 50
113.358357
 51
132.03600599999999
  0
ARC
  8
_0-0_レイヤ___1
  6
CONTINUOUS
 62
    7
 10
664.90499649999992
 20
-29.112494499999968
 40
17.120000000000001
 50
131.90435400000001
 51
135.047991
  0
ARC
  8
_0-0_レイヤ___1
  6
CONTINUOUS
 62
    7
 10
654.59499649999998
 20
-17.907495499999982
 40
2.0099999999999998
 50
153.795997
 51
184.63540900000001
  0
LINE
  8
_0-0_レイヤ___1
  6
CONTINUOUS
 62
    7
 10
652.5899965000001
 20
-18.06749549999995
 11
652.5899965000001
 21
-18.267495499999939
  0
LINE
  8
_0-0_レイヤ___1
  6
CONTINUOUS
 62
    7
 10
652.5899965000001
 20
-18.267495499999939
 11
652.5899965000001
 21
-18.467495499999984
  0
LINE
  8
_0-0_レイヤ___1
  6
CONTINUOUS
 62
    7
 10
652.5899965000001
 20
-18.917495499999973
 11
652.5899965000001
 21
-19.117495499999961
  0
LINE
  8
_0-0_レイヤ___1
  6
CONTINUOUS
 62
    7
 10
652.5899965000001
 20
-19.31749549999995
 11
652.5899965000001
 21
-19.56749549999995
  0
LINE
  8
_0-0_レイヤ___1
  6
CONTINUOUS
 62
    7
 10
652.5899965000001
 20
-19.56749549999995
 11
652.5899965000001
 21
-19.767495499999939
  0
LINE
  8
_0-0_レイヤ___1
  6
CONTINUOUS
 62
    7
 10
652.5899965000001
 20
-25.267494499999941
 11
652.5899965000001
 21
-20.167495499999973
  0
LINE
  8
_0-0_レイヤ___1
  6
CONTINUOUS
 62
    7
 10
652.5899965000001
 20
-25.267494499999941
 11
652.5899965000001
 21
-25.667494499999975
  0
LINE
  8
_0-0_レイヤ___1
  6
CONTINUOUS
 62
    7
 10
652.5899965000001
 20
-25.667494499999975
 11
652.5899965000001
 21
-25.917494499999975
  0
ARC
  8
_0-0_レイヤ___1
  6
CONTINUOUS
 62
    7
 10
656.41499649999992
 20
-25.642494499999941
 40
3.835
 50
184.10649699999999
 51
206.73786200000001
  0
ARC
  8
_0-0_レイヤ___1
  6
CONTINUOUS
 62
    7
 10
656.4499965
 20
-22.59749549999998
 40
6.0099999999999998
 50
232.49174800000003
 51
255.44909300000006
  0
ARC
  8
_0-0_レイヤ___1
  6
CONTINUOUS
 62
    7
 10
657.06499650000001
 20
-22.687495499999955
 40
6.04
 50
251.44652500000001
 51
264.99227200000001
  0
ARC
  8
_0-0_レイヤ___1
  6
CONTINUOUS
 62
    7
 10
651.3099964999999
 20
-61.087494499999991
 40
32.799999999999997
 50
79.229512
 51
80.834391999999994
  0
LINE
  8
_0-0_レイヤ___1
  6
CONTINUOUS
 62
    7
 10
657.43999650000001
 20
-28.867494499999964
 11
657.68999650000001
 21
-28.867494499999964
  0
ARC
  8
_0-0_レイヤ___1
  6
CONTINUOUS
 62
    7
 10
657.52999649999992
 20
-21.327495499999941
 40
7.5449999999999999
 50
271.22647000000001
 51
303.48159500000003
  0
ARC
  8
_0-0_レイヤ___1
  6
CONTINUOUS
 62
    7
 10
660.53999649999992
 20
-25.947494499999948
 40
2.0249999999999999
 50
304.59667899999999
 51
332.11390799999998
  0
ARC
  8
_0-0_レイヤ___1
  6
CONTINUOUS
 62
    7
 10
658.03499650000003
 20
-24.782494499999984
 40
4.7850000000000001
 50
333.79690499999992
 51
349.36145199999993
  0
LINE
  8
_0-0_レイヤ___1
  6
CONTINUOUS
 62
    7
 10
662.53999649999992
 20
-25.267494499999941
 11
662.3399965000001
 21
-25.267494499999941
  0
LINE
  8
_0-0_レイヤ___1
  6
CONTINUOUS
 62
    7
 10
662.73999649999996
 20
-25.467494499999987
 11
662.73999649999996
 21
-19.967495499999984
  0
LINE
  8
_0-0_レイヤ___1
  6
CONTINUOUS
 62
    7
 10
662.53999649999992
 20
-19.56749549999995
 11
662.73999649999996
 21
-19.56749549999995
  0
ARC
  8
_0-0_レイヤ___1
  6
CONTINUOUS
 62
    7
 10
662.51499650000005
 20
-19.542495499999973
 40
0.225
 50
353.27129499999995
 51
84.048312999999965
  0
LINE
  8
_0-0_レイヤ___1
  6
CONTINUOUS
 62
    7
 10
662.53999649999992
 20
-18.917495499999973
 11
662.3399965000001
 21
-18.917495499999973
  0
ARC
  8
_0-0_レイヤ___1
  6
CONTINUOUS
 62
    7
 10
659.98999649999996
 20
-18.592495499999984
 40
2.7999999999999998
 50
10.780258999999999
 51
52.622593999999999
  0
ARC
  8
_0-0_レイヤ___1
  6
CONTINUOUS
 62
    7
 10
658.49999649999995
 20
-20.922495499999968
 40
5.7999999999999998
 50
51.761459000000002
 51
75.108424999999997
  0
ARC
  8
_0-0_レイヤ___1
  6
CONTINUOUS
 62
    7
 10
658.08499649999999
 20
-22.31749549999995
 40
7.0099999999999998
 50
75.906191000000007
 51
93.213126000000017
  0
LINE
  8
_0-0_レイヤ___1
  6
CONTINUOUS
 62
    7
 10
657.68999650000001
 20
-15.31749549999995
 11
657.43999650000001
 21
-15.31749549999995
  0
ARC
  8
_0-0_レイヤ___1
  6
CONTINUOUS
 62
    7
 10
657.82999649999988
 20
-29.252494499999955
 40
13.94
 50
91.592843000000002
 51
103.85078699999998
  0
ARC
  8
_0-0_レイヤ___1
  6
CONTINUOUS
 62
    7
 10
655.96999649999998
 20
-19.142495499999939
 40
3.73
 50
113.358357
 51
132.03600599999999
  0
ARC
  8
_0-0_レイヤ___1
  6
CONTINUOUS
 62
    7
 10
664.90499649999992
 20
-29.112494499999968
 40
17.120000000000001
 50
131.90435400000001
 51
135.047991
  0
ARC
  8
_0-0_レイヤ___1
  6
CONTINUOUS
 62
    7
 10
654.59499649999998
 20
-17.907495499999982
 40
2.0099999999999998
 50
153.795997
 51
184.63540900000001
  0
LINE
  8
_0-0_レイヤ___1
  6
CONTINUOUS
 62
    7
 10
652.5899965000001
 20
-17.867495499999961
 11
652.5899965000001
 21
-18.06749549999995
  0
ARC
  8
_0-0_レイヤ___1
  6
CONTINUOUS
 62
    7
 10
656.86499649999996
 20
-17.73249549999997
 40
4.29
 50
184.50255000000004
 51
205.36032100000003
  0
ARC
  8
_0-0_レイヤ___1
  6
CONTINUOUS
 62
    7
 10
656.39499649999993
 20
-16.187495499999955
 40
4.7999999999999998
 50
224.80707499999997
 51
254.84591099999997
  0
ARC
  8
_0-0_レイヤ___1
  6
CONTINUOUS
 62
    7
 10
665.29999649999991
 20
25.002504500000043
 40
46.929999000000002
 50
257.49904600000002
 51
260.36057099999999
  0
LINE
  8
_0-0_レイヤ___1
  6
CONTINUOUS
 62
    7
 10
657.43999650000001
 20
-21.267495499999939
 11
657.68999650000001
 21
-21.267495499999939
  0
ARC
  8
_0-0_レイヤ___1
  6
CONTINUOUS
 62
    7
 10
657.49499650000007
 20
-14.302495499999964
 40
6.9699999999999998
 50
271.60025899999999
 51
294.99689899999998
  0
ARC
  8
_0-0_レイヤ___1
  6
CONTINUOUS
 62
    7
 10
659.58499649999999
 20
-17.132495499999948
 40
3.395
 50
284.56645700000001
 51
324.19424400000003
  0
ARC
  8
_0-0_レイヤ___1
  6
CONTINUOUS
 62
    7
 10
661.02499650000004
 20
-17.937495499999955
 40
1.9199999999999999
 50
322.13948599999998
 51
356.15160200000003
  0
LINE
  8
_0-0_レイヤ___1
  6
CONTINUOUS
 62
    7
 10
662.93999650000001
 20
-18.06749549999995
 11
662.93999650000001
 21
-17.867495499999961
  0
ARC
  8
_0-0_レイヤ___1
  6
CONTINUOUS
 62
    7
 10
658.6849964999999
 20
-18.822495499999945
 40
2.71
 50
16.186284000000001
 51
56.32138299999999
  0
ARC
  8
_0-0_レイヤ___1
  6
CONTINUOUS
 62
    7
 10
657.84999650000009
 20
-20.707495499999993
 40
4.54
 50
58.951155000000007
 51
89.48732200000002
  0
LINE
  8
_0-0_レイヤ___1
  6
CONTINUOUS
 62
    7
 10
657.88999650000005
 20
-16.167495499999973
 11
657.43999650000001
 21
-16.167495499999973
  0
ARC
  8
_0-0_レイヤ___1
  6
CONTINUOUS
 62
    7
 10
657.83499649999999
 20
-23.957495499999993
 40
7.7999999999999998
 50
92.908940000000001
 51
108.65963300000001
  0
ARC
  8
_0-0_レイヤ___1
  6
CONTINUOUS
 62
    7
 10
655.9499965
 20
-18.112495499999966
 40
1.6599999999999999
 50
111.55577700000001
 51
178.460151
  0
LINE
  8
_0-0_レイヤ___1
  6
CONTINUOUS
 62
    7
 10
654.28999649999992
 20
-17.867495499999961
 11
654.28999649999992
 21
-18.06749549999995
  0
ARC
  8
_0-0_レイヤ___1
  6
CONTINUOUS
 62
    7
 10
655.13499649999994
 20
-18.187495499999955
 40
0.8549999999999999
 50
171.837242
 51
238.565
  0
ARC
  8
_0-0_レイヤ___1
  6
CONTINUOUS
 62
    7
 10
656.6999965
 20
-17.182495499999959
 40
2.79
 50
223.947193
 51
272.91021699999999
  0
ARC
  8
_0-0_レイヤ___1
  6
CONTINUOUS
 62
    7
 10
652.87499649999995
 20
-32.857494499999973
 40
13.484999999999999
 50
70.22146699999999
 51
72.908618999999987
  0
LINE
  8
_0-0_レイヤ___1
  6
CONTINUOUS
 62
    7
 10
657.43999650000001
 20
-20.417495499999973
 11
657.68999650000001
 21
-20.417495499999973
  0
ARC
  8
_0-0_レイヤ___1
  6
CONTINUOUS
 62
    7
 10
657.50499650000006
 20
-16.09749549999998
 40
4.3250000000000002
 50
272.46973600000001
 51
301.92736300000001
  0
ARC
  8
_0-0_レイヤ___1
  6
CONTINUOUS
 62
    7
 10
659.63999650000005
 20
-18.202495499999941
 40
1.165
 50
287.37442099999998
 51
323.64145600000001
  0
ARC
  8
_0-0_レイヤ___1
  6
CONTINUOUS
 62
    7
 10
657.91999650000002
 20
-17.092495499999984
 40
3.2149999999999999
 50
325.87022100000002
 51
346.028142
  0
LINE
  8
_0-0_レイヤ___1
  6
CONTINUOUS
 62
    7
 10
652.5899965000001
 20
-18.917495499999973
 11
652.5899965000001
 21
-19.117495499999961
  0
LINE
  8
_0-0_レイヤ___1
  6
CONTINUOUS
 62
    7
 10
652.5899965000001
 20
-19.31749549999995
 11
652.5899965000001
 21
-19.56749549999995
  0
ARC
  8
_0-0_レイヤ___1
  6
CONTINUOUS
 62
    7
 10
656.41499649999992
 20
-19.292495499999973
 40
3.835
 50
184.10649699999999
 51
206.73786200000001
  0
ARC
  8
_0-0_レイヤ___1
  6
CONTINUOUS
 62
    7
 10
656.4499965
 20
-16.047495499999968
 40
6.0099999999999998
 50
232.49174800000003
 51
255.44909300000006
  0
ARC
  8
_0-0_レイヤ___1
  6
CONTINUOUS
 62
    7
 10
657.06499650000001
 20
-16.337495499999989
 40
6.04
 50
251.44652500000001
 51
264.99227200000001
  0
ARC
  8
_0-0_レイヤ___1
  6
CONTINUOUS
 62
    7
 10
651.3099964999999
 20
-54.737494499999968
 40
32.799999999999997
 50
79.229512
 51
80.834391999999994
  0
LINE
  8
_0-0_レイヤ___1
  6
CONTINUOUS
 62
    7
 10
657.43999650000001
 20
-22.517495499999939
 11
657.68999650000001
 21
-22.517495499999939
  0
ARC
  8
_0-0_レイヤ___1
  6
CONTINUOUS
 62
    7
 10
657.52999649999992
 20
-14.977495499999975
 40
7.5449999999999999
 50
271.22647000000001
 51
303.48159500000003
  0
ARC
  8
_0-0_レイヤ___1
  6
CONTINUOUS
 62
    7
 10
660.74999649999995
 20
-19.492495499999961
 40
1.79
 50
301.590709
 51
330.72814
  0
ARC
  8
_0-0_レイヤ___1
  6
CONTINUOUS
 62
    7
 10
658.41499649999992
 20
-18.342495499999984
 40
4.3949999999999996
 50
332.55660399999999
 51
349.829297
  0
LINE
  8
_0-0_レイヤ___1
  6
CONTINUOUS
 62
    7
 10
662.53999649999992
 20
-18.917495499999973
 11
662.3399965000001
 21
-18.917495499999973
  0
LINE
  8
_0-0_レイヤ___1
  6
CONTINUOUS
 62
    7
 10
698.0899965000001
 20
191.68250150000006
 11
698.0899965000001
 21
255.83250050000004
  0
LINE
  8
_0-0_レイヤ___1
  6
CONTINUOUS
 62
    7
 10
565.18999749999989
 20
191.68250150000006
 11
565.18999749999989
 21
256.68250050000006
  0
LINE
  8
_0-0_レイヤ___1
  6
CONTINUOUS
 62
    7
 10
563.03999849999991
 20
-3.8674954999999613
 11
563.03999849999991
 21
24.68250450000005
  0
LINE
  8
_0-0_レイヤ___1
  6
CONTINUOUS
 62
    7
 10
586.53999750000003
 20
-111.21749349999999
 11
586.53999750000003
 21
-7.7174954999999841
  0
ARC
  8
_0-0_レイヤ___1
  6
CONTINUOUS
 62
    7
 10
644.49999649999995
 20
-109.10249349999998
 40
58.184998999999998
 50
181.64057
 51
205.62741199999999
  0
ARC
  8
_0-0_レイヤ___1
  6
CONTINUOUS
 62
    7
 10
629.76999750000004
 20
-116.18749349999996
 40
41.749999000000003
 50
205.35885000000002
 51
223.01342700000001
  0
ARC
  8
_0-0_レイヤ___1
  6
CONTINUOUS
 62
    7
 10
615.48999750000007
 20
-128.46249349999994
 40
23.234999999999999
 50
224.91869500000001
 51
236.41590400000001
  0
LINE
  8
_0-0_レイヤ___1
  6
CONTINUOUS
 62
    7
 10
602.83999749999998
 20
-147.81749349999996
 11
615.13999749999994
 21
-156.2674935
  0
ARC
  8
_0-0_レイヤ___1
  6
CONTINUOUS
 62
    7
 10
644.38999650000005
 20
-112.03249349999999
 40
52.839998999999999
 50
236.05823899999996
 51
246.57927999999998
  0
ARC
  8
_0-0_レイヤ___1
  6
CONTINUOUS
 62
    7
 10
635.9649965000001
 20
-135.37249349999996
 40
28.295000000000002
 50
243.60651999999999
 51
256.34933799999999
  0
ARC
  8
_0-0_レイヤ___1
  6
CONTINUOUS
 62
    7
 10
631.19999749999988
 20
-156.56749349999996
 40
6.5149999999999997
 50
255.240149
 51
273.87920800000001
  0
ARC
  8
_0-0_レイヤ___1
  6
CONTINUOUS
 62
    7
 10
634.45999649999999
 20
-159.96749249999993
 40
4.3250000000000002
 50
225.72405499999999
 51
245.84456799999998
  0
LINE
  8
_0-0_レイヤ___1
  6
CONTINUOUS
 62
    7
 10
632.88999650000005
 20
-164.31749249999996
 11
638.8399965000001
 21
-170.06749249999996
  0
LINE
  8
_0-0_レイヤ___1
  6
CONTINUOUS
 62
    7
 10
638.8399965000001
 20
-170.06749249999996
 11
647.73999649999996
 21
-178.71749249999993
  0
LINE
  8
_0-0_レイヤ___1
  6
CONTINUOUS
 62
    7
 10
647.73999649999996
 20
-178.71749249999993
 11
656.5899965000001
 21
-187.41749249999998
  0
LINE
  8
_0-0_レイヤ___1
  6
CONTINUOUS
 62
    7
 10
656.5899965000001
 20
-187.41749249999998
 11
665.48999649999996
 21
-195.86749249999997
  0
LINE
  8
_0-0_レイヤ___1
  6
CONTINUOUS
 62
    7
 10
665.48999649999996
 20
-195.86749249999997
 11
666.78999649999992
 21
-197.11749249999997
  0
ARC
  8
_0-0_レイヤ___1
  6
CONTINUOUS
 62
    7
 10
632.75999649999994
 20
-55.03749449999998
 40
108.879998
 50
251.70829600000002
 51
266.51295900000002
  0
ARC
  8
_0-0_レイヤ___1
  6
CONTINUOUS
 62
    7
 10
619.03499749999992
 20
-93.737493499999971
 40
67.834998999999996
 50
234.65405999999999
 51
252.459935
  0
ARC
  8
_0-0_レイヤ___1
  6
CONTINUOUS
 62
    7
 10
608.13499750000005
 20
-107.94249349999996
 40
50.294998999999997
 50
219.25415299999997
 51
235.35009299999996
  0
ARC
  8
_0-0_レイヤ___1
  6
CONTINUOUS
 62
    7
 10
592.4449975
 20
-120.98249349999998
 40
29.739999999999998
 50
194.77457100000004
 51
219.17115000000001
  0
LINE
  8
_0-0_レイヤ___1
  6
CONTINUOUS
 62
    7
 10
563.03999849999991
 20
-122.01749349999994
 11
563.03999849999991
 21
-122.21749349999999
  0
ARC
  8
_0-0_レイヤ___1
  6
CONTINUOUS
 62
    7
 10
593.19999749999988
 20
-122.13749349999995
 40
30.16
 50
180.14904799999999
 51
191.917496
  0
ARC
  8
_0-0_レイヤ___1
  6
CONTINUOUS
 62
    7
 10
583.2099975000001
 20
-121.48749349999997
 40
20.175000000000001
 50
163.24012200000001
 51
181.51149500000002
  0
ARC
  8
_0-0_レイヤ___1
  6
CONTINUOUS
 62
    7
 10
384.49000050000001
 20
-141.28249349999999
 40
319.449995
 50
3.3498899999999994
 51
3.91601
  0
ARC
  8
_0-0_レイヤ___1
  6
CONTINUOUS
 62
    7
 10
678.84499649999998
 20
-123.04749349999997
 40
24.545000000000002
 50
327.68814799999996
 51
0.4210639999999635
  0
LINE
  8
_0-0_レイヤ___1
  6
CONTINUOUS
 62
    7
 10
703.38999549999994
 20
-122.86749349999997
 11
703.38999549999994
 21
-122.61749349999997
  0
ARC
  8
_0-0_レイヤ___1
  6
CONTINUOUS
 62
    7
 10
672.37999650000006
 20
-120.82749349999995
 40
31.309999999999999
 50
312.76050600000002
 51
331.08640100000002
  0
ARC
  8
_0-0_レイヤ___1
  6
CONTINUOUS
 62
    7
 10
649.88999650000005
 20
-96.412493499999982
 40
64.639999000000003
 50
303.09821699999998
 51
312.83496200000002
  0
ARC
  8
_0-0_レイヤ___1
  6
CONTINUOUS
 62
    7
 10
648.60999650000008
 20
-94.597493499999985
 40
66.859999000000002
 50
288.60238500000003
 51
303.16720900000007
  0
ARC
  8
_0-0_レイヤ___1
  6
CONTINUOUS
 62
    7
 10
636.36499649999996
 20
-68.572494499999948
 40
95.564999
 50
271.09411899999998
 51
290.69690600000001
  0
ARC
  8
_0-0_レイヤ___1
  6
CONTINUOUS
 62
    7
 10
633.46999649999998
 20
-48.267494499999941
 40
118.599998
 50
253.55370699999997
 51
269.62403199999994
  0
ARC
  8
_0-0_レイヤ___1
  6
CONTINUOUS
 62
    7
 10
624.3049974999999
 20
-79.562494499999957
 40
86.239998999999997
 50
241.03543099999999
 51
253.41682200000002
  0
ARC
  8
_0-0_レイヤ___1
  6
CONTINUOUS
 62
    7
 10
610.51499749999994
 20
-104.82249349999995
 40
57.464998999999999
 50
228.43338099999997
 51
240.86594700000001
  0
ARC
  8
_0-0_レイヤ___1
  6
CONTINUOUS
 62
    7
 10
603.32999749999999
 20
-113.34749349999998
 40
46.334999000000003
 50
211.66027399999999
 51
228.43921199999997
  0
ARC
  8
_0-0_レイヤ___1
  6
CONTINUOUS
 62
    7
 10
588.74499749999995
 20
-123.61249349999997
 40
28.454999999999998
 50
180.108902
 51
209.13288299999999
  0
ARC
  8
_0-0_レイヤ___1
  6
CONTINUOUS
 62
    7
 10
587.07999749999999
 20
-123.53249349999999
 40
26.995000000000001
 50
149.219291
 51
180.81744699999999
  0
LINE
  8
_0-0_レイヤ___1
  6
CONTINUOUS
 62
    7
 10
636.28999649999992
 20
-169.81749249999996
 11
632.88999650000005
 21
-169.81749249999996
  0
ARC
  8
_0-0_レイヤ___1
  6
CONTINUOUS
 62
    7
 10
634.29999649999991
 20
-37.387494499999946
 40
132.689998
 50
253.73654400000004
 51
269.30441500000001
  0
ARC
  8
_0-0_レイヤ___1
  6
CONTINUOUS
 62
    7
 10
629.55999750000001
 20
-61.962494499999991
 40
107.79499800000001
 50
246.97107199999999
 51
252.49755699999997
  0
LINE
  8
_0-0_レイヤ___1
  6
CONTINUOUS
 62
    7
 10
587.38999749999994
 20
-161.16749249999998
 11
545.48999849999996
 21
-195.0174925
  0
ARC
  8
_0-0_レイヤ___1
  6
CONTINUOUS
 62
    7
 10
550.00499850000006
 20
-201.35249249999993
 40
8.0600000000000005
 50
125.814792
 51
151.46742399999999
  0
ARC
  8
_0-0_レイヤ___1
  6
CONTINUOUS
 62
    7
 10
553.60999850000007
 20
-203.6474925
 40
12.324999999999999
 50
150.107238
 51
159.19441
  0
LINE
  8
_0-0_レイヤ___1
  6
CONTINUOUS
 62
    7
 10
542.28999849999991
 20
-199.46749249999993
 11
541.88999850000005
 21
-200.31749249999996
  0
ARC
  8
_0-0_レイヤ___1
  6
CONTINUOUS
 62
    7
 10
564.25499850000006
 20
-223.33249249999994
 40
32.090000000000003
 50
134.17937000000003
 51
135.82060000000004
  0
LINE
  8
_0-0_レイヤ___1
  6
CONTINUOUS
 62
    7
 10
541.4399985
 20
-200.96749249999993
 11
539.13999850000005
 21
-203.06749249999996
  0
LINE
  8
_0-0_レイヤ___1
  6
CONTINUOUS
 62
    7
 10
539.13999850000005
 20
-203.06749249999996
 11
533.83999850000009
 21
-207.31749249999996
  0
LINE
  8
_0-0_レイヤ___1
  6
CONTINUOUS
 62
    7
 10
533.83999850000009
 20
-207.31749249999996
 11
522.83999850000009
 21
-215.7674925
  0
LINE
  8
_0-0_レイヤ___1
  6
CONTINUOUS
 62
    7
 10
522.83999850000009
 20
-215.7674925
 11
514.13999850000005
 21
-222.11749250000003
  0
LINE
  8
_0-0_レイヤ___1
  6
CONTINUOUS
 62
    7
 10
514.13999850000005
 20
-222.11749250000003
 11
505.48999850000001
 21
-228.66749149999998
  0
LINE
  8
_0-0_レイヤ___1
  6
CONTINUOUS
 62
    7
 10
505.48999850000001
 20
-228.66749149999998
 11
497.63999849999999
 21
-234.61749149999991
  0
ARC
  8
_0-0_レイヤ___1
  6
CONTINUOUS
 62
    7
 10
651.27999649999992
 20
-64.522494499999993
 40
133.49999800000001
 50
287.46328499999998
 51
298.43274100000002
  0
ARC
  8
_0-0_レイヤ___1
  6
CONTINUOUS
 62
    7
 10
638.5599964999999
 20
-36.217494499999987
 40
164.11999800000001
 50
279.74460599999998
 51
288.75889400000005
  0
LINE
  8
_0-0_レイヤ___1
  6
CONTINUOUS
 62
    7
 10
716.9399954999999
 20
-180.61749249999997
 11
721.1899954999999
 21
-178.31749249999996
  0
ARC
  8
_0-0_レイヤ___1
  6
CONTINUOUS
 62
    7
 10
720.60999549999997
 20
-177.35249249999993
 40
0.785
 50
294.68537199999997
 51
351.57484099999999
  0
ARC
  8
_0-0_レイヤ___1
  6
CONTINUOUS
 62
    7
 10
705.27499549999993
 20
-182.07249249999995
 40
16.760000000000002
 50
15.940261
 51
18.265193
  0
ARC
  8
_0-0_レイヤ___1
  6
CONTINUOUS
 62
    7
 10
720.51499549999994
 20
-177.3924925
 40
0.88
 50
8.0674589999999995
 51
61.322839999999999
  0
ARC
  8
_0-0_レイヤ___1
  6
CONTINUOUS
 62
    7
 10
742.03999550000003
 20
-152.93249349999996
 40
4.2300000000000004
 50
307.943984
 51
345.83333900000002
  0
LINE
  8
_0-0_レイヤ___1
  6
CONTINUOUS
 62
    7
 10
742.98999550000008
 20
-156.91749349999998
 11
743.1899954999999
 21
-156.91749349999998
  0
ARC
  8
_0-0_レイヤ___1
  6
CONTINUOUS
 62
    7
 10
743.10499550000009
 20
-154.78249349999999
 40
2.1349999999999998
 50
272.31303700000001
 51
315.97806100000003
  0
ARC
  8
_0-0_レイヤ___1
  6
CONTINUOUS
 62
    7
 10
708.4549955
 20
-129.38749349999995
 40
44.859999000000002
 50
14.745081000000001
 51
30.686847
  0
ARC
  8
_0-0_レイヤ___1
  6
CONTINUOUS
 62
    7
 10
695.78999649999992
 20
-136.24249349999997
 40
59.254998999999998
 50
30.136820000000004
 51
37.197672000000004
  0
ARC
  8
_0-0_レイヤ___1
  6
CONTINUOUS
 62
    7
 10
694.42999650000002
 20
-132.13249349999995
 40
59.419998999999997
 50
2.616743
 51
13.987578000000001
  0
ARC
  8
_0-0_レイヤ___1
  6
CONTINUOUS
 62
    7
 10
708.66999549999991
 20
-129.12249349999996
 40
44.869999
 50
328.649091
 51
359.62433900000002
  0
LINE
  8
_0-0_レイヤ___1
  6
CONTINUOUS
 62
    7
 10
753.53999550000003
 20
-129.41749349999998
 11
753.53999550000003
 21
-129.21749349999999
  0
LINE
  8
_0-0_レイヤ___1
  6
CONTINUOUS
 62
    7
 10
701.88999549999994
 20
-70.967494499999987
 11
712.48999550000008
 21
-75.867494499999964
  0
ARC
  8
_0-0_レイヤ___1
  6
CONTINUOUS
 62
    7
 10
655.21999649999998
 20
-108.85749349999998
 40
69.314999
 50
184.72595999999999
 51
202.08444700000004
  0
ARC
  8
_0-0_レイヤ___1
  6
CONTINUOUS
 62
    7
 10
627.15999749999992
 20
-119.84749349999998
 40
39.109999000000002
 50
202.349166
 51
222.202155
  0
ARC
  8
_0-0_レイヤ___1
  6
CONTINUOUS
 62
    7
 10
616.63999749999994
 20
-129.59749349999998
 40
25.050000000000001
 50
221.874706
 51
236.01569499999999
  0
LINE
  8
_0-0_レイヤ___1
  6
CONTINUOUS
 62
    7
 10
602.83999749999998
 20
-150.56749349999996
 11
614.88999749999994
 21
-158.81749249999996
  0
ARC
  8
_0-0_レイヤ___1
  6
CONTINUOUS
 62
    7
 10
657.54499650000002
 20
-88.907494499999984
 40
81.829999000000001
 50
238.42064300000004
 51
245.33191200000005
  0
ARC
  8
_0-0_レイヤ___1
  6
CONTINUOUS
 62
    7
 10
634.89999650000004
 20
-140.2674935
 40
25.719999999999999
 50
243.41451499999999
 51
257.40094499999998
  0
ARC
  8
_0-0_レイヤ___1
  6
CONTINUOUS
 62
    7
 10
631.00499749999994
 20
-160.00749249999996
 40
5.6299999999999999
 50
252.28044
 51
274.45455199999998
  0
ARC
  8
_0-0_レイヤ___1
  6
CONTINUOUS
 62
    7
 10
630.9449975
 20
-167.47249249999993
 40
1.74
 50
27.575685
 51
54.788080000000008
  0
ARC
  8
_0-0_レイヤ___1
  6
CONTINUOUS
 62
    7
 10
612.41499750000003
 20
-188.55249249999997
 40
29.800000000000001
 50
49.031371
 51
50.318727000000003
  0
LINE
  8
_0-0_レイヤ___1
  6
CONTINUOUS
 62
    7
 10
632.88999650000005
 20
-166.86749249999997
 11
638.8399965000001
 21
-172.81749249999996
  0
LINE
  8
_0-0_レイヤ___1
  6
CONTINUOUS
 62
    7
 10
638.8399965000001
 20
-172.81749249999996
 11
647.73999649999996
 21
-181.2674925
  0
LINE
  8
_0-0_レイヤ___1
  6
CONTINUOUS
 62
    7
 10
647.73999649999996
 20
-181.2674925
 11
656.38999650000005
 21
-189.91749249999998
  0
LINE
  8
_0-0_レイヤ___1
  6
CONTINUOUS
 62
    7
 10
656.38999650000005
 20
-189.91749249999998
 11
665.28999649999992
 21
-198.41749249999998
  0
LINE
  8
_0-0_レイヤ___1
  6
CONTINUOUS
 62
    7
 10
665.28999649999992
 20
-198.41749249999998
 11
666.53999649999992
 21
-199.66749249999998
  0
ARC
  8
_0-0_レイヤ___1
  6
CONTINUOUS
 62
    7
 10
655.18999650000001
 20
-75.947494499999948
 40
122.739998
 50
287.324816
 51
299.50567100000001
  0
ARC
  8
_0-0_レイヤ___1
  6
CONTINUOUS
 62
    7
 10
647.51499650000005
 20
-68.802494499999966
 40
132.01499799999999
 50
278.19757600000003
 51
289.66418399999998
  0
ARC
  8
_0-0_レイヤ___1
  6
CONTINUOUS
 62
    7
 10
707.49499549999996
 20
-130.26749349999994
 40
46.049999
 50
331.17989800000004
 51
359.25465300000008
  0
LINE
  8
_0-0_レイヤ___1
  6
CONTINUOUS
 62
    7
 10
753.53999550000003
 20
-130.86749349999997
 11
753.53999550000003
 21
-130.66749349999998
  0
ARC
  8
_0-0_レイヤ___1
  6
CONTINUOUS
 62
    7
 10
616.5699975
 20
51.657503500000018
 40
65.484999000000002
 50
229.27022400000001
 51
243.735173
  0
ARC
  8
_0-0_レイヤ___1
  6
CONTINUOUS
 62
    7
 10
595.03499749999992
 20
26.722504500000014
 40
32.259999999999998
 50
206.79246699999996
 51
229.39475099999999
  0
ARC
  8
_0-0_レイヤ___1
  6
CONTINUOUS
 62
    7
 10
589.93999749999989
 20
24.337504500000023
 40
26.699999999999999
 50
179.68693200000001
 51
206.47586900000002
  0
ARC
  8
_0-0_レイヤ___1
  6
CONTINUOUS
 62
    7
 10
590.53999750000003
 20
24.14250450000003
 40
27.050000000000001
 50
159.57739000000001
 51
179.70446699999999
  0
ARC
  8
_0-0_レイヤ___1
  6
CONTINUOUS
 62
    7
 10
676.92499649999991
 20
12.872504500000048
 40
25.215
 50
327.91892000000001
 51
359.90707099999997
  0
LINE
  8
_0-0_レイヤ___1
  6
CONTINUOUS
 62
    7
 10
702.13999549999994
 20
12.832504500000027
 11
702.13999549999994
 21
13.032504500000016
  0
ARC
  8
_0-0_レイヤ___1
  6
CONTINUOUS
 62
    7
 10
665.28499650000003
 20
18.762504500000034
 40
38.314999
 50
315.024765
 51
330.21738599999998
  0
ARC
  8
_0-0_レイヤ___1
  6
CONTINUOUS
 62
    7
 10
658.38499649999994
 20
25.30750450000005
 40
47.824998999999998
 50
301.38306799999998
 51
315.31965300000002
  0
ARC
  8
_0-0_レイヤ___1
  6
CONTINUOUS
 62
    7
 10
642.25499650000006
 20
49.417503500000009
 40
76.814999
 50
289.09871600000002
 51
302.28869800000001
  0
ARC
  8
_0-0_レイヤ___1
  6
CONTINUOUS
 62
    7
 10
632.98999649999996
 20
78.312503500000048
 40
107.084998
 50
272.56839100000002
 51
288.62386700000002
  0
LINE
  8
_0-0_レイヤ___1
  6
CONTINUOUS
 62
    7
 10
637.98999649999996
 20
-28.867494499999964
 11
631.63999650000005
 21
-29.067494499999952
  0
ARC
  8
_0-0_レイヤ___1
  6
CONTINUOUS
 62
    7
 10
632.83499649999999
 20
93.417503500000009
 40
122.494998
 50
256.45316700000001
 51
269.34848599999998
  0
LINE
  8
_0-0_レイヤ___1
  6
CONTINUOUS
 62
    7
 10
604.13999749999994
 20
-25.667494499999975
 11
604.13999749999994
 21
-15.117495499999961
  0
ARC
  8
_0-0_レイヤ___1
  6
CONTINUOUS
 62
    7
 10
631.37499750000006
 20
86.227503500000012
 40
112.55999799999999
 50
259.41079000000002
 51
263.75986799999998
  0
LINE
  8
_0-0_レイヤ___1
  6
CONTINUOUS
 62
    7
 10
610.68999749999989
 20
-24.417495499999973
 11
610.88999749999994
 21
-18.467495499999984
  0
LINE
  8
_0-0_レイヤ___1
  6
CONTINUOUS
 62
    7
 10
610.88999749999994
 20
-18.467495499999984
 11
619.13999749999994
 21
-19.767495499999939
  0
LINE
  8
_0-0_レイヤ___1
  6
CONTINUOUS
 62
    7
 10
619.13999749999994
 20
-19.767495499999939
 11
619.33999749999998
 21
-25.917494499999975
  0
LINE
  8
_0-0_レイヤ___1
  6
CONTINUOUS
 62
    7
 10
637.98999649999996
 20
-26.117494499999964
 11
631.63999650000005
 21
-26.317494499999952
  0
LINE
  8
_0-0_レイヤ___1
  6
CONTINUOUS
 62
    7
 10
628.43999749999989
 20
-26.317494499999952
 11
631.63999650000005
 21
-26.317494499999952
  0
LINE
  8
_0-0_レイヤ___1
  6
CONTINUOUS
 62
    7
 10
628.43999749999989
 20
-26.317494499999952
 11
628.68999749999989
 21
-20.417495499999973
  0
LINE
  8
_0-0_レイヤ___1
  6
CONTINUOUS
 62
    7
 10
628.68999749999989
 20
-20.417495499999973
 11
631.63999650000005
 21
-20.417495499999973
  0
LINE
  8
_0-0_レイヤ___1
  6
CONTINUOUS
 62
    7
 10
638.18999650000001
 20
-20.167495499999973
 11
637.98999649999996
 21
-26.117494499999964
  0
LINE
  8
_0-0_レイヤ___1
  6
CONTINUOUS
 62
    7
 10
655.73999649999996
 20
-24.017495499999939
 11
647.93999650000001
 21
-25.267494499999941
  0
LINE
  8
_0-0_レイヤ___1
  6
CONTINUOUS
 62
    7
 10
647.93999650000001
 20
-25.267494499999941
 11
647.48999649999996
 21
-19.117495499999961
  0
LINE
  8
_0-0_レイヤ___1
  6
CONTINUOUS
 62
    7
 10
647.48999649999996
 20
-19.117495499999961
 11
652.13999650000005
 21
-18.467495499999984
  0
LINE
  8
_0-0_レイヤ___1
  6
CONTINUOUS
 62
    7
 10
652.13999650000005
 20
-18.467495499999984
 11
655.73999649999996
 21
-17.867495499999961
  0
LINE
  8
_0-0_レイヤ___1
  6
CONTINUOUS
 62
    7
 10
655.73999649999996
 20
-24.017495499999939
 11
655.73999649999996
 21
-17.867495499999961
  0
ARC
  8
_0-0_レイヤ___1
  6
CONTINUOUS
 62
    7
 10
656.16999650000002
 20
12.622504500000048
 40
35.079999000000001
 50
283.63334800000001
 51
289.94030199999997
  0
ARC
  8
_0-0_レイヤ___1
  6
CONTINUOUS
 62
    7
 10
634.81999649999989
 20
70.387503500000037
 40
96.664998999999995
 50
290.16011200000003
 51
292.80716399999994
  0
LINE
  8
_0-0_レイヤ___1
  6
CONTINUOUS
 62
    7
 10
664.63999650000005
 20
-21.467495499999984
 11
664.63999650000005
 21
-15.31749549999995
  0
ARC
  8
_0-0_レイヤ___1
  6
CONTINUOUS
 62
    7
 10
650.47999649999997
 20
35.037504500000011
 40
52.449998999999998
 50
285.43768499999999
 51
294.81402300000002
  0
LINE
  8
_0-0_レイヤ___1
  6
CONTINUOUS
 62
    7
 10
672.48999649999996
 20
-12.56749549999995
 11
672.28999649999992
 21
-18.717495499999984
  0
ARC
  8
_0-0_レイヤ___1
  6
CONTINUOUS
 62
    7
 10
664.85999650000008
 20
20.702504500000032
 40
33.149999999999999
 50
295.70842699999997
 51
308.70698199999998
  0
LINE
  8
_0-0_レイヤ___1
  6
CONTINUOUS
 62
    7
 10
679.23999649999996
 20
-9.3674954999999613
 11
679.48999649999996
 21
-15.31749549999995
  0
ARC
  8
_0-0_レイヤ___1
  6
CONTINUOUS
 62
    7
 10
641.79999649999991
 20
53.757503500000041
 40
78.689999
 50
298.61664400000001
 51
304.20711
  0
LINE
  8
_0-0_レイヤ___1
  6
CONTINUOUS
 62
    7
 10
685.8399965000001
 20
-11.31749549999995
 11
685.5899965000001
 21
-5.3674954999999613
  0
ARC
  8
_0-0_レイヤ___1
  6
CONTINUOUS
 62
    7
 10
593.00499749999994
 20
95.967503500000021
 40
137.909998
 50
315.60278299999999
 51
318.71938499999999
  0
LINE
  8
_0-0_レイヤ___1
  6
CONTINUOUS
 62
    7
 10
691.53999649999992
 20
-6.6174954999999613
 11
691.53999649999992
 21
-0.717495499999984
  0
ARC
  8
_0-0_レイヤ___1
  6
CONTINUOUS
 62
    7
 10
656.39999650000004
 20
29.257504500000039
 40
50.219999000000001
 50
314.40663799999999
 51
322.78050300000001
  0
LINE
  8
_0-0_レイヤ___1
  6
CONTINUOUS
 62
    7
 10
696.38999650000005
 20
-1.1174954999999613
 11
696.38999650000005
 21
4.7825045000000159
  0
ARC
  8
_0-0_レイヤ___1
  6
CONTINUOUS
 62
    7
 10
672.96999649999998
 20
22.507504500000039
 40
29.199999999999999
 50
334.81439999999998
 51
357.59509700000001
  0
LINE
  8
_0-0_レイヤ___1
  6
CONTINUOUS
 62
    7
 10
702.13999549999994
 20
21.282504500000016
 11
702.13999549999994
 21
21.532504500000016
  0
ARC
  8
_0-0_レイヤ___1
  6
CONTINUOUS
 62
    7
 10
675.00999649999994
 20
24.052504500000055
 40
26.879999999999999
 50
359.95563800000002
 51
30.835457000000005
  0
ARC
  8
_0-0_レイヤ___1
  6
CONTINUOUS
 62
    7
 10
677.34499649999998
 20
24.002504500000043
 40
24.795000000000002
 50
327.64287400000006
 51
0.0684520000000196
  0
LINE
  8
_0-0_レイヤ___1
  6
CONTINUOUS
 62
    7
 10
702.13999549999994
 20
24.032504500000016
 11
702.13999549999994
 21
24.282504500000016
  0
ARC
  8
_0-0_レイヤ___1
  6
CONTINUOUS
 62
    7
 10
664.06499650000001
 20
31.407504500000016
 40
40.199998999999998
 50
314.79870099999999
 51
329.048205
  0
ARC
  8
_0-0_レイヤ___1
  6
CONTINUOUS
 62
    7
 10
658.38499649999994
 20
36.507504500000039
 40
47.824998999999998
 50
301.38306799999998
 51
315.31965300000002
  0
ARC
  8
_0-0_レイヤ___1
  6
CONTINUOUS
 62
    7
 10
642.38499649999994
 20
60.827503500000034
 40
76.919999000000004
 50
288.96945899999997
 51
302.12498099999999
  0
ARC
  8
_0-0_レイヤ___1
  6
CONTINUOUS
 62
    7
 10
633.65999650000003
 20
85.987503500000059
 40
103.489998
 50
272.28729700000002
 51
288.90496200000001
  0
LINE
  8
_0-0_レイヤ___1
  6
CONTINUOUS
 62
    7
 10
637.98999649999996
 20
-17.667495499999973
 11
631.63999650000005
 21
-17.667495499999973
  0
ARC
  8
_0-0_レイヤ___1
  6
CONTINUOUS
 62
    7
 10
633.63499649999994
 20
110.39250250000003
 40
128.07999799999999
 50
253.74667600000004
 51
269.01700600000004
  0
ARC
  8
_0-0_レイヤ___1
  6
CONTINUOUS
 62
    7
 10
617.7099975000001
 20
55.99750350000005
 40
71.469999000000001
 50
244.14301499999996
 51
253.60757100000001
  0
LINE
  8
_0-0_レイヤ___1
  6
CONTINUOUS
 62
    7
 10
586.73999750000007
 20
-8.31749549999995
 11
587.83999749999998
 21
-7.4674954999999841
  0
ARC
  8
_0-0_レイヤ___1
  6
CONTINUOUS
 62
    7
 10
623.13999749999994
 20
65.767503500000032
 40
81.224998999999997
 50
244.04670200000004
 51
258.46113300000002
  0
ARC
  8
_0-0_レイヤ___1
  6
CONTINUOUS
 62
    7
 10
632.90499649999992
 20
107.09250350000002
 40
123.91999800000001
 50
257.88066199999997
 51
269.206119
  0
ARC
  8
_0-0_レイヤ___1
  6
CONTINUOUS
 62
    7
 10
631.78999649999992
 20
-16.98249549999997
 40
0.625
 50
164.696968
 51
25.345396999999991
  0
ARC
  8
_0-0_レイヤ___1
  6
CONTINUOUS
 62
    7
 10
629.76499749999994
 20
-29.802494499999966
 40
13.34
 50
78.820828000000006
 51
82.794499999999999
  0
LINE
  8
_0-0_レイヤ___1
  6
CONTINUOUS
 62
    7
 10
631.63999650000005
 20
-16.81749549999995
 11
631.8399965000001
 21
-16.81749549999995
  0
ARC
  8
_0-0_レイヤ___1
  6
CONTINUOUS
 62
    7
 10
631.66499649999992
 20
92.212503500000025
 40
109.02999800000001
 50
270.09229499999998
 51
289.016302
  0
ARC
  8
_0-0_レイヤ___1
  6
CONTINUOUS
 62
    7
 10
633.95999649999999
 20
74.917503500000009
 40
91.994999000000007
 50
291.176288
 51
301.80344600000001
  0
ARC
  8
_0-0_レイヤ___1
  6
CONTINUOUS
 62
    7
 10
647.04499650000002
 20
49.58250350000003
 40
63.609999000000002
 50
303.80970100000002
 51
314.13525000000004
  0
ARC
  8
_0-0_レイヤ___1
  6
CONTINUOUS
 62
    7
 10
666.9499965
 20
28.087504500000023
 40
34.324998999999998
 50
315.27724799999999
 51
335.92160699999999
  0
ARC
  8
_0-0_レイヤ___1
  6
CONTINUOUS
 62
    7
 10
672.0599964999999
 20
24.247504500000048
 40
28.015000000000001
 50
338.28261900000001
 51
352.17448100000001
  0
ARC
  8
_0-0_レイヤ___1
  6
CONTINUOUS
 62
    7
 10
659.83499649999999
 20
26.39250450000003
 40
40.424999
 50
351.52786300000002
 51
356.65616599999998
  0
ARC
  8
_0-0_レイヤ___1
  6
CONTINUOUS
 62
    7
 10
671.06499650000001
 20
22.632504500000039
 40
29.155000000000001
 50
2.748707
 51
22.054682
  0
ARC
  8
_0-0_レイヤ___1
  6
CONTINUOUS
 62
    7
 10
673.78999649999992
 20
24.312504500000045
 40
24.305
 50
328.40849300000002
 51
359.33635900000002
  0
LINE
  8
_0-0_レイヤ___1
  6
CONTINUOUS
 62
    7
 10
698.0899965000001
 20
24.032504500000016
 11
698.0899965000001
 21
24.282504500000016
  0
ARC
  8
_0-0_レイヤ___1
  6
CONTINUOUS
 62
    7
 10
667.87499649999995
 20
26.452504500000032
 40
30.879999999999999
 50
312.63099199999999
 51
331.215915
  0
ARC
  8
_0-0_レイヤ___1
  6
CONTINUOUS
 62
    7
 10
657.25999649999994
 20
34.65250450000002
 40
44.159998999999999
 50
300.82920999999999
 51
315.19382200000001
  0
ARC
  8
_0-0_レイヤ___1
  6
CONTINUOUS
 62
    7
 10
643.4499965
 20
56.257503500000041
 40
69.579999000000001
 50
287.73057499999999
 51
301.58123699999999
  0
ARC
  8
_0-0_レイヤ___1
  6
CONTINUOUS
 62
    7
 10
634.56499650000001
 20
75.532503500000018
 40
90.869999000000007
 50
271.21245099999999
 51
289.32560599999999
  0
LINE
  8
_0-0_レイヤ___1
  6
CONTINUOUS
 62
    7
 10
636.93999650000001
 20
-15.31749549999995
 11
631.63999650000005
 21
-15.517495499999939
  0
ARC
  8
_0-0_レイヤ___1
  6
CONTINUOUS
 62
    7
 10
632.28999649999992
 20
93.262503500000037
 40
108.784998
 50
251.03791000000004
 51
269.55305300000003
  0
ARC
  8
_0-0_レイヤ___1
  6
CONTINUOUS
 62
    7
 10
619.95499749999999
 20
54.967503500000021
 40
68.749999000000003
 50
236.58171799999997
 51
250.44264199999998
  0
ARC
  8
_0-0_レイヤ___1
  6
CONTINUOUS
 62
    7
 10
625.0549974999999
 20
59.517503500000032
 40
75.379998999999998
 50
226.78567899999999
 51
235.251419
  0
ARC
  8
_0-0_レイヤ___1
  6
CONTINUOUS
 62
    7
 10
598.65499750000004
 20
28.977504500000009
 40
35.219999000000001
 50
203.85462399999997
 51
224.28862799999996
  0
LINE
  8
_0-0_レイヤ___1
  6
CONTINUOUS
 62
    7
 10
564.73999750000007
 20
24.282504500000016
 11
564.73999750000007
 21
24.032504500000016
  0
ARC
  8
_0-0_レイヤ___1
  6
CONTINUOUS
 62
    7
 10
591.91499750000003
 20
24.192504500000041
 40
27.175000000000001
 50
180.341117
 51
200.377025
  0
LINE
  8
_0-0_レイヤ___1
  6
CONTINUOUS
 62
    7
 10
564.73999750000007
 20
26.18250450000005
 11
564.73999750000007
 21
24.032504500000016
  0
ARC
  8
_0-0_レイヤ___1
  6
CONTINUOUS
 62
    7
 10
612.96499749999998
 20
28.977504500000009
 40
60.699998999999998
 50
228.05296700000002
 51
244.19396800000004
  0
ARC
  8
_0-0_レイヤ___1
  6
CONTINUOUS
 62
    7
 10
596.13499750000005
 20
11.342504500000018
 40
36.504998999999998
 50
207.94737599999999
 51
228.90042700000001
  0
LINE
  8
_0-0_レイヤ___1
  6
CONTINUOUS
 62
    7
 10
564.33999850000009
 20
-6.2174954999999841
 11
563.23999849999996
 21
-3.8674954999999613
  0
ARC
  8
_0-0_レイヤ___1
  6
CONTINUOUS
 62
    7
 10
604.90499750000004
 20
21.722504500000014
 40
76.504998999999998
 50
202.62987400000003
 51
227.36851900000002
  0
LINE
  8
_0-0_レイヤ___1
  6
CONTINUOUS
 62
    7
 10
529.38999850000005
 20
17.93250450000005
 11
529.38999850000005
 21
17.68250450000005
  0
ARC
  8
_0-0_レイヤ___1
  6
CONTINUOUS
 62
    7
 10
597.03999750000003
 20
17.562504500000045
 40
67.649998999999994
 50
179.89696699999999
 51
201.94100900000001
  0
ARC
  8
_0-0_レイヤ___1
  6
CONTINUOUS
 62
    7
 10
623.85499750000008
 20
16.822504500000036
 40
94.664998999999995
 50
167.333562
 51
179.48065500000001
  0
LINE
  8
_0-0_レイヤ___1
  6
CONTINUOUS
 62
    7
 10
531.9399985
 20
37.582504500000027
 11
533.1899985
 21
42.232504500000061
  0
LINE
  8
_0-0_レイヤ___1
  6
CONTINUOUS
 62
    7
 10
712.08999549999999
 20
-32.667494499999975
 11
710.38999549999994
 21
-34.167494499999975
  0
LINE
  8
_0-0_レイヤ___1
  6
CONTINUOUS
 62
    7
 10
706.98999550000008
 20
-37.117494499999964
 11
705.28999550000003
 21
-38.617494499999964
  0
LINE
  8
_0-0_レイヤ___1
  6
CONTINUOUS
 62
    7
 10
705.28999550000003
 20
-38.617494499999964
 11
703.58999549999999
 21
-39.867494499999964
  0
LINE
  8
_0-0_レイヤ___1
  6
CONTINUOUS
 62
    7
 10
700.4399954999999
 20
-42.217494499999987
 11
697.88999650000005
 21
-43.867494499999964
  0
LINE
  8
_0-0_レイヤ___1
  6
CONTINUOUS
 62
    7
 10
697.88999650000005
 20
-43.867494499999964
 11
697.03999649999992
 21
-44.317494499999952
  0
LINE
  8
_0-0_レイヤ___1
  6
CONTINUOUS
 62
    7
 10
693.63999650000005
 20
-46.417494499999975
 11
690.28999649999992
 21
-48.317494499999952
  0
LINE
  8
_0-0_レイヤ___1
  6
CONTINUOUS
 62
    7
 10
686.88999650000005
 20
-49.817494499999952
 11
686.68999650000001
 21
-50.017494499999941
  0
LINE
  8
_0-0_レイヤ___1
  6
CONTINUOUS
 62
    7
 10
686.68999650000001
 20
-50.017494499999941
 11
684.98999649999996
 21
-50.667494499999975
  0
LINE
  8
_0-0_レイヤ___1
  6
CONTINUOUS
 62
    7
 10
681.5899965000001
 20
-52.167494499999975
 11
681.38999650000005
 21
-52.367494499999964
  0
LINE
  8
_0-0_レイヤ___1
  6
CONTINUOUS
 62
    7
 10
681.38999650000005
 20
-52.367494499999964
 11
678.38999650000005
 21
-53.417494499999975
  0
LINE
  8
_0-0_レイヤ___1
  6
CONTINUOUS
 62
    7
 10
675.23999649999996
 20
-54.667494499999975
 11
671.8399965000001
 21
-55.767494499999941
  0
LINE
  8
_0-0_レイヤ___1
  6
CONTINUOUS
 62
    7
 10
668.43999650000001
 20
-56.817494499999952
 11
665.0899965000001
 21
-57.867494499999964
  0
LINE
  8
_0-0_レイヤ___1
  6
CONTINUOUS
 62
    7
 10
661.68999650000001
 20
-58.517494499999941
 11
659.5899965000001
 21
-59.117494499999964
  0
LINE
  8
_0-0_レイヤ___1
  6
CONTINUOUS
 62
    7
 10
659.5899965000001
 20
-59.117494499999964
 11
658.28999649999992
 21
-59.117494499999964
  0
LINE
  8
_0-0_レイヤ___1
  6
CONTINUOUS
 62
    7
 10
655.13999650000005
 20
-59.767494499999941
 11
653.43999650000001
 21
-59.967494499999987
  0
LINE
  8
_0-0_レイヤ___1
  6
CONTINUOUS
 62
    7
 10
650.03999649999992
 20
-60.417494499999975
 11
648.13999650000005
 21
-60.817494499999952
  0
LINE
  8
_0-0_レイヤ___1
  6
CONTINUOUS
 62
    7
 10
648.13999650000005
 20
-60.817494499999952
 11
646.88999650000005
 21
-60.817494499999952
  0
LINE
  8
_0-0_レイヤ___1
  6
CONTINUOUS
 62
    7
 10
643.48999649999996
 20
-61.267494499999941
 11
641.13999650000005
 21
-61.467494499999987
  0
LINE
  8
_0-0_レイヤ___1
  6
CONTINUOUS
 62
    7
 10
641.13999650000005
 20
-61.467494499999987
 11
640.28999649999992
 21
-61.467494499999987
  0
LINE
  8
_0-0_レイヤ___1
  6
CONTINUOUS
 62
    7
 10
636.93999650000001
 20
-61.467494499999987
 11
634.18999650000001
 21
-61.667494499999975
  0
LINE
  8
_0-0_レイヤ___1
  6
CONTINUOUS
 62
    7
 10
634.18999650000001
 20
-61.667494499999975
 11
633.73999649999996
 21
-61.667494499999975
  0
LINE
  8
_0-0_レイヤ___1
  6
CONTINUOUS
 62
    7
 10
631.63999650000005
 20
-61.667494499999975
 11
629.93999749999989
 21
-61.667494499999975
  0
LINE
  8
_0-0_レイヤ___1
  6
CONTINUOUS
 62
    7
 10
626.53999750000003
 20
-61.667494499999975
 11
624.63999749999994
 21
-61.467494499999987
  0
LINE
  8
_0-0_レイヤ___1
  6
CONTINUOUS
 62
    7
 10
624.63999749999994
 20
-61.467494499999987
 11
623.38999749999994
 21
-61.467494499999987
  0
LINE
  8
_0-0_レイヤ___1
  6
CONTINUOUS
 62
    7
 10
619.98999750000007
 20
-61.267494499999941
 11
617.63999749999994
 21
-61.017494499999941
  0
LINE
  8
_0-0_レイヤ___1
  6
CONTINUOUS
 62
    7
 10
617.63999749999994
 20
-61.017494499999941
 11
616.83999749999998
 21
-61.017494499999941
  0
LINE
  8
_0-0_レイヤ___1
  6
CONTINUOUS
 62
    7
 10
613.43999749999989
 20
-60.617494499999964
 11
610.68999749999989
 21
-60.167494499999975
  0
LINE
  8
_0-0_レイヤ___1
  6
CONTINUOUS
 62
    7
 10
610.68999749999989
 20
-60.167494499999975
 11
610.23999750000007
 21
-60.167494499999975
  0
LINE
  8
_0-0_レイヤ___1
  6
CONTINUOUS
 62
    7
 10
606.88999749999994
 20
-59.567494499999952
 11
603.68999749999989
 21
-58.917494499999975
  0
LINE
  8
_0-0_レイヤ___1
  6
CONTINUOUS
 62
    7
 10
600.28999750000003
 20
-58.267494499999941
 11
596.93999749999989
 21
-57.417494499999975
  0
LINE
  8
_0-0_レイヤ___1
  6
CONTINUOUS
 62
    7
 10
593.53999750000003
 20
-56.567494499999952
 11
590.98999750000007
 21
-55.767494499999941
  0
LINE
  8
_0-0_レイヤ___1
  6
CONTINUOUS
 62
    7
 10
590.98999750000007
 20
-55.767494499999941
 11
589.28999750000003
 21
-55.317494499999952
  0
LINE
  8
_0-0_レイヤ___1
  6
CONTINUOUS
 62
    7
 10
585.88999749999994
 20
-54.067494499999952
 11
582.53999750000003
 21
-52.767494499999941
  0
LINE
  8
_0-0_レイヤ___1
  6
CONTINUOUS
 62
    7
 10
579.13999749999994
 20
-51.317494499999952
 11
575.73999750000007
 21
-49.617494499999964
  0
LINE
  8
_0-0_レイヤ___1
  6
CONTINUOUS
 62
    7
 10
572.38999749999994
 20
-48.117494499999964
 11
570.88999749999994
 21
-47.267494499999941
  0
LINE
  8
_0-0_レイヤ___1
  6
CONTINUOUS
 62
    7
 10
570.88999749999994
 20
-47.267494499999941
 11
569.18999749999989
 21
-46.417494499999975
  0
LINE
  8
_0-0_レイヤ___1
  6
CONTINUOUS
 62
    7
 10
565.78999750000003
 20
-44.317494499999952
 11
563.48999849999996
 21
-42.817494499999952
  0
LINE
  8
_0-0_レイヤ___1
  6
CONTINUOUS
 62
    7
 10
563.48999849999996
 20
-42.817494499999952
 11
561.78999849999991
 21
-41.767494499999941
  0
LINE
  8
_0-0_レイヤ___1
  6
CONTINUOUS
 62
    7
 10
558.58999850000009
 20
-39.217494499999987
 11
556.48999849999996
 21
-37.317494499999952
  0
LINE
  8
_0-0_レイヤ___1
  6
CONTINUOUS
 62
    7
 10
556.48999849999996
 20
-37.317494499999952
 11
555.23999849999996
 21
-36.467494499999987
  0
ARC
  8
_0-0_レイヤ___1
  6
CONTINUOUS
 62
    7
 10
656.50999649999994
 20
17.927504500000055
 40
77.379998999999998
 50
0.002739
 51
18.149995000000004
  0
ARC
  8
_0-0_レイヤ___1
  6
CONTINUOUS
 62
    7
 10
663.3399965000001
 20
18.607504500000061
 40
70.749999000000003
 50
313.55359700000002
 51
359.61434600000001
  0
LINE
  8
_0-0_レイヤ___1
  6
CONTINUOUS
 62
    7
 10
701.88999549999994
 20
-102.31749349999996
 11
701.88999549999994
 21
24.68250450000005
  0
LINE
  8
_0-0_レイヤ___1
  6
CONTINUOUS
 62
    7
 10
698.0899965000001
 20
21.93250450000005
 11
698.0899965000001
 21
60.232503500000007
  0
LINE
  8
_0-0_レイヤ___1
  6
CONTINUOUS
 62
    7
 10
699.58999549999999
 20
10.082504500000027
 11
699.78999550000003
 21
4.7825045000000159
  0
ARC
  8
_0-0_レイヤ___1
  6
CONTINUOUS
 62
    7
 10
673.18999650000001
 20
15.847504500000014
 40
28.704999999999998
 50
336.88854600000002
 51
359.06690300000002
  0
LINE
  8
_0-0_レイヤ___1
  6
CONTINUOUS
 62
    7
 10
563.88999850000005
 20
-116.06749349999996
 11
563.88999850000005
 21
-6.0174954999999386
  0
LINE
  8
_0-0_レイヤ___1
  6
CONTINUOUS
 62
    7
 10
565.18999749999989
 20
20.68250450000005
 11
565.18999749999989
 21
60.482503500000007
  0
ARC
  8
_0-0_レイヤ___1
  6
CONTINUOUS
 62
    7
 10
661.28499650000003
 20
25.14250450000003
 40
70.334998999999996
 50
314.96905299999997
 51
347.09333199999998
  0
ARC
  8
_0-0_レイヤ___1
  6
CONTINUOUS
 62
    7
 10
663.6999965
 20
24.542504500000007
 40
67.844999000000001
 50
347.13270699999998
 51
359.40145200000001
  0
LINE
  8
_0-0_レイヤ___1
  6
CONTINUOUS
 62
    7
 10
731.53999550000003
 20
23.832504500000027
 11
731.53999550000003
 21
24.032504500000016
  0
ARC
  8
_0-0_レイヤ___1
  6
CONTINUOUS
 62
    7
 10
635.75999649999994
 20
23.962504500000023
 40
95.379998999999998
 50
0.1928109999999999
 51
6.6955929999999997
  0
LINE
  8
_0-0_レイヤ___1
  6
CONTINUOUS
 62
    7
 10
730.48999550000008
 20
34.832504500000027
 11
725.1899954999999
 21
141.73250250000001
  0
LINE
  8
_0-0_レイヤ___1
  6
CONTINUOUS
 62
    7
 10
724.98999550000008
 20
141.73250250000001
 11
725.1899954999999
 21
141.73250250000001
  0
ARC
  8
_0-0_レイヤ___1
  6
CONTINUOUS
 62
    7
 10
693.95999649999999
 20
141.58750250000003
 40
30.829999999999998
 50
0.274075
 51
19.117142999999999
  0
ARC
  8
_0-0_レイヤ___1
  6
CONTINUOUS
 62
    7
 10
692.77999649999992
 20
140.80250250000006
 40
32.204999999999998
 50
19.745491000000001
 51
40.300831000000002
  0
ARC
  8
_0-0_レイヤ___1
  6
CONTINUOUS
 62
    7
 10
688.07999649999988
 20
135.96750250000002
 40
38.919998999999997
 50
41.254444999999997
 51
51.157642000000003
  0
ARC
  8
_0-0_レイヤ___1
  6
CONTINUOUS
 62
    7
 10
675.75999649999994
 20
120.14750250000009
 40
59.004998999999998
 50
51.750017999999997
 51
57.814784000000003
  0
LINE
  8
_0-0_レイヤ___1
  6
CONTINUOUS
 62
    7
 10
553.73999849999996
 20
-26.117494499999964
 11
555.4399985
 21
-27.617494499999964
  0
LINE
  8
_0-0_レイヤ___1
  6
CONTINUOUS
 62
    7
 10
558.83999850000009
 20
-30.567494499999952
 11
560.48999849999996
 21
-32.017494499999941
  0
LINE
  8
_0-0_レイヤ___1
  6
CONTINUOUS
 62
    7
 10
560.48999849999996
 20
-32.017494499999941
 11
562.1899985
 21
-33.317494499999952
  0
LINE
  8
_0-0_レイヤ___1
  6
CONTINUOUS
 62
    7
 10
565.38999749999994
 20
-35.617494499999964
 11
567.68999749999989
 21
-37.317494499999952
  0
LINE
  8
_0-0_レイヤ___1
  6
CONTINUOUS
 62
    7
 10
567.68999749999989
 20
-37.317494499999952
 11
568.53999750000003
 21
-37.767494499999941
  0
LINE
  8
_0-0_レイヤ___1
  6
CONTINUOUS
 62
    7
 10
571.93999749999989
 20
-39.867494499999964
 11
575.33999749999998
 21
-41.567494499999952
  0
LINE
  8
_0-0_レイヤ___1
  6
CONTINUOUS
 62
    7
 10
578.28999750000003
 20
-43.267494499999941
 11
579.98999750000007
 21
-43.867494499999964
  0
LINE
  8
_0-0_レイヤ___1
  6
CONTINUOUS
 62
    7
 10
583.38999749999994
 20
-45.367494499999964
 11
586.73999750000007
 21
-46.667494499999975
  0
LINE
  8
_0-0_レイヤ___1
  6
CONTINUOUS
 62
    7
 10
589.93999749999989
 20
-47.717494499999987
 11
593.33999749999998
 21
-48.967494499999987
  0
LINE
  8
_0-0_レイヤ___1
  6
CONTINUOUS
 62
    7
 10
596.48999750000007
 20
-49.817494499999952
 11
599.43999749999989
 21
-50.667494499999975
  0
LINE
  8
_0-0_レイヤ___1
  6
CONTINUOUS
 62
    7
 10
599.43999749999989
 20
-50.667494499999975
 11
599.88999749999994
 21
-50.667494499999975
  0
LINE
  8
_0-0_レイヤ___1
  6
CONTINUOUS
 62
    7
 10
603.28999750000003
 20
-51.517494499999941
 11
604.73999750000007
 21
-51.917494499999975
  0
LINE
  8
_0-0_レイヤ___1
  6
CONTINUOUS
 62
    7
 10
604.73999750000007
 20
-51.917494499999975
 11
606.43999749999989
 21
-52.167494499999975
  0
LINE
  8
_0-0_レイヤ___1
  6
CONTINUOUS
 62
    7
 10
608.98999750000007
 20
-52.767494499999941
 11
610.68999749999989
 21
-53.017494499999941
  0
LINE
  8
_0-0_レイヤ___1
  6
CONTINUOUS
 62
    7
 10
614.03999750000003
 20
-53.417494499999975
 11
615.73999750000007
 21
-53.617494499999964
  0
LINE
  8
_0-0_レイヤ___1
  6
CONTINUOUS
 62
    7
 10
615.73999750000007
 20
-53.617494499999964
 11
617.43999749999989
 21
-53.617494499999964
  0
LINE
  8
_0-0_レイヤ___1
  6
CONTINUOUS
 62
    7
 10
620.83999749999998
 20
-54.067494499999952
 11
622.33999749999998
 21
-54.267494499999941
  0
LINE
  8
_0-0_レイヤ___1
  6
CONTINUOUS
 62
    7
 10
622.33999749999998
 20
-54.267494499999941
 11
623.98999750000007
 21
-54.267494499999941
  0
LINE
  8
_0-0_レイヤ___1
  6
CONTINUOUS
 62
    7
 10
627.38999749999994
 20
-54.467494499999987
 11
629.08999749999998
 21
-54.667494499999975
  0
LINE
  8
_0-0_レイヤ___1
  6
CONTINUOUS
 62
    7
 10
629.08999749999998
 20
-54.667494499999975
 11
630.78999750000003
 21
-54.667494499999975
  0
LINE
  8
_0-0_レイヤ___1
  6
CONTINUOUS
 62
    7
 10
631.63999650000005
 20
-54.667494499999975
 11
633.3399965000001
 21
-54.667494499999975
  0
LINE
  8
_0-0_レイヤ___1
  6
CONTINUOUS
 62
    7
 10
636.68999650000001
 20
-54.667494499999975
 11
638.38999650000005
 21
-54.467494499999987
  0
LINE
  8
_0-0_レイヤ___1
  6
CONTINUOUS
 62
    7
 10
638.38999650000005
 20
-54.467494499999987
 11
640.0899965000001
 21
-54.467494499999987
  0
LINE
  8
_0-0_レイヤ___1
  6
CONTINUOUS
 62
    7
 10
643.48999649999996
 20
-54.267494499999941
 11
644.98999649999996
 21
-54.067494499999952
  0
LINE
  8
_0-0_レイヤ___1
  6
CONTINUOUS
 62
    7
 10
644.98999649999996
 20
-54.067494499999952
 11
646.63999650000005
 21
-53.817494499999952
  0
LINE
  8
_0-0_レイヤ___1
  6
CONTINUOUS
 62
    7
 10
650.03999649999992
 20
-53.417494499999975
 11
651.53999649999992
 21
-53.217494499999987
  0
LINE
  8
_0-0_レイヤ___1
  6
CONTINUOUS
 62
    7
 10
651.53999649999992
 20
-53.217494499999987
 11
653.23999649999996
 21
-53.017494499999941
  0
LINE
  8
_0-0_レイヤ___1
  6
CONTINUOUS
 62
    7
 10
656.5899965000001
 20
-52.367494499999964
 11
658.0899965000001
 21
-51.917494499999975
  0
LINE
  8
_0-0_レイヤ___1
  6
CONTINUOUS
 62
    7
 10
658.0899965000001
 20
-51.917494499999975
 11
659.78999649999992
 21
-51.717494499999987
  0
LINE
  8
_0-0_レイヤ___1
  6
CONTINUOUS
 62
    7
 10
663.18999650000001
 20
-50.867494499999964
 11
664.43999650000001
 21
-50.467494499999987
  0
LINE
  8
_0-0_レイヤ___1
  6
CONTINUOUS
 62
    7
 10
664.43999650000001
 20
-50.467494499999987
 11
666.53999649999992
 21
-50.017494499999941
  0
LINE
  8
_0-0_レイヤ___1
  6
CONTINUOUS
 62
    7
 10
669.93999650000001
 20
-48.967494499999987
 11
670.5899965000001
 21
-48.767494499999941
  0
LINE
  8
_0-0_レイヤ___1
  6
CONTINUOUS
 62
    7
 10
670.5899965000001
 20
-48.767494499999941
 11
672.48999649999996
 21
-48.117494499999964
  0
LINE
  8
_0-0_レイヤ___1
  6
CONTINUOUS
 62
    7
 10
672.48999649999996
 20
-48.117494499999964
 11
674.18999650000001
 21
-47.717494499999987
  0
LINE
  8
_0-0_レイヤ___1
  6
CONTINUOUS
 62
    7
 10
677.3399965000001
 20
-46.417494499999975
 11
680.73999649999996
 21
-45.167494499999975
  0
LINE
  8
_0-0_レイヤ___1
  6
CONTINUOUS
 62
    7
 10
683.88999650000005
 20
-43.667494499999975
 11
687.0899965000001
 21
-41.967494499999987
  0
LINE
  8
_0-0_レイヤ___1
  6
CONTINUOUS
 62
    7
 10
690.48999649999996
 20
-40.317494499999952
 11
691.73999649999996
 21
-39.467494499999987
  0
LINE
  8
_0-0_レイヤ___1
  6
CONTINUOUS
 62
    7
 10
691.73999649999996
 20
-39.467494499999987
 11
693.8399965000001
 21
-38.167494499999975
  0
LINE
  8
_0-0_レイヤ___1
  6
CONTINUOUS
 62
    7
 10
697.03999649999992
 20
-36.267494499999941
 11
700.1899954999999
 21
-33.967494499999987
  0
LINE
  8
_0-0_レイヤ___1
  6
CONTINUOUS
 62
    7
 10
700.1899954999999
 20
-33.967494499999987
 11
701.88999549999994
 21
-32.667494499999975
  0
LINE
  8
_0-0_レイヤ___1
  6
CONTINUOUS
 62
    7
 10
705.08999549999999
 20
-30.117494499999964
 11
706.98999550000008
 21
-28.417494499999975
  0
LINE
  8
_0-0_レイヤ___1
  6
CONTINUOUS
 62
    7
 10
706.98999550000008
 20
-28.417494499999975
 11
708.23999550000008
 21
-27.367494499999964
  0
ARC
  8
_0-0_レイヤ___1
  6
CONTINUOUS
 62
    7
 10
589.00999750000005
 20
120.39750250000009
 40
60.074998999999998
 50
124.20455899999999
 51
135.530303
  0
ARC
  8
_0-0_レイヤ___1
  6
CONTINUOUS
 62
    7
 10
568.73499749999996
 20
141.65750250000008
 40
30.445
 50
137.35301200000001
 51
179.48168899999999
  0
LINE
  8
_0-0_レイヤ___1
  6
CONTINUOUS
 62
    7
 10
538.28999849999991
 20
141.93250250000006
 11
532.98999849999996
 21
36.982504500000061
  0
ARC
  8
_0-0_レイヤ___1
  6
CONTINUOUS
 62
    7
 10
620.89999749999993
 20
23.337504500000023
 40
88.959998999999996
 50
171.176816
 51
179.55221799999998
  0
ARC
  8
_0-0_レイヤ___1
  6
CONTINUOUS
 62
    7
 10
600.62499750000006
 20
24.492504500000052
 40
68.684999000000005
 50
180.17340100000004
 51
220.55684800000003
  0
LINE
  8
_0-0_レイヤ___1
  6
CONTINUOUS
 62
    7
 10
548.63999850000005
 20
-20.617495499999961
 11
553.73999849999996
 21
-26.117494499999964
  0
ARC
  8
_0-0_レイヤ___1
  6
CONTINUOUS
 62
    7
 10
571.67499750000002
 20
187.32250150000004
 40
13.945
 50
118.885099
 51
146.18923899999999
  0
ARC
  8
_0-0_レイヤ___1
  6
CONTINUOUS
 62
    7
 10
572.18999749999989
 20
187.31250150000005
 40
14.380000000000001
 50
147.28929199999999
 51
170.915142
  0
ARC
  8
_0-0_レイヤ___1
  6
CONTINUOUS
 62
    7
 10
579.15999749999992
 20
185.41250150000008
 40
21.420000000000002
 50
168.23037600000001
 51
179.68140199999999
  0
LINE
  8
_0-0_レイヤ___1
  6
CONTINUOUS
 62
    7
 10
557.73999849999996
 20
185.53250150000008
 11
556.88999850000005
 21
177.93250150000006
  0
LINE
  8
_0-0_レイヤ___1
  6
CONTINUOUS
 62
    7
 10
556.88999850000005
 20
177.93250150000006
 11
556.08999850000009
 21
170.33250250000003
  0
LINE
  8
_0-0_レイヤ___1
  6
CONTINUOUS
 62
    7
 10
556.08999850000009
 20
170.33250250000003
 11
555.83999850000009
 21
166.08250250000003
  0
LINE
  8
_0-0_レイヤ___1
  6
CONTINUOUS
 62
    7
 10
707.1899954999999
 20
166.08250250000003
 11
706.53999550000003
 21
175.38250249999999
  0
LINE
  8
_0-0_レイヤ___1
  6
CONTINUOUS
 62
    7
 10
706.53999550000003
 20
175.38250249999999
 11
705.73999550000008
 21
184.48250150000001
  0
LINE
  8
_0-0_レイヤ___1
  6
CONTINUOUS
 62
    7
 10
705.73999550000008
 20
184.48250150000001
 11
705.73999550000008
 21
185.33250150000003
  0
LINE
  8
_0-0_レイヤ___1
  6
CONTINUOUS
 62
    7
 10
705.48999550000008
 20
185.33250150000003
 11
705.73999550000008
 21
185.33250150000003
  0
ARC
  8
_0-0_レイヤ___1
  6
CONTINUOUS
 62
    7
 10
678.55499650000002
 20
186.20250150000004
 40
26.75
 50
358.13293900000002
 51
7.2556289999999839
  0
ARC
  8
_0-0_レイヤ___1
  6
CONTINUOUS
 62
    7
 10
685.3099964999999
 20
186.52750150000008
 40
20.015000000000001
 50
8.778492
 51
20.638113000000001
  0
ARC
  8
_0-0_レイヤ___1
  6
CONTINUOUS
 62
    7
 10
693.79499650000002
 20
188.82750150000004
 40
11.295
 50
24.893514000000003
 51
62.903064000000008
  0
LINE
  8
_0-0_レイヤ___1
  6
CONTINUOUS
 62
    7
 10
699.38999549999994
 20
198.48250150000001
 11
697.88999650000005
 21
199.33250150000003
  0
ARC
  8
_0-0_レイヤ___1
  6
CONTINUOUS
 62
    7
 10
577.65499750000004
 20
166.31750250000005
 40
22.050000000000001
 50
201.50457900000004
 51
222.27703800000003
  0
ARC
  8
_0-0_レイヤ___1
  6
CONTINUOUS
 62
    7
 10
585.99999750000006
 20
172.11250250000001
 40
32.024999999999999
 50
219.64306199999999
 51
236.10384400000001
  0
ARC
  8
_0-0_レイヤ___1
  6
CONTINUOUS
 62
    7
 10
601.78499749999992
 20
190.19750150000004
 40
56.079999000000001
 50
233.132589
 51
245.95953499999996
  0
ARC
  8
_0-0_レイヤ___1
  6
CONTINUOUS
 62
    7
 10
614.84999749999997
 20
213.4925015
 40
82.799999
 50
244.14277499999997
 51
255.08494099999996
  0
ARC
  8
_0-0_レイヤ___1
  6
CONTINUOUS
 62
    7
 10
630.62499750000006
 20
274.67750050000006
 40
145.98499799999999
 50
255.283185
 51
265.07387799999998
  0
LINE
  8
_0-0_レイヤ___1
  6
CONTINUOUS
 62
    7
 10
618.08999749999998
 20
129.48250250000001
 11
631.63999650000005
 21
128.83250250000003
  0
LINE
  8
_0-0_レイヤ___1
  6
CONTINUOUS
 62
    7
 10
631.63999650000005
 20
128.63250249999999
 11
631.8399965000001
 21
128.63250249999999
  0
ARC
  8
_0-0_レイヤ___1
  6
CONTINUOUS
 62
    7
 10
631.91499649999992
 20
273.19250050000005
 40
144.55999800000001
 50
269.97117100000003
 51
283.16637600000001
  0
ARC
  8
_0-0_レイヤ___1
  6
CONTINUOUS
 62
    7
 10
645.13499649999994
 20
222.22250150000002
 40
91.884998999999993
 50
282.25704400000001
 51
295.70739200000003
  0
ARC
  8
_0-0_レイヤ___1
  6
CONTINUOUS
 62
    7
 10
659.81999649999989
 20
194.41750150000007
 40
60.474998999999997
 50
294.59813100000008
 51
305.73911000000004
  0
ARC
  8
_0-0_レイヤ___1
  6
CONTINUOUS
 62
    7
 10
672.25999649999994
 20
175.4925025
 40
38.019998999999999
 50
307.000179
 51
313.10943800000001
  0
ARC
  8
_0-0_レイヤ___1
  6
CONTINUOUS
 62
    7
 10
645.97499650000009
 20
203.32250150000004
 40
76.294999000000004
 50
313.23879999999997
 51
317.40351999999996
  0
ARC
  8
_0-0_レイヤ___1
  6
CONTINUOUS
 62
    7
 10
683.18999650000001
 20
167.63250249999999
 40
24.449999999999999
 50
319.88998600000002
 51
342.74751300000003
  0
ARC
  8
_0-0_レイヤ___1
  6
CONTINUOUS
 62
    7
 10
576.21499749999998
 20
189.91250150000008
 40
15.815
 50
202.40209699999997
 51
211.84101699999999
  0
ARC
  8
_0-0_レイヤ___1
  6
CONTINUOUS
 62
    7
 10
651.84999650000009
 20
237.55750150000006
 40
105.209998
 50
212.15316999999999
 51
213.27518800000001
  0
ARC
  8
_0-0_レイヤ___1
  6
CONTINUOUS
 62
    7
 10
587.88499750000005
 20
197.87750149999999
 40
29.859999999999999
 50
217.176309
 51
233.30722700000001
  0
ARC
  8
_0-0_レイヤ___1
  6
CONTINUOUS
 62
    7
 10
587.74999750000006
 20
193.75250149999999
 40
26.445
 50
228.54563400000004
 51
235.84554500000002
  0
ARC
  8
_0-0_レイヤ___1
  6
CONTINUOUS
 62
    7
 10
608.50499749999994
 20
224.82250150000004
 40
63.809998999999998
 50
236.08631300000002
 51
239.78411100000002
  0
ARC
  8
_0-0_レイヤ___1
  6
CONTINUOUS
 62
    7
 10
623.82499749999988
 20
254.65250050000009
 40
97.214999000000006
 50
240.93017699999999
 51
249.60124300000001
  0
ARC
  8
_0-0_レイヤ___1
  6
CONTINUOUS
 62
    7
 10
631.16499750000003
 20
275.77250049999998
 40
119.63999800000001
 50
249.74262200000004
 51
270.01284099999998
  0
ARC
  8
_0-0_レイヤ___1
  6
CONTINUOUS
 62
    7
 10
631.74499650000007
 20
155.97250250000002
 40
0.5799999999999999
 50
163.825323
 51
26.653014999999982
  0
ARC
  8
_0-0_レイヤ___1
  6
CONTINUOUS
 62
    7
 10
626.51499749999994
 20
113.20250250000004
 40
43.409998999999999
 50
82.393904000000006
 51
83.486586000000003
  0
LINE
  8
_0-0_レイヤ___1
  6
CONTINUOUS
 62
    7
 10
631.43999749999989
 20
156.33250250000003
 11
631.63999650000005
 21
156.33250250000003
  0
ARC
  8
_0-0_レイヤ___1
  6
CONTINUOUS
 62
    7
 10
631.51999750000004
 20
275.88250049999999
 40
119.549998
 50
270.05849799999999
 51
291.99324799999999
  0
ARC
  8
_0-0_レイヤ___1
  6
CONTINUOUS
 62
    7
 10
644.98999649999996
 20
242.05750150000006
 40
83.249999000000003
 50
291.93439599999999
 51
301.90415999999999
  0
ARC
  8
_0-0_レイヤ___1
  6
CONTINUOUS
 62
    7
 10
658.49499650000007
 20
218.32250150000004
 40
55.974998999999997
 50
303.01232700000003
 51
313.52184199999999
  0
ARC
  8
_0-0_レイヤ___1
  6
CONTINUOUS
 62
    7
 10
673.64999650000004
 20
199.1175015
 40
31.695
 50
317.56276100000002
 51
333.00438799999995
  0
ARC
  8
_0-0_レイヤ___1
  6
CONTINUOUS
 62
    7
 10
580.34499750000009
 20
197.8675015
 40
16.434999999999999
 50
200.42218199999999
 51
226.31058200000004
  0
ARC
  8
_0-0_レイヤ___1
  6
CONTINUOUS
 62
    7
 10
608.5849975000001
 20
224.12750149999999
 40
55.264999000000003
 50
223.93476000000004
 51
233.27411000000004
  0
ARC
  8
_0-0_レイヤ___1
  6
CONTINUOUS
 62
    7
 10
610.94999749999988
 20
230.68250150000006
 40
62.014999000000003
 50
235.40258600000001
 51
247.26952600000001
  0
ARC
  8
_0-0_レイヤ___1
  6
CONTINUOUS
 62
    7
 10
626.36499750000007
 20
260.86750050000001
 40
95.849998999999997
 50
245.74395999999996
 51
261.46465000000001
  0
ARC
  8
_0-0_レイヤ___1
  6
CONTINUOUS
 62
    7
 10
628.90999749999992
 20
252.46750050000003
 40
87.999999000000003
 50
259.01480500000002
 51
266.77582200000001
  0
ARC
  8
_0-0_レイヤ___1
  6
CONTINUOUS
 62
    7
 10
631.4449975
 20
287.95250050000004
 40
123.569998
 50
266.526477
 51
270.09001799999999
  0
LINE
  8
_0-0_レイヤ___1
  6
CONTINUOUS
 62
    7
 10
631.43999749999989
 20
164.18250250000006
 11
631.63999650000005
 21
164.18250250000006
  0
ARC
  8
_0-0_レイヤ___1
  6
CONTINUOUS
 62
    7
 10
631.51499749999994
 20
272.79750050000007
 40
108.614998
 50
270.06686000000002
 51
293.02095299999996
  0
ARC
  8
_0-0_レイヤ___1
  6
CONTINUOUS
 62
    7
 10
649.27999649999992
 20
233.18250150000006
 40
65.119999000000007
 50
292.064571
 51
304.37015400000001
  0
ARC
  8
_0-0_レイヤ___1
  6
CONTINUOUS
 62
    7
 10
656.15499649999992
 20
221.33250150000003
 40
51.669998999999997
 50
305.33468399999998
 51
316.82882999999998
  0
ARC
  8
_0-0_レイヤ___1
  6
CONTINUOUS
 62
    7
 10
671.29999649999991
 20
204.88750149999998
 40
29.420000000000002
 50
320.01325300000002
 51
335.59528599999999
  0
ARC
  8
_0-0_レイヤ___1
  6
CONTINUOUS
 62
    7
 10
559.91999850000002
 20
144.13750249999998
 40
20.035
 50
201.22832899999997
 51
217.68256499999998
  0
ARC
  8
_0-0_レイヤ___1
  6
CONTINUOUS
 62
    7
 10
569.15999749999992
 20
150.84250250000002
 40
31.449999999999999
 50
217.057141
 51
222.281552
  0
ARC
  8
_0-0_レイヤ___1
  6
CONTINUOUS
 62
    7
 10
580.26999750000004
 20
157.64250250000009
 40
44.594999000000001
 50
219.15695099999999
 51
227.843985
  0
ARC
  8
_0-0_レイヤ___1
  6
CONTINUOUS
 62
    7
 10
585.02499749999993
 20
164.98250250000001
 40
53.114998999999997
 50
229.51539500000001
 51
234.64169799999996
  0
ARC
  8
_0-0_レイヤ___1
  6
CONTINUOUS
 62
    7
 10
607.51999750000004
 20
197.08250150000003
 40
92.314999
 50
234.78627200000003
 51
239.69740300000004
  0
ARC
  8
_0-0_レイヤ___1
  6
CONTINUOUS
 62
    7
 10
615.41999749999991
 20
213.50250149999999
 40
110.269998
 50
240.39339200000003
 51
248.32462100000004
  0
ARC
  8
_0-0_レイヤ___1
  6
CONTINUOUS
 62
    7
 10
625.27999750000004
 20
237.34250150000003
 40
136.064998
 50
248.17363800000004
 51
258.88176499999997
  0
ARC
  8
_0-0_レイヤ___1
  6
CONTINUOUS
 62
    7
 10
630.54999750000002
 20
250.18750050000006
 40
149.70499799999999
 50
257.84906999999998
 51
270.41662700000001
  0
LINE
  8
_0-0_レイヤ___1
  6
CONTINUOUS
 62
    7
 10
631.43999749999989
 20
100.23250350000001
 11
631.63999650000005
 21
100.23250350000001
  0
ARC
  8
_0-0_レイヤ___1
  6
CONTINUOUS
 62
    7
 10
631.60499750000008
 20
260.06750050000005
 40
159.83499800000001
 50
270.01207399999998
 51
287.01950899999997
  0
ARC
  8
_0-0_レイヤ___1
  6
CONTINUOUS
 62
    7
 10
645.4349964999999
 20
213.84750150000002
 40
111.66999800000001
 50
287.29924899999992
 51
298.25070499999998
  0
ARC
  8
_0-0_レイヤ___1
  6
CONTINUOUS
 62
    7
 10
665.39499649999993
 20
177.44750150000004
 40
69.884998999999993
 50
297.893102
 51
312.14509299999997
  0
ARC
  8
_0-0_レイヤ___1
  6
CONTINUOUS
 62
    7
 10
677.81499650000001
 20
164.01250249999998
 40
51.739998999999997
 50
311.78527500000001
 51
327.78873199999998
  0
LINE
  8
_0-0_レイヤ___1
  6
CONTINUOUS
 62
    7
 10
571.08999749999998
 20
-14.917495499999973
 11
564.08999850000009
 21
-17.667495499999973
  0
LINE
  8
_0-0_レイヤ___1
  6
CONTINUOUS
 62
    7
 10
575.33999749999998
 20
-19.117495499999961
 11
567.48999750000007
 21
-21.667495499999973
  0
LINE
  8
_0-0_レイヤ___1
  6
CONTINUOUS
 62
    7
 10
567.48999750000007
 20
-21.667495499999973
 11
564.08999850000009
 21
-22.917495499999973
  0
LINE
  8
_0-0_レイヤ___1
  6
CONTINUOUS
 62
    7
 10
579.98999750000007
 20
-22.717495499999984
 11
564.08999850000009
 21
-29.267494499999941
  0
LINE
  8
_0-0_レイヤ___1
  6
CONTINUOUS
 62
    7
 10
585.68999749999989
 20
-25.667494499999975
 11
564.53999750000003
 21
-36.067494499999952
  0
LINE
  8
_0-0_レイヤ___1
  6
CONTINUOUS
 62
    7
 10
586.73999750000007
 20
-32.017494499999941
 11
564.08999850000009
 21
-41.367494499999964
  0
LINE
  8
_0-0_レイヤ___1
  6
CONTINUOUS
 62
    7
 10
585.88999749999994
 20
-39.467494499999987
 11
565.18999749999989
 21
-47.467494499999987
  0
LINE
  8
_0-0_レイヤ___1
  6
CONTINUOUS
 62
    7
 10
586.13999749999994
 20
-46.217494499999987
 11
568.33999749999998
 21
-53.817494499999952
  0
LINE
  8
_0-0_レイヤ___1
  6
CONTINUOUS
 62
    7
 10
586.33999749999998
 20
-53.817494499999952
 11
572.13999749999994
 21
-58.917494499999975
  0
LINE
  8
_0-0_レイヤ___1
  6
CONTINUOUS
 62
    7
 10
586.13999749999994
 20
-60.167494499999975
 11
575.13999749999994
 21
-62.717494499999987
  0
LINE
  8
_0-0_レイヤ___1
  6
CONTINUOUS
 62
    7
 10
586.13999749999994
 20
-66.517494499999941
 11
578.48999750000007
 21
-68.017494499999941
  0
ARC
  8
_0-0_レイヤ___1
  6
CONTINUOUS
 62
    7
 10
711.47999550000009
 20
-190.74749249999996
 40
8.8200000000000003
 50
51.769891999999992
 51
61.873071999999993
  0
LINE
  8
_0-0_レイヤ___1
  6
CONTINUOUS
 62
    7
 10
715.88999549999994
 20
-183.16749249999998
 11
712.6899954999999
 21
-180.61749249999997
  0
LINE
  8
_0-0_レイヤ___1
  6
CONTINUOUS
 62
    7
 10
712.6899954999999
 20
-180.61749249999997
 11
707.83999549999999
 21
-177.66749249999998
  0
LINE
  8
_0-0_レイヤ___1
  6
CONTINUOUS
 62
    7
 10
707.83999549999999
 20
-177.66749249999998
 11
706.53999550000003
 21
-177.0174925
  0
LINE
  8
_0-0_レイヤ___1
  6
CONTINUOUS
 62
    7
 10
706.53999550000003
 20
-177.0174925
 11
681.13999650000005
 21
-160.96749249999993
  0
LINE
  8
_0-0_レイヤ___1
  6
CONTINUOUS
 62
    7
 10
681.13999650000005
 20
-160.96749249999993
 11
673.73999649999996
 21
-155.41749349999998
  0
LINE
  8
_0-0_レイヤ___1
  6
CONTINUOUS
 62
    7
 10
673.73999649999996
 20
-155.41749349999998
 11
673.3399965000001
 21
-117.56749349999996
  0
LINE
  8
_0-0_レイヤ___1
  6
CONTINUOUS
 62
    7
 10
673.3399965000001
 20
-117.56749349999996
 11
673.73999649999996
 21
-106.11749349999997
  0
LINE
  8
_0-0_レイヤ___1
  6
CONTINUOUS
 62
    7
 10
673.73999649999996
 20
-106.11749349999997
 11
674.18999650000001
 21
-102.31749349999996
  0
ARC
  8
_0-0_レイヤ___1
  6
CONTINUOUS
 62
    7
 10
700.23999550000008
 20
-106.09249349999999
 40
26.324999999999999
 50
146.898414
 51
171.75270100000003
  0
ARC
  8
_0-0_レイヤ___1
  6
CONTINUOUS
 62
    7
 10
693.90999650000003
 20
-101.87749349999996
 40
18.885000000000002
 50
119.04944900000001
 51
147.45262900000003
  0
LINE
  8
_0-0_レイヤ___1
  6
CONTINUOUS
 62
    7
 10
692.18999650000001
 20
-83.917494499999975
 11
691.3399965000001
 21
-83.917494499999975
  0
ARC
  8
_0-0_レイヤ___1
  6
CONTINUOUS
 62
    7
 10
691.13499649999994
 20
-98.722493499999985
 40
14.805
 50
89.199939999999984
 51
115.58175099999998
  0
ARC
  8
_0-0_レイヤ___1
  6
CONTINUOUS
 62
    7
 10
691.02999649999992
 20
-92.632493499999953
 40
9.0099999999999998
 50
28.60904
 51
84.199906999999996
  0
ARC
  8
_0-0_レイヤ___1
  6
CONTINUOUS
 62
    7
 10
686.73999649999996
 20
-94.482493499999975
 40
13.56
 50
7.2759319999999992
 51
25.872078999999996
  0
ARC
  8
_0-0_レイヤ___1
  6
CONTINUOUS
 62
    7
 10
686.77999649999992
 20
-96.287493499999982
 40
13.865
 50
1.3129630000000001
 51
14.696492999999998
  0
LINE
  8
_0-0_レイヤ___1
  6
CONTINUOUS
 62
    7
 10
700.83999549999999
 20
-96.167493499999978
 11
701.28999550000003
 21
-105.06749349999996
  0
LINE
  8
_0-0_レイヤ___1
  6
CONTINUOUS
 62
    7
 10
701.28999550000003
 20
-105.06749349999996
 11
701.48999550000008
 21
-131.71749349999999
  0
LINE
  8
_0-0_レイヤ___1
  6
CONTINUOUS
 62
    7
 10
701.48999550000008
 20
-131.71749349999999
 11
710.38999549999994
 21
-135.31749349999996
  0
LINE
  8
_0-0_レイヤ___1
  6
CONTINUOUS
 62
    7
 10
710.38999549999994
 20
-135.31749349999996
 11
719.48999550000008
 21
-139.11749349999997
  0
LINE
  8
_0-0_レイヤ___1
  6
CONTINUOUS
 62
    7
 10
719.48999550000008
 20
-139.11749349999997
 11
728.38999549999994
 21
-142.96749349999993
  0
LINE
  8
_0-0_レイヤ___1
  6
CONTINUOUS
 62
    7
 10
728.38999549999994
 20
-142.96749349999993
 11
737.48999550000008
 21
-146.7674935
  0
LINE
  8
_0-0_レイヤ___1
  6
CONTINUOUS
 62
    7
 10
737.48999550000008
 20
-146.7674935
 11
739.58999549999999
 21
-147.61749349999997
  0
ARC
  8
_0-0_レイヤ___1
  6
CONTINUOUS
 62
    7
 10
726.79999550000002
 20
-181.25749249999996
 40
36.019998999999999
 50
64.794506999999982
 51
69.965749000000002
  0
LINE
  8
_0-0_レイヤ___1
  6
CONTINUOUS
 62
    7
 10
742.53999550000003
 20
-148.86749349999997
 11
745.08999549999999
 21
-150.36749349999997
  0
ARC
  8
_0-0_レイヤ___1
  6
CONTINUOUS
 62
    7
 10
740.9399954999999
 20
-158.7674925
 40
9.2799999999999994
 50
54.425404
 51
64.816331000000005
  0
LINE
  8
_0-0_レイヤ___1
  6
CONTINUOUS
 62
    7
 10
746.58999549999999
 20
-151.41749349999998
 11
748.6899954999999
 21
-153.7674935
  0
LINE
  8
_0-0_レイヤ___1
  6
CONTINUOUS
 62
    7
 10
748.6899954999999
 20
-153.7674935
 11
749.53999550000003
 21
-154.61749349999997
  0
ARC
  8
_0-0_レイヤ___1
  6
CONTINUOUS
 62
    7
 10
738.3449955000001
 20
-169.10749249999998
 40
18.239999999999998
 50
33.579645999999997
 51
53.902253999999999
  0
ARC
  8
_0-0_レイヤ___1
  6
CONTINUOUS
 62
    7
 10
742.84999549999998
 20
-166.99749249999996
 40
13.460000000000001
 50
10.40288
 51
37.429605000000002
  0
ARC
  8
_0-0_レイヤ___1
  6
CONTINUOUS
 62
    7
 10
737.72999550000009
 20
-167.93249249999997
 40
19.02
 50
304.447473
 51
358.09182700000002
  0
ARC
  8
_0-0_レイヤ___1
  6
CONTINUOUS
 62
    7
 10
745.10499550000009
 20
-168.40749249999999
 40
11.635
 50
359.20139999999998
 51
19.258371000000018
  0
ARC
  8
_0-0_レイヤ___1
  6
CONTINUOUS
 62
    7
 10
737.54499549999991
 20
-169.28749249999998
 40
17.620000000000001
 50
277.32728900000001
 51
294.71119900000002
  0
ARC
  8
_0-0_レイヤ___1
  6
CONTINUOUS
 62
    7
 10
732.76499549999994
 20
-158.48249349999998
 40
29.440000000000001
 50
294.36589800000002
 51
302.28906599999999
  0
ARC
  8
_0-0_レイヤ___1
  6
CONTINUOUS
 62
    7
 10
740.91499550000003
 20
-86.777494499999989
 40
101.05999799999999
 50
264.790299
 51
266.24050899999997
  0
ARC
  8
_0-0_レイヤ___1
  6
CONTINUOUS
 62
    7
 10
734.4399954999999
 20
-165.28749249999998
 40
22.329999999999998
 50
269.616108
 51
283.86402199999998
  0
ARC
  8
_0-0_レイヤ___1
  6
CONTINUOUS
 62
    7
 10
733.91499550000003
 20
-150.60749349999998
 40
36.874999000000003
 50
253.25141099999996
 51
266.61662899999999
  0
ARC
  8
_0-0_レイヤ___1
  6
CONTINUOUS
 62
    7
 10
725.95999549999988
 20
-166.94249249999996
 40
18.954999999999998
 50
241.59164300000003
 51
250.19605700000005
  0
ARC
  8
_0-0_レイヤ___1
  6
CONTINUOUS
 62
    7
 10
740.39499550000005
 20
-125.77249349999994
 40
62.584999000000003
 50
250.53024500000004
 51
253.94727700000004
  0
LINE
  8
_0-0_レイヤ___1
  6
CONTINUOUS
 62
    7
 10
701.48999550000008
 20
-112.46749349999999
 11
713.13999549999994
 21
-109.31749349999996
  0
LINE
  8
_0-0_レイヤ___1
  6
CONTINUOUS
 62
    7
 10
713.13999549999994
 20
-109.31749349999996
 11
724.78999550000003
 21
-105.91749349999998
  0
LINE
  8
_0-0_レイヤ___1
  6
CONTINUOUS
 62
    7
 10
724.78999550000003
 20
-105.91749349999998
 11
732.58999549999999
 21
-103.81749349999996
  0
LINE
  8
_0-0_レイヤ___1
  6
CONTINUOUS
 62
    7
 10
732.58999549999999
 20
-103.81749349999996
 11
740.23999550000008
 21
-101.26749349999994
  0
ARC
  8
_0-0_レイヤ___1
  6
CONTINUOUS
 62
    7
 10
741.39499550000005
 20
-103.35749349999998
 40
2.5649999999999999
 50
97.945420999999982
 51
116.76260499999998
  0
ARC
  8
_0-0_レイヤ___1
  6
CONTINUOUS
 62
    7
 10
762.3199955
 20
-274.16249149999999
 40
174.84499700000001
 50
96.429366999999999
 51
96.990285
  0
ARC
  8
_0-0_レイヤ___1
  6
CONTINUOUS
 62
    7
 10
742.6799954999999
 20
-88.557494499999962
 40
12.06
 50
269.32831599999997
 51
288.90742699999998
  0
ARC
  8
_0-0_レイヤ___1
  6
CONTINUOUS
 62
    7
 10
740.27999550000004
 20
-86.687494499999957
 40
14.789999999999999
 50
296.11813100000001
 51
317.827406
  0
ARC
  8
_0-0_レイヤ___1
  6
CONTINUOUS
 62
    7
 10
739.64499550000005
 20
-88.127494499999955
 40
14.17
 50
323.19423399999999
 51
356.599198
  0
ARC
  8
_0-0_レイヤ___1
  6
CONTINUOUS
 62
    7
 10
741.33999549999999
 20
-89.032494499999984
 40
12.449999999999999
 50
0.307917
 51
39.185752000000001
  0
ARC
  8
_0-0_レイヤ___1
  6
CONTINUOUS
 62
    7
 10
737.72999550000009
 20
-90.827494499999943
 40
16.555
 50
36.774653000000001
 51
53.225337000000003
  0
LINE
  8
_0-0_レイヤ___1
  6
CONTINUOUS
 62
    7
 10
747.83999549999999
 20
-77.767494499999941
 11
745.48999550000008
 21
-76.067494499999952
  0
ARC
  8
_0-0_レイヤ___1
  6
CONTINUOUS
 62
    7
 10
732.51499549999994
 20
-93.817493499999955
 40
21.754999999999999
 50
54.690035000000002
 51
89.280560999999992
  0
LINE
  8
_0-0_レイヤ___1
  6
CONTINUOUS
 62
    7
 10
732.78999550000003
 20
-71.817494499999952
 11
730.88999549999994
 21
-71.817494499999952
  0
ARC
  8
_0-0_レイヤ___1
  6
CONTINUOUS
 62
    7
 10
730.9699955000001
 20
-117.48249349999998
 40
45.664999000000002
 50
90.097547999999989
 51
99.679232999999996
  0
ARC
  8
_0-0_レイヤ___1
  6
CONTINUOUS
 62
    7
 10
732.54499549999991
 20
-119.71749349999999
 40
47.949998999999998
 50
101.12577
 51
112.503609
  0
LINE
  8
_0-0_レイヤ___1
  6
CONTINUOUS
 62
    7
 10
714.38999549999994
 20
-75.417494499999975
 11
711.4399954999999
 21
-76.067494499999952
  0
ARC
  8
_0-0_レイヤ___1
  6
CONTINUOUS
 62
    7
 10
713.43499550000001
 20
-83.967494499999987
 40
8.0099999999999998
 50
105.92040299999999
 51
121.1841
  0
LINE
  8
_0-0_レイヤ___1
  6
CONTINUOUS
 62
    7
 10
709.28999550000003
 20
-76.917494499999975
 11
701.88999549999994
 21
-80.717494499999987
  0
LINE
  8
_0-0_レイヤ___1
  6
CONTINUOUS
 62
    7
 10
741.88999549999994
 20
-156.71749349999993
 11
691.93999650000001
 21
-149.5174935
  0
LINE
  8
_0-0_レイヤ___1
  6
CONTINUOUS
 62
    7
 10
719.6899954999999
 20
-175.56749249999996
 11
692.5899965000001
 21
-152.66749349999998
  0
ARC
  8
_0-0_レイヤ___1
  6
CONTINUOUS
 62
    7
 10
711.62499550000007
 20
-83.947494499999948
 40
7.0949999999999998
 50
57.463573000000004
 51
74.33194300000001
  0
ARC
  8
_0-0_レイヤ___1
  6
CONTINUOUS
 62
    7
 10
715.51999550000005
 20
-78.687494499999957
 40
0.8149999999999999
 50
19.234203000000001
 51
66.370053999999996
  0
ARC
  8
_0-0_レイヤ___1
  6
CONTINUOUS
 62
    7
 10
714.73999550000008
 20
-80.002494499999955
 40
2.3399999999999999
 50
61.722603000000007
 51
72.551644999999994
  0
ARC
  8
_0-0_レイヤ___1
  6
CONTINUOUS
 62
    7
 10
716.10499550000009
 20
-78.777494499999989
 40
0.635
 50
356.25165800000002
 51
73.138641000000007
  0
ARC
  8
_0-0_レイヤ___1
  6
CONTINUOUS
 62
    7
 10
716.0699955
 20
-79.16249449999998
 40
0.655
 50
309.47025099999996
 51
356.95722000000001
  0
ARC
  8
_0-0_レイヤ___1
  6
CONTINUOUS
 62
    7
 10
715.08999549999999
 20
-78.957494499999939
 40
1.655
 50
351.69148200000001
 51
4.7899330000000271
  0
LINE
  8
_0-0_レイヤ___1
  6
CONTINUOUS
 62
    7
 10
716.48999550000008
 20
-79.667494499999975
 11
715.03999550000003
 21
-81.767494499999941
  0
LINE
  8
_0-0_レイヤ___1
  6
CONTINUOUS
 62
    7
 10
715.03999550000003
 20
-81.767494499999941
 11
710.38999549999994
 21
-87.267494499999941
  0
LINE
  8
_0-0_レイヤ___1
  6
CONTINUOUS
 62
    7
 10
710.38999549999994
 20
-87.267494499999941
 11
704.88999549999994
 21
-93.617493499999966
  0
ARC
  8
_0-0_レイヤ___1
  6
CONTINUOUS
 62
    7
 10
738.03499549999992
 20
-102.35749349999998
 40
5.6200000000000001
 50
43.093688999999998
 51
71.806291999999999
  0
LINE
  8
_0-0_レイヤ___1
  6
CONTINUOUS
 62
    7
 10
739.58999549999999
 20
-97.017493499999944
 11
739.38999549999994
 21
-97.017493499999944
  0
LINE
  8
_0-0_レイヤ___1
  6
CONTINUOUS
 62
    7
 10
739.38999549999994
 20
-97.017493499999944
 11
738.9399954999999
 21
-97.017493499999944
  0
LINE
  8
_0-0_レイヤ___1
  6
CONTINUOUS
 62
    7
 10
739.13999549999994
 20
-97.017493499999944
 11
736.63999549999994
 21
-97.467493499999989
  0
LINE
  8
_0-0_レイヤ___1
  6
CONTINUOUS
 62
    7
 10
736.63999549999994
 20
-97.467493499999989
 11
731.13999549999994
 21
-98.517493499999944
  0
LINE
  8
_0-0_レイヤ___1
  6
CONTINUOUS
 62
    7
 10
731.13999549999994
 20
-98.517493499999944
 11
725.38999549999994
 21
-99.767493499999944
  0
LINE
  8
_0-0_レイヤ___1
  6
CONTINUOUS
 62
    7
 10
725.38999549999994
 20
-99.767493499999944
 11
720.73999550000008
 21
-100.81749349999996
  0
LINE
  8
_0-0_レイヤ___1
  6
CONTINUOUS
 62
    7
 10
720.73999550000008
 20
-100.81749349999996
 11
712.28999550000003
 21
-102.96749349999999
  0
LINE
  8
_0-0_レイヤ___1
  6
CONTINUOUS
 62
    7
 10
712.28999550000003
 20
-102.96749349999999
 11
707.38999549999994
 21
-104.21749349999999
  0
ARC
  8
_0-0_レイヤ___1
  6
CONTINUOUS
 62
    7
 10
725.95999549999988
 20
-166.94249249999996
 40
18.954999999999998
 50
241.59164300000003
 51
250.19605700000005
  0
ARC
  8
_0-0_レイヤ___1
  6
CONTINUOUS
 62
    7
 10
740.39499550000005
 20
-125.77249349999994
 40
62.584999000000003
 50
250.53024500000004
 51
253.94727700000004
  0
ARC
  8
_0-0_レイヤ___1
  6
CONTINUOUS
 62
    7
 10
711.47999550000009
 20
-190.74749249999996
 40
8.8200000000000003
 50
51.769891999999992
 51
61.873071999999993
  0
LINE
  8
_0-0_レイヤ___1
  6
CONTINUOUS
 62
    7
 10
715.88999549999994
 20
-183.16749249999998
 11
712.6899954999999
 21
-180.61749249999997
  0
LINE
  8
_0-0_レイヤ___1
  6
CONTINUOUS
 62
    7
 10
712.6899954999999
 20
-180.61749249999997
 11
707.83999549999999
 21
-177.66749249999998
  0
LINE
  8
_0-0_レイヤ___1
  6
CONTINUOUS
 62
    7
 10
707.83999549999999
 20
-177.66749249999998
 11
706.53999550000003
 21
-177.0174925
  0
LINE
  8
_0-0_レイヤ___1
  6
CONTINUOUS
 62
    7
 10
706.53999550000003
 20
-177.0174925
 11
681.13999650000005
 21
-160.96749249999993
  0
LINE
  8
_0-0_レイヤ___1
  6
CONTINUOUS
 62
    7
 10
681.13999650000005
 20
-160.96749249999993
 11
673.73999649999996
 21
-155.41749349999998
  0
LINE
  8
_0-0_レイヤ___1
  6
CONTINUOUS
 62
    7
 10
673.73999649999996
 20
-155.41749349999998
 11
673.3399965000001
 21
-117.56749349999996
  0
LINE
  8
_0-0_レイヤ___1
  6
CONTINUOUS
 62
    7
 10
673.3399965000001
 20
-117.56749349999996
 11
673.73999649999996
 21
-106.11749349999997
  0
LINE
  8
_0-0_レイヤ___1
  6
CONTINUOUS
 62
    7
 10
673.73999649999996
 20
-106.11749349999997
 11
674.18999650000001
 21
-102.31749349999996
  0
ARC
  8
_0-0_レイヤ___1
  6
CONTINUOUS
 62
    7
 10
700.23999550000008
 20
-106.09249349999999
 40
26.324999999999999
 50
146.898414
 51
171.75270100000003
  0
ARC
  8
_0-0_レイヤ___1
  6
CONTINUOUS
 62
    7
 10
692.6849964999999
 20
-100.40249349999999
 40
17.07
 50
116.78865900000001
 51
149.40708599999999
  0
ARC
  8
_0-0_レイヤ___1
  6
CONTINUOUS
 62
    7
 10
691.09499649999998
 20
-100.03749349999998
 40
16.184999999999999
 50
111.394796
 51
142.86702500000001
  0
ARC
  8
_0-0_レイヤ___1
  6
CONTINUOUS
 62
    7
 10
694.97999649999997
 20
-104.36249349999997
 40
21.795000000000002
 50
140.385828
 51
160.85833900000003
  0
ARC
  8
_0-0_レイヤ___1
  6
CONTINUOUS
 62
    7
 10
686.16499649999992
 20
-103.00749349999995
 40
13.119999999999999
 50
153.818129
 51
164.319872
  0
ARC
  8
_0-0_レイヤ___1
  6
CONTINUOUS
 62
    7
 10
694.62499649999995
 20
-105.31249349999996
 40
21.890000000000001
 50
164.50036900000001
 51
173.19689299999999
  0
LINE
  8
_0-0_レイヤ___1
  6
CONTINUOUS
 62
    7
 10
672.88999650000005
 20
-102.96749349999999
 11
672.48999649999996
 21
-106.56749349999996
  0
LINE
  8
_0-0_レイヤ___1
  6
CONTINUOUS
 62
    7
 10
672.48999649999996
 20
-106.56749349999996
 11
672.28999649999992
 21
-111.81749349999996
  0
LINE
  8
_0-0_レイヤ___1
  6
CONTINUOUS
 62
    7
 10
672.28999649999992
 20
-111.81749349999996
 11
672.03999649999992
 21
-117.96749349999999
  0
LINE
  8
_0-0_レイヤ___1
  6
CONTINUOUS
 62
    7
 10
672.03999649999992
 20
-117.96749349999999
 11
672.48999649999996
 21
-156.06749349999996
  0
LINE
  8
_0-0_レイヤ___1
  6
CONTINUOUS
 62
    7
 10
672.48999649999996
 20
-156.06749349999996
 11
677.13999650000005
 21
-159.46749249999993
  0
LINE
  8
_0-0_レイヤ___1
  6
CONTINUOUS
 62
    7
 10
677.13999650000005
 20
-159.46749249999993
 11
691.3399965000001
 21
-169.21749249999993
  0
LINE
  8
_0-0_レイヤ___1
  6
CONTINUOUS
 62
    7
 10
691.3399965000001
 20
-169.21749249999993
 11
705.28999550000003
 21
-177.66749249999998
  0
LINE
  8
_0-0_レイヤ___1
  6
CONTINUOUS
 62
    7
 10
705.28999550000003
 20
-177.66749249999998
 11
711.4399954999999
 21
-181.2674925
  0
LINE
  8
_0-0_レイヤ___1
  6
CONTINUOUS
 62
    7
 10
712.6899954999999
 20
-181.91749249999998
 11
711.23999550000008
 21
-181.06749249999996
  0
ARC
  8
_0-0_レイヤ___1
  6
CONTINUOUS
 62
    7
 10
723.16999549999991
 20
-171.5174925
 40
14.765000000000001
 50
224.77984900000001
 51
239.33587299999999
  0
ARC
  8
_0-0_レイヤ___1
  6
CONTINUOUS
 62
    7
 10
725.71499549999999
 20
-165.98749249999997
 40
20.710000000000001
 50
241.68105399999996
 51
259.78038099999998
  0
ARC
  8
_0-0_レイヤ___1
  6
CONTINUOUS
 62
    7
 10
731.80999550000001
 20
-154.57249349999995
 40
33.454999999999998
 50
253.015691
 51
271.33284000000003
  0
ARC
  8
_0-0_レイヤ___1
  6
CONTINUOUS
 62
    7
 10
732.61499550000008
 20
-188.13749250000001
 40
0.125
 50
101.56221400000001
 51
263.49239999999998
  0
ARC
  8
_0-0_レイヤ___1
  6
CONTINUOUS
 62
    7
 10
732.85499550000009
 20
-186.51249250000001
 40
1.7649999999999999
 50
261.77721700000001
 51
276.080037
  0
ARC
  8
_0-0_レイヤ___1
  6
CONTINUOUS
 62
    7
 10
732.91499550000003
 20
-163.13249249999996
 40
25.135000000000002
 50
270.28419700000001
 51
284.87
  0
ARC
  8
_0-0_レイヤ___1
  6
CONTINUOUS
 62
    7
 10
728.12999549999995
 20
-143.75249349999996
 40
45.094999000000001
 50
284.42494799999997
 51
291.47337599999997
  0
ARC
  8
_0-0_レイヤ___1
  6
CONTINUOUS
 62
    7
 10
741.77999550000004
 20
-139.30749349999996
 40
48.824998999999998
 50
260.16698399999996
 51
261.65248399999996
  0
ARC
  8
_0-0_レイヤ___1
  6
CONTINUOUS
 62
    7
 10
734.53999550000003
 20
-163.23249249999998
 40
24.385000000000002
 50
270.35249599999997
 51
285.13257800000002
  0
ARC
  8
_0-0_レイヤ___1
  6
CONTINUOUS
 62
    7
 10
730.74999550000007
 20
-147.56749349999996
 40
40.494999
 50
284.52596499999993
 51
290.43866800000001
  0
ARC
  8
_0-0_レイヤ___1
  6
CONTINUOUS
 62
    7
 10
732.8449955000001
 20
-156.36249349999997
 40
31.059999999999999
 50
252.08626099999998
 51
271.10074100000003
  0
ARC
  8
_0-0_レイヤ___1
  6
CONTINUOUS
 62
    7
 10
740.64499550000005
 20
-88.217494499999987
 40
12.904999999999999
 50
298.42847999999998
 51
357.56076000000002
  0
ARC
  8
_0-0_レイヤ___1
  6
CONTINUOUS
 62
    7
 10
742.97499549999998
 20
-88.652494499999989
 40
10.565
 50
359.38400799999999
 51
28.159187999999986
  0
ARC
  8
_0-0_レイヤ___1
  6
CONTINUOUS
 62
    7
 10
745.18499550000001
 20
-97.142493499999944
 40
3.0800000000000001
 50
271.96282400000001
 51
301.43568099999999
  0
LINE
  8
_0-0_レイヤ___1
  6
CONTINUOUS
 62
    7
 10
745.48999550000008
 20
-100.21749349999999
 11
742.33999549999999
 21
-100.61749349999997
  0
ARC
  8
_0-0_レイヤ___1
  6
CONTINUOUS
 62
    7
 10
742.72499549999998
 20
-107.72749349999998
 40
6.9199999999999999
 50
93.170062000000001
 51
111.019429
  0
ARC
  8
_0-0_レイヤ___1
  6
CONTINUOUS
 62
    7
 10
738.50999550000006
 20
-98.792493499999978
 40
2.8849999999999998
 50
274.59252700000002
 51
300.89683200000002
  0
LINE
  8
_0-0_レイヤ___1
  6
CONTINUOUS
 62
    7
 10
738.9399954999999
 20
-101.66749349999998
 11
731.9399954999999
 21
-104.01749349999994
  0
LINE
  8
_0-0_レイヤ___1
  6
CONTINUOUS
 62
    7
 10
731.9399954999999
 20
-104.01749349999994
 11
719.23999550000008
 21
-107.61749349999997
  0
LINE
  8
_0-0_レイヤ___1
  6
CONTINUOUS
 62
    7
 10
719.23999550000008
 20
-107.61749349999997
 11
706.53999550000003
 21
-111.21749349999999
  0
LINE
  8
_0-0_レイヤ___1
  6
CONTINUOUS
 62
    7
 10
706.53999550000003
 20
-111.21749349999999
 11
701.48999550000008
 21
-112.46749349999999
  0
LINE
  8
_0-0_レイヤ___1
  6
CONTINUOUS
 62
    7
 10
701.48999550000008
 20
-113.76749349999994
 11
701.48999550000008
 21
-112.46749349999999
  0
LINE
  8
_0-0_レイヤ___1
  6
CONTINUOUS
 62
    7
 10
701.48999550000008
 20
-113.76749349999994
 11
713.33999549999999
 21
-110.36749349999997
  0
LINE
  8
_0-0_レイヤ___1
  6
CONTINUOUS
 62
    7
 10
713.33999549999999
 20
-110.36749349999997
 11
725.1899954999999
 21
-106.96749349999999
  0
LINE
  8
_0-0_レイヤ___1
  6
CONTINUOUS
 62
    7
 10
725.1899954999999
 20
-106.96749349999999
 11
732.78999550000003
 21
-104.86749349999997
  0
LINE
  8
_0-0_レイヤ___1
  6
CONTINUOUS
 62
    7
 10
732.78999550000003
 20
-104.86749349999997
 11
740.4399954999999
 21
-102.31749349999996
  0
ARC
  8
_0-0_レイヤ___1
  6
CONTINUOUS
 62
    7
 10
741.4549955
 20
-103.57249349999995
 40
1.4650000000000001
 50
96.518693999999996
 51
133.88352699999999
  0
ARC
  8
_0-0_レイヤ___1
  6
CONTINUOUS
 62
    7
 10
743.3449955000001
 20
-106.55249349999997
 40
4.8849999999999998
 50
91.798563999999985
 51
114.85047599999999
  0
ARC
  8
_0-0_レイヤ___1
  6
CONTINUOUS
 62
    7
 10
743.03499549999992
 20
-87.857494499999973
 40
13.609999999999999
 50
269.81606799999997
 51
287.77877100000001
  0
ARC
  8
_0-0_レイヤ___1
  6
CONTINUOUS
 62
    7
 10
744.28999550000003
 20
-92.517493499999944
 40
8.8599999999999994
 50
290.46853700000003
 51
326.02432599999997
  0
ARC
  8
_0-0_レイヤ___1
  6
CONTINUOUS
 62
    7
 10
741.69999549999989
 20
-89.387494499999946
 40
12.5
 50
321.20433700000007
 51
358.02335900000008
  0
ARC
  8
_0-0_レイヤ___1
  6
CONTINUOUS
 62
    7
 10
742.20999549999988
 20
-89.817494499999952
 40
11.98
 50
0.009775
 51
30.894242999999996
  0
LINE
  8
_0-0_レイヤ___1
  6
CONTINUOUS
 62
    7
 10
729.4399954999999
 20
-164.7674925
 11
766.68999450000001
 21
-98.917493499999978
  0
LINE
  8
_0-0_レイヤ___1
  6
CONTINUOUS
 62
    7
 10
766.68999450000001
 20
-98.917493499999978
 11
773.03999449999992
 21
-98.917493499999978
  0
LINE
  8
_0-0_レイヤ___1
  6
CONTINUOUS
 62
    7
 10
698.0899965000001
 20
7.3325045000000273
 11
728.13999549999994
 21
58.982503500000007
  0
LINE
  8
_0-0_レイヤ___1
  6
CONTINUOUS
 62
    7
 10
728.13999549999994
 20
58.982503500000007
 11
741.88999549999994
 21
58.982503500000007
  0
LINE
  8
_0-0_レイヤ___1
  6
CONTINUOUS
 62
    7
 10
688.3399965000001
 20
-61.267494499999941
 11
718.63999549999994
 21
-9.81749549999995
  0
LINE
  8
_0-0_レイヤ___1
  6
CONTINUOUS
 62
    7
 10
718.63999549999994
 20
-9.81749549999995
 11
732.38999549999994
 21
-9.81749549999995
  0
LINE
  8
_0-0_レイヤ___1
  6
CONTINUOUS
 62
    7
 10
750.98999550000008
 20
-234.61749149999991
 11
784.23999449999997
 21
-176.41749249999998
  0
LINE
  8
_0-0_レイヤ___1
  6
CONTINUOUS
 62
    7
 10
784.23999449999997
 20
-176.41749249999998
 11
802.23999449999997
 21
-176.41749249999998
  0
LINE
  8
_0-0_レイヤ___1
  6
CONTINUOUS
 62
    7
 10
585.08999749999998
 20
-70.117494499999964
 11
545.88999850000005
 21
-3.6674954999999727
  0
LINE
  8
_0-0_レイヤ___1
  6
CONTINUOUS
 62
    7
 10
526.23999849999996
 20
-3.6674954999999727
 11
545.88999850000005
 21
-3.6674954999999727
  0
LINE
  8
_0-0_レイヤ___1
  6
CONTINUOUS
 62
    7
 10
571.73999750000007
 20
-9.3674954999999613
 11
532.78999849999991
 21
57.08250350000003
  0
LINE
  8
_0-0_レイヤ___1
  6
CONTINUOUS
 62
    7
 10
512.88999850000005
 20
57.08250350000003
 11
532.78999849999991
 21
57.08250350000003
  0
LINE
  8
_0-0_レイヤ___1
  6
CONTINUOUS
 62
    7
 10
643.68999650000001
 20
-23.56749549999995
 11
580.38999749999994
 21
85.032503500000018
  0
LINE
  8
_0-0_レイヤ___1
  6
CONTINUOUS
 62
    7
 10
560.73999849999996
 20
85.032503500000018
 11
580.38999749999994
 21
85.032503500000018
  0
LINE
  8
_0-0_レイヤ___1
  6
CONTINUOUS
 62
    7
 10
533.4399985
 20
-138.31749349999996
 11
494.48999950000001
 21
-71.617494499999964
  0
LINE
  8
_0-0_レイヤ___1
  6
CONTINUOUS
 62
    7
 10
474.78999949999996
 20
-71.617494499999964
 11
494.48999950000001
 21
-71.617494499999964
  0
LINE
  8
_0-0_レイヤ___1
  6
CONTINUOUS
 62
    7
 10
559.03999849999991
 20
-195.66749249999998
 11
651.93999650000001
 21
-195.66749249999998
  0
LINE
  8
_0-0_レイヤ___1
  6
CONTINUOUS
 62
    7
 10
498.28999849999997
 20
-195.66749249999998
 11
544.4399985
 21
-195.66749249999998
  0
LINE
  8
_0-0_レイヤ___1
  6
CONTINUOUS
 62
    7
 10
498.28999849999997
 20
-195.66749249999998
 11
536.78999849999991
 21
-67.167494499999975
  0
LINE
  8
_0-0_レイヤ___1
  6
CONTINUOUS
 62
    7
 10
536.78999849999991
 20
-67.167494499999975
 11
563.88999850000005
 21
-67.167494499999975
  0
LINE
  8
_0-0_レイヤ___1
  6
CONTINUOUS
 62
    7
 10
498.68999849999994
 20
-200.31749249999996
 11
541.88999850000005
 21
-200.31749249999996
  0
LINE
  8
_0-0_レイヤ___1
  6
CONTINUOUS
 62
    7
 10
498.68999849999994
 20
-200.31749249999996
 11
498.08999850000004
 21
-195.86749249999997
  0
LINE
  8
_0-0_レイヤ___1
  6
CONTINUOUS
 62
    7
 10
631.63999650000005
 20
-20.417495499999973
 11
638.18999650000001
 21
-20.167495499999973
  0
TEXT
  8
_0-0_レイヤ___1
 62
    7
 10
393.51000049999999
 20
463.05249750000007
 40
16
 41
1
 50
0
  1
臭気筒廻り納まりイメージ
  0
TEXT
  8
_0-0_レイヤ___1
 62
    7
 10
447.63454484267208
 20
76.325542655224524
 40
16
 41
1
 50
0
  1
AYブチルテープ
  0
TEXT
  8
_0-0_レイヤ___1
 62
    7
 10
368.49158674070333
 20
49.57299343765763
 40
16
 41
1
 50
0
  1
AYステンレスバンド
  0
TEXT
  8
_0-0_レイヤ___1
 62
    7
 10
419.86019687026749
 20
-11.64204105670558
 40
16
 41
1
 50
0
  1
AYボンド580NF
  0
TEXT
  8
_0-0_レイヤ___1
 62
    7
 10
743.12016658253413
 20
50.78057378428386
 40
16
 41
1
 50
0
  1
ＡＹシールＭＳ-1
  0
TEXT
  8
_0-0_レイヤ___1
 62
    7
 10
731.9732710752146
 20
-17.772833585731291
 40
16
 41
1
 50
0
  1
リベットルーフ
  0
TEXT
  8
_0-0_レイヤ___1
 62
    7
 10
393.38632004038362
 20
-79.080758875988749
 40
16
 41
1
 50
0
  1
硬質塩ビ板
  0
TEXT
  8
_0-0_レイヤ___1
 62
    7
 10
390.59959616355371
 20
-99.145170789163899
 40
16
 41
1
 50
0
  1
またはFL鋼板
  0
TEXT
  8
_0-0_レイヤ___1
 62
    7
 10
774.33147400302892
 20
-107.69112401144224
 40
16
 41
1
 50
0
  1
切り開き部
  0
TEXT
  8
_0-0_レイヤ___1
 62
    7
 10
774.33147400302892
 20
-127.01240955746277
 40
16
 41
1
 50
0
  1
リベットルーフ増し貼り
  0
TEXT
  8
_0-0_レイヤ___1
 62
    7
 10
803.72499450000009
 20
-182.74749249999996
 40
16
 41
1
 50
0
  1
リベットルーフ
  0
ENDSEC
  0
EOF
