  0
SECTION
  2
HEADER
  9
$ACADVER
  1
AC1009
  9
$INSBASE
 10
0
 20
0
 30
0
  9
$EXTMIN
 10
0
 20
0
  9
$EXTMAX
 10
2970
 20
2100
  9
$LIMMIN
 10
0
 20
0
  9
$LIMMAX
 10
2970
 20
2100
  9
$LTSCALE
 40
10
  0
ENDSEC
  0
SECTION
  2
TABLES
  0
TABLE
  2
LTYPE
 70
     9
  0
LTYPE
  2
CONTINUOUS
 70
    64
  3
実線
 72
    65
 73
     0
 40
0.0
  0
LTYPE
  2
DASHED1
 70
    64
  3
--  --  --  --  --  --  --  --  
 72
    65
 73
     2
 40
2.5
 49
1.25
 49
-1.25
  0
LTYPE
  2
DASHED2
 70
    64
  3
----    ----    ----    ----    
 72
    65
 73
     2
 40
5.0
 49
2.5
 49
-2.5
  0
LTYPE
  2
DASHED3
 70
    64
  3
------  ------  ------  ------  
 72
    65
 73
     2
 40
5.0
 49
3.75
 49
-1.25
  0
LTYPE
  2
CENTER1
 70
    64
  3
----- - ----- - ----- - ----- - 
 72
    65
 73
     4
 40
10.0
 49
6.25
 49
-1.25
 49
1.25
 49
-1.25
  0
LTYPE
  2
CENTER2
 70
    64
  3
----------  --  ----------  --  
 72
    65
 73
     4
 40
20.0
 49
12.5
 49
-2.5
 49
2.5
 49
-2.5
  0
LTYPE
  2
PHANTOM1
 70
    64
  3
--- - - --- - - --- - - --- - - 
 72
    65
 73
     6
 40
10.0
 49
3.25
 49
-1.25
 49
1.25
 49
-1.25
 49
1.25
 49
-1.25
  0
LTYPE
  2
PHANTOM2
 70
    64
  3
--------  -  -  --------  -  -  
 72
    65
 73
     6
 40
20.0
 49
10.0
 49
-2.5
 49
1.25
 49
-2.5
 49
1.25
 49
-2.5
  0
LTYPE
  2
DOT
 70
    64
  3
-   -   -   -   -   -   -   -   
 72
    65
 73
     2
 40
2.5
 49
0.625
 49
-1.875
  0
LTYPE
  2
DUMMY
 70
    64
  3
ダミー
 72
    65
 73
     0
 40
0.0
  0
LTYPE
  2
RAND1
 70
    64
  3
ランダム線1
 72
    65
 73
     4
 40
10.0
 49
1.0
 49
-2.0
 49
3.0
 49
-4.0
  0
LTYPE
  2
RAND2
 70
    64
  3
ランダム線2
 72
    65
 73
     4
 40
14.0
 49
2.0
 49
-3.0
 49
4.0
 49
-5.0
  0
LTYPE
  2
RAND3
 70
    64
  3
ランダム線3
 72
    65
 73
     4
 40
18.0
 49
3.0
 49
-4.0
 49
5.0
 49
-6.0
  0
LTYPE
  2
RAND4
 70
    64
  3
ランダム線4
 72
    65
 73
     4
 40
22.0
 49
4.0
 49
-5.0
 49
6.0
 49
-7.0
  0
LTYPE
  2
RAND5
 70
    64
  3
ランダム線5
 72
    65
 73
     4
 40
26.0
 49
5.0
 49
-6.0
 49
7.0
 49
-8.0
  0
LTYPE
  2
LONG1
 70
    64
  3
----------  --  ----------  --  
 72
    65
 73
     4
 40
40.0
 49
32.5
 49
-2.5
 49
2.5
 49
-2.5
  0
LTYPE
  2
LONG2
 70
    64
  3
--------  -  -  --------  -  -  
 72
    65
 73
     6
 40
40.0
 49
30.0
 49
-2.5
 49
1.25
 49
-2.5
 49
1.25
 49
-2.5
  0
LTYPE
  2
LONG3
 70
    64
  3
+++++++++++++++..+++++++++++++++
 72
    65
 73
     2
 40
40.0
 49
37.5
 49
-2.5
  0
LTYPE
  2
LONG4
 70
    64
  3
+++++++++++++++..+++++++++++++++
 72
    65
 73
     2
 40
80.0
 49
75.0
 49
-5.0
  0
LTYPE
  2
LONG5
 70
    64
  3
----------  --  ----------  --  
 72
    65
 73
     4
 40
60.0
 49
37.5
 49
-7.5
 49
7.5
 49
-7.5
  0
LTYPE
  2
dashed
 70
   64
  3
-------   -------------   ------
 72
   65
 73
    2
 40
7.5
 49
6
 49
-1.5
  0
LTYPE
  2
dashed_spaced
 70
   64
  3
----        --------        ----
 72
   65
 73
    2
 40
12
 49
6
 49
-6
  0
LTYPE
  2
long_dashed_dotted
 70
   64
  3
------------- --- --------------
 72
   65
 73
    4
 40
15.25
 49
12
 49
-1.5
 49
0.25
 49
-1.5
  0
LTYPE
  2
long_dashed_double-dotted
 70
   64
  3
----------- --- --- ------------
 72
   65
 73
    6
 40
17
 49
12
 49
-1.5
 49
0.25
 49
-1.5
 49
0.25
 49
-1.5
  0
LTYPE
  2
long_dashed_triplicate-dotted
 70
   64
  3
--------- --- --- --- ----------
 72
   65
 73
    8
 40
18.75
 49
12
 49
-1.5
 49
0.25
 49
-1.5
 49
0.25
 49
-1.5
 49
0.25
 49
-1.5
  0
LTYPE
  2
dotted
 70
   64
  3
   -       -       -       -    
 72
   65
 73
    2
 40
1.75
 49
0.25
 49
-1.5
  0
LTYPE
  2
chain
 70
   64
  3
-------------- -- --------------
 72
   65
 73
    4
 40
18.5
 49
12
 49
-1.5
 49
3.5
 49
-1.5
  0
LTYPE
  2
chain_double_dash
 70
   64
  3
------------ -- -- -------------
 72
   65
 73
    6
 40
23.5
 49
12
 49
-1.5
 49
3.5
 49
-1.5
 49
3.5
 49
-1.5
  0
LTYPE
  2
dashed_dotted
 70
   64
  3
-----------     -     ----------
 72
   65
 73
    4
 40
9.25
 49
6
 49
-1.5
 49
0.25
 49
-1.5
  0
LTYPE
  2
double-dashed_dotted
 70
   64
  3
------   -----------   -   -----
 72
   65
 73
    6
 40
16.75
 49
6
 49
-1.5
 49
6
 49
-1.5
 49
0.25
 49
-1.5
  0
LTYPE
  2
dashed_double-dotted
 70
   64
  3
---------    -    -    ---------
 72
   65
 73
    6
 40
11
 49
6
 49
-1.5
 49
0.25
 49
-1.5
 49
0.25
 49
-1.5
  0
LTYPE
  2
double-dashed_double-dotted
 70
   64
  3
-----   ---------   -   -   ----
 72
   65
 73
    8
 40
18.5
 49
6
 49
-1.5
 49
6
 49
-1.5
 49
0.25
 49
-1.5
 49
0.25
 49
-1.5
  0
LTYPE
  2
dashed_triplicate-dotted
 70
   64
  3
-------    -    -    -    ------
 72
   65
 73
    8
 40
12.75
 49
6
 49
-1.5
 49
0.25
 49
-1.5
 49
0.25
 49
-1.5
 49
0.25
 49
-1.5
  0
LTYPE
  2
double-dashed_triplicate-dotted
 70
   64
  3
-----  ---------  -  -  -  -----
 72
   65
 73
   10
 40
20.25
 49
6
 49
-1.5
 49
6
 49
-1.5
 49
0.25
 49
-1.5
 49
0.25
 49
-1.5
 49
0.25
 49
-1.5
  0
LTYPE
  2
undefined
 70
   64
  3
--------------------------------
 72
   65
 73
    0
 40
0
  0
LTYPE
  2
AIGENLINE001
 70
   64
  3
----        --------        ----
 72
   65
 73
    2
 40
4.5800000000000001
 49
2.29
 49
-2.29
  0
LTYPE
  2
AIGENLINE002
 70
   64
  3
------     -----------     -----
 72
   65
 73
    2
 40
6.8700000000000001
 49
4.5800000000000001
 49
-2.29
  0
ENDTAB
  0
TABLE
  2
STYLE
  5
3
100
AcDbSymbolTable
 70
     1
  0
STYLE
  5
10
100
AcDbSymbolTableRecord
100
AcDbTextStyleTableRecord
  2
STANDARD
 70
     0
 40
0.0
 41
1.0
 50
0.0
 71
     0
 42
0.2
  3
txt
  4
bigfont.shx
  0
STYLE
  5
26
100
AcDbSymbolTableRecord
100
AcDbTextStyleTableRecord
  2
TATEGAKI
 70
    68
 40
0.0
 41
1.0
 50
0.0
 71
     0
 42
1.0
  3
txt
  4
bigfont.shx
  0
ENDTAB
  0
TABLE
  2
LAYER
 70
    4
  0
LAYER
  2
_0-0_文字
 70
   64
 62
    7
  6
CONTINUOUS
  0
LAYER
  2
_0-1_レイヤ___3
 70
   64
 62
    7
  6
CONTINUOUS
  0
LAYER
  2
_0-2_決定
 70
   64
 62
    7
  6
CONTINUOUS
  0
LAYER
  2
ADD_LINE
 70
   64
 62
    7
  6
CONTINUOUS
  0
ENDTAB
  0
ENDSEC
  0
SECTION
  2
BLOCKS
  0
ENDSEC
  0
SECTION
  2
ENTITIES
  0
ARC
  8
_0-1_レイヤ___3
  6
CONTINUOUS
 62
    7
 10
-7457.1225270732621
 20
10245.265671888299
 40
100.75331131322194
 50
212.54457606520913
 51
215.40440375223901
  0
ARC
  8
_0-1_レイヤ___3
  6
CONTINUOUS
 62
    7
 10
-7368.9514147695209
 20
10307.718363524889
 40
208.80176608438552
 50
215.35576722286694
 51
221.36723647424384
  0
ARC
  8
_0-1_レイヤ___3
  6
CONTINUOUS
 62
    7
 10
-7295.4624294196119
 20
10370.285434729602
 40
305.30820552446175
 50
221.06477429997616
 51
231.22765018658944
  0
ARC
  8
_0-1_レイヤ___3
  6
CONTINUOUS
 62
    7
 10
-7258.362933726452
 20
10413.75814627555
 40
362.43800051855288
 50
230.95883511048854
 51
251.35346403312775
  0
ARC
  8
_0-1_レイヤ___3
  6
CONTINUOUS
 62
    7
 10
-7236.372632740311
 20
10469.15351598549
 40
421.96811857702386
 50
250.92920805381576
 51
264.01576111916944
  0
ARC
  8
_0-1_レイヤ___3
  6
CONTINUOUS
 62
    7
 10
-7225.624236278828
 20
10543.900922169672
 40
497.43720610569824
 50
263.68207230856342
 51
270.12317171358148
  0
ARC
  8
_0-1_レイヤ___3
  6
CONTINUOUS
 62
    7
 10
-6992.0793464044109
 20
10245.524901377814
 40
100.97057184263099
 50
324.50269853745323
 51
327.35954730735853
  0
ARC
  8
_0-1_レイヤ___3
  6
CONTINUOUS
 62
    7
 10
-7080.3419905560786
 20
10307.947173220191
 40
209.07582118488784
 50
318.61534655888227
 51
324.62063211809948
  0
ARC
  8
_0-1_レイヤ___3
  6
CONTINUOUS
 62
    7
 10
-7153.8774882642865
 20
10370.555279866292
 40
305.64394410371006
 50
308.76992808749981
 51
318.92296844706647
  0
ARC
  8
_0-1_レイヤ___3
  6
CONTINUOUS
 62
    7
 10
-7190.9073149430596
 20
10414.013847156648
 40
362.71881065871321
 50
288.65165821912348
 51
309.03173518611686
  0
ARC
  8
_0-1_レイヤ___3
  6
CONTINUOUS
 62
    7
 10
-7212.7783179116759
 20
10469.116770693032
 40
421.93378546990601
 50
275.98762352174964
 51
289.07257752973072
  0
ARC
  8
_0-1_レイヤ___3
  6
CONTINUOUS
 62
    7
 10
-7223.4878580387031
 20
10543.581941679005
 40
497.11822129585721
 50
269.87702048518202
 51
276.31995190691799
  0
ARC
  8
_0-1_レイヤ___3
  6
CONTINUOUS
 62
    7
 10
-5185.0304285955899
 20
10245.524901377814
 40
100.97057184263099
 50
212.64045269264147
 51
215.49730146254677
  0
ARC
  8
_0-1_レイヤ___3
  6
CONTINUOUS
 62
    7
 10
-5096.767783943922
 20
10307.947182752343
 40
209.07582711155425
 50
215.37936993240487
 51
221.38465549162211
  0
ARC
  8
_0-1_レイヤ___3
  6
CONTINUOUS
 62
    7
 10
-5023.232286235715
 20
10370.555274237853
 40
305.6439400285019
 50
221.07703081915608
 51
231.23007117872271
  0
ARC
  8
_0-1_レイヤ___3
  6
CONTINUOUS
 62
    7
 10
-4986.2024600569393
 20
10414.01384715665
 40
362.71881065871611
 50
230.96826481388334
 51
251.34834178087678
  0
ARC
  8
_0-1_レイヤ___3
  6
CONTINUOUS
 62
    7
 10
-4964.331457088324
 20
10469.116770693026
 40
421.93378546990107
 50
250.92742247026916
 51
264.01237647825019
  0
ARC
  8
_0-1_レイヤ___3
  6
CONTINUOUS
 62
    7
 10
-4953.6219169612968
 20
10543.581941679005
 40
497.11822129585721
 50
263.68004809308201
 51
270.12297951481798
  0
ARC
  8
_0-1_レイヤ___3
  6
CONTINUOUS
 62
    7
 10
-4719.9458454184714
 20
10245.502223718258
 40
100.93010227782503
 50
324.50212566871829
 51
327.36012017609352
  0
ARC
  8
_0-1_レイヤ___3
  6
CONTINUOUS
 62
    7
 10
-4808.1795151263923
 20
10307.897670728831
 40
208.99619450303933
 50
318.61419937969004
 51
324.6217751962829
  0
ARC
  8
_0-1_レイヤ___3
  6
CONTINUOUS
 62
    7
 10
-4881.720450069015
 20
10370.546924357084
 40
305.59543296261558
 50
308.76110452106741
 51
318.91711841601511
  0
ARC
  8
_0-1_レイヤ___3
  6
CONTINUOUS
 62
    7
 10
-4918.8186128357247
 20
10414.07234736759
 40
362.76505117262622
 50
288.64440299195792
 51
309.02607158712721
  0
ARC
  8
_0-1_レイヤ___3
  6
CONTINUOUS
 62
    7
 10
-4940.7607794280339
 20
10469.392114969156
 40
422.20788163462777
 50
275.98405340598731
 51
289.06580929539717
  0
ARC
  8
_0-1_レイヤ___3
  6
CONTINUOUS
 62
    7
 10
-4951.4884073483645
 20
10543.953934779165
 40
497.49021243480115
 50
269.87717178965931
 51
276.31758418819595
  0
ARC
  8
_0-1_レイヤ___3
  6
CONTINUOUS
 62
    7
 10
-5820.122552073216
 20
10136.864055111702
 40
100.75331131325974
 50
144.59559624777546
 51
147.45542393480537
  0
ARC
  8
_0-1_レイヤ___3
  6
CONTINUOUS
 62
    7
 10
-5731.9514397695193
 20
10074.411363475112
 40
208.80176608438552
 50
138.63276352575616
 51
144.64423277713306
  0
ARC
  8
_0-1_レイヤ___3
  6
CONTINUOUS
 62
    7
 10
-5658.4624539196111
 20
10011.84428664744
 40
305.30820959523527
 50
128.77234907943739
 51
138.93522496605067
  0
ARC
  8
_0-1_レイヤ___3
  6
CONTINUOUS
 62
    7
 10
-5621.3629577264519
 20
9968.3715807244553
 40
362.43800051855004
 50
108.64653596687252
 51
129.04116488951172
  0
ARC
  8
_0-1_レイヤ___3
  6
CONTINUOUS
 62
    7
 10
-5599.37265674031
 20
9912.9762110145002
 40
421.96811857703369
 50
95.984238880830276
 51
109.07079194618395
  0
ARC
  8
_0-1_レイヤ___3
  6
CONTINUOUS
 62
    7
 10
-5588.6242602788279
 20
9838.228804830349
 40
497.437206105678
 50
89.876828286418629
 51
96.317927691436736
  0
ARC
  8
_0-1_レイヤ___3
  6
CONTINUOUS
 62
    7
 10
-5354.9872379267836
 20
10136.864055111679
 40
100.75331131327245
 50
32.544576065205391
 51
35.404403752235282
  0
ARC
  8
_0-1_レイヤ___3
  6
CONTINUOUS
 62
    7
 10
-5443.1583502304802
 20
10074.411363475123
 40
208.80176608437881
 50
35.3557672228646
 51
41.367236474241516
  0
ARC
  8
_0-1_レイヤ___3
  6
CONTINUOUS
 62
    7
 10
-5516.6473355803882
 20
10011.8442922704
 40
305.30820552446175
 50
41.064774299976172
 51
51.227650186589457
  0
ARC
  8
_0-1_レイヤ___3
  6
CONTINUOUS
 62
    7
 10
-5553.7468312735482
 20
9968.3715807244516
 40
362.43800051855288
 50
50.958835110488543
 51
71.35346403312775
  0
ARC
  8
_0-1_レイヤ___3
  6
CONTINUOUS
 62
    7
 10
-5575.737132259691
 20
9912.9762110145057
 40
421.96811857702875
 50
70.929208053815913
 51
84.015761119169582
  0
ARC
  8
_0-1_レイヤ___3
  6
CONTINUOUS
 62
    7
 10
-5586.4855287211731
 20
9838.2288048303399
 40
497.43720610568812
 50
83.682072308563349
 51
90.123171713581442
  0
ARC
  8
_0-1_レイヤ___3
  6
CONTINUOUS
 62
    7
 10
-2913.022595073262
 20
10245.265671888321
 40
100.75331131323469
 50
212.54457606521987
 51
215.40440375224975
  0
ARC
  8
_0-1_レイヤ___3
  6
CONTINUOUS
 62
    7
 10
-2824.851482769519
 20
10307.718363524882
 40
208.80176608438217
 50
215.35576722286575
 51
221.36723647424267
  0
ARC
  8
_0-1_レイヤ___3
  6
CONTINUOUS
 62
    7
 10
-2751.3624974196114
 20
10370.285434729598
 40
305.30820552445948
 50
221.06477429997577
 51
231.22765018658905
  0
ARC
  8
_0-1_レイヤ___3
  6
CONTINUOUS
 62
    7
 10
-2714.2630012264522
 20
10413.758149055178
 40
362.43800299241127
 50
230.95883532587561
 51
251.3534642485148
  0
ARC
  8
_0-1_レイヤ___3
  6
CONTINUOUS
 62
    7
 10
-2692.2727002403099
 20
10469.153511626333
 40
421.96811429374725
 50
250.92920792458665
 51
264.0157609899403
  0
ARC
  8
_0-1_レイヤ___3
  6
CONTINUOUS
 62
    7
 10
-2681.5243042788275
 20
10543.900922169658
 40
497.43720610568312
 50
263.68207230856331
 51
270.12317171358143
  0
ARC
  8
_0-1_レイヤ___3
  6
CONTINUOUS
 62
    7
 10
-2447.8872809267382
 20
10245.26567188831
 40
100.75331131322829
 50
324.59559624775562
 51
327.45542393478553
  0
ARC
  8
_0-1_レイヤ___3
  6
CONTINUOUS
 62
    7
 10
-2536.0583932304803
 20
10307.718363524889
 40
208.80176608438552
 50
318.63276352575616
 51
324.64423277713308
  0
ARC
  8
_0-1_レイヤ___3
  6
CONTINUOUS
 62
    7
 10
-2609.5473785803892
 20
10370.285434729598
 40
305.30820552445948
 50
308.77234981341098
 51
318.93522570002426
  0
ARC
  8
_0-1_レイヤ___3
  6
CONTINUOUS
 62
    7
 10
-2646.646874773548
 20
10413.758149055178
 40
362.43800299241127
 50
288.6465357514852
 51
309.04116467412439
  0
ARC
  8
_0-1_レイヤ___3
  6
CONTINUOUS
 62
    7
 10
-2668.6371757596903
 20
10469.153511626329
 40
421.96811429374492
 50
275.98423901005975
 51
289.07079207541341
  0
ARC
  8
_0-1_レイヤ___3
  6
CONTINUOUS
 62
    7
 10
-2679.3855722211724
 20
10543.900931055636
 40
497.43721499271589
 50
269.87682823102801
 51
276.31792763604608
  0
ARC
  8
_0-1_レイヤ___3
  6
CONTINUOUS
 62
    7
 10
-3548.0304525955444
 20
10136.604825622173
 40
100.97057184267514
 50
144.50269853746238
 51
147.35954730736768
  0
ARC
  8
_0-1_レイヤ___3
  6
CONTINUOUS
 62
    7
 10
-3459.7678084439217
 20
10074.182553779816
 40
209.07582118488446
 50
138.6153465588834
 51
144.62063211810062
  0
ARC
  8
_0-1_レイヤ___3
  6
CONTINUOUS
 62
    7
 10
-3386.2323107357138
 20
10011.574447133704
 40
305.6439441037146
 50
128.76992808749898
 51
138.92296844706561
  0
ARC
  8
_0-1_レイヤ___3
  6
CONTINUOUS
 62
    7
 10
-3349.2024840569402
 20
9968.1158798433553
 40
362.71881065871321
 50
108.65165821912348
 51
129.03173518611692
  0
ARC
  8
_0-1_レイヤ___3
  6
CONTINUOUS
 62
    7
 10
-3327.3314810883239
 20
9913.0129563069768
 40
421.93378546990107
 50
95.987623521749811
 51
109.07257752973085
  0
ARC
  8
_0-1_レイヤ___3
  6
CONTINUOUS
 62
    7
 10
-3316.6219409612968
 20
9838.547785320985
 40
497.11822129586727
 50
89.877020485181959
 51
96.319951906917922
  0
ARC
  8
_0-1_レイヤ___3
  6
CONTINUOUS
 62
    7
 10
-3082.9458704185172
 20
10136.627503281728
 40
100.93010227786918
 50
32.639879823897374
 51
35.497874331272577
  0
ARC
  8
_0-1_レイヤ___3
  6
CONTINUOUS
 62
    7
 10
-3171.1795401263917
 20
10074.232056271177
 40
208.99619450303595
 50
35.378224803715909
 51
41.385800620308785
  0
ARC
  8
_0-1_レイヤ___3
  6
CONTINUOUS
 62
    7
 10
-3244.7204745690146
 20
10011.582808269704
 40
305.59542888809187
 50
41.082880850402226
 51
51.23889474534996
  0
ARC
  8
_0-1_レイヤ___3
  6
CONTINUOUS
 62
    7
 10
-3281.8186368357237
 20
9968.0573796324115
 40
362.76505117262764
 50
50.973928412872894
 51
71.355597008042196
  0
ARC
  8
_0-1_レイヤ___3
  6
CONTINUOUS
 62
    7
 10
-3303.7608034280352
 20
9912.73761203084
 40
422.20788163463277
 50
70.934190704602969
 51
84.015946594012817
  0
ARC
  8
_0-1_レイヤ___3
  6
CONTINUOUS
 62
    7
 10
-3314.4884313483644
 20
9838.1757922208526
 40
497.49021243478586
 50
83.682415811803978
 51
90.1228282103406
  0
ARC
  8
_0-1_レイヤ___3
  6
CONTINUOUS
 62
    7
 10
-6834.9576104027974
 20
10144.758611797955
 40
85.687131946339932
 50
144.22233369227075
 51
147.28839169837414
  0
ARC
  8
_0-1_レイヤ___3
  6
CONTINUOUS
 62
    7
 10
-6772.3665018165402
 20
10100.105046321711
 40
162.57352260626021
 50
139.79746805851795
 51
144.35142471935831
  0
ARC
  8
_0-1_レイヤ___3
  6
CONTINUOUS
 62
    7
 10
-6716.1446876625705
 20
10053.353651080004
 40
235.69226502681684
 50
128.64561282955955
 51
139.93931535075046
  0
ARC
  8
_0-1_レイヤ___3
  6
CONTINUOUS
 62
    7
 10
-6684.3717736842755
 20
10016.65063554152
 40
284.20673230090733
 50
110.99190648966825
 51
129.02750531113131
  0
ARC
  8
_0-1_レイヤ___3
  6
CONTINUOUS
 62
    7
 10
-6666.7549979676569
 20
9975.7474653034878
 40
328.71106488204566
 50
95.239897903240603
 51
111.30471079897622
  0
ARC
  8
_0-1_レイヤ___3
  6
CONTINUOUS
 62
    7
 10
-6657.2413299848804
 20
9909.5217699453515
 40
395.54368721071808
 50
89.900565237320635
 51
95.736139417888069
  0
ARC
  8
_0-1_レイヤ___3
  6
CONTINUOUS
 62
    7
 10
-6478.1521475972031
 20
10144.758611797977
 40
85.68713194632798
 50
32.711608301614113
 51
35.777666307717489
  0
ARC
  8
_0-1_レイヤ___3
  6
CONTINUOUS
 62
    7
 10
-6540.7432561834594
 20
10100.105046321711
 40
162.57352260626021
 50
35.648575280641708
 51
40.202531941482064
  0
ARC
  8
_0-1_レイヤ___3
  6
CONTINUOUS
 62
    7
 10
-6596.9650698374298
 20
10053.353656136811
 40
235.69226138958246
 50
40.060683786625717
 51
51.354386307816618
  0
ARC
  8
_0-1_レイヤ___3
  6
CONTINUOUS
 62
    7
 10
-6628.7379833157238
 20
10016.650635541526
 40
284.20673230090097
 50
50.972494688867947
 51
69.008093510331008
  0
ARC
  8
_0-1_レイヤ___3
  6
CONTINUOUS
 62
    7
 10
-6646.3547595323425
 20
9975.7474617603402
 40
328.71106836472558
 50
68.695289344213663
 51
84.760102239949276
  0
ARC
  8
_0-1_レイヤ___3
  6
CONTINUOUS
 62
    7
 10
-6655.8684275151199
 20
9909.5217797552341
 40
395.54367739998446
 50
84.263860512151453
 51
90.099434692718887
  0
ARC
  8
_0-1_レイヤ___3
  6
CONTINUOUS
 62
    7
 10
-6333.9576174028389
 20
10237.371115202044
 40
85.687131946304817
 50
212.71160830164183
 51
215.77766630774522
  0
ARC
  8
_0-1_レイヤ___3
  6
CONTINUOUS
 62
    7
 10
-6271.3665088165408
 20
10282.024680678278
 40
162.57352260625143
 50
215.64857528063774
 51
220.20253194147807
  0
ARC
  8
_0-1_レイヤ___3
  6
CONTINUOUS
 62
    7
 10
-6215.1446951625703
 20
10328.77607086319
 40
235.69226138958246
 50
220.0606837866257
 51
231.35438630781661
  0
ARC
  8
_0-1_レイヤ___3
  6
CONTINUOUS
 62
    7
 10
-6183.3717816842764
 20
10365.479091458477
 40
284.20673230090415
 50
230.9724946888683
 51
249.00809351033138
  0
ARC
  8
_0-1_レイヤ___3
  6
CONTINUOUS
 62
    7
 10
-6165.7550054676576
 20
10406.382265239659
 40
328.71106836472171
 50
248.69528934421351
 51
264.76010223994911
  0
ARC
  8
_0-1_レイヤ___3
  6
CONTINUOUS
 62
    7
 10
-6156.2413374848802
 20
10472.607947244769
 40
395.54367739998446
 50
264.26386051215144
 51
270.09943469271889
  0
ARC
  8
_0-1_レイヤ___3
  6
CONTINUOUS
 62
    7
 10
-5977.1521550971602
 20
10237.371096519395
 40
85.687121429300191
 50
324.22234402269203
 51
327.28840202879542
  0
ARC
  8
_0-1_レイヤ___3
  6
CONTINUOUS
 62
    7
 10
-6039.743263183459
 20
10282.024680678278
 40
162.57352260625143
 50
319.79746805852193
 51
324.35142471936229
  0
ARC
  8
_0-1_レイヤ___3
  6
CONTINUOUS
 62
    7
 10
-6095.9650773374287
 20
10328.776075920003
 40
235.69226502682088
 50
308.64561282955856
 51
319.9393153507495
  0
ARC
  8
_0-1_レイヤ___3
  6
CONTINUOUS
 62
    7
 10
-6127.7379913157238
 20
10365.479091458477
 40
284.20673230090415
 50
290.99190648966862
 51
309.02750531113168
  0
ARC
  8
_0-1_レイヤ___3
  6
CONTINUOUS
 62
    7
 10
-6145.3547670323424
 20
10406.382261696517
 40
328.71106488204964
 50
275.23989790324043
 51
291.30471079897609
  0
ARC
  8
_0-1_レイヤ___3
  6
CONTINUOUS
 62
    7
 10
-6154.8684350151198
 20
10472.60795705465
 40
395.54368721071808
 50
269.90056523732062
 51
275.73613941788807
  0
ARC
  8
_0-1_レイヤ___3
  6
CONTINUOUS
 62
    7
 10
-4562.8576439027975
 20
10144.758630480626
 40
85.687121429323383
 50
144.22234402271977
 51
147.28840202882316
  0
ARC
  8
_0-1_レイヤ___3
  6
CONTINUOUS
 62
    7
 10
-4500.2665358165405
 20
10100.105046321711
 40
162.57352260626021
 50
139.79746805851795
 51
144.35142471935831
  0
ARC
  8
_0-1_レイヤ___3
  6
CONTINUOUS
 62
    7
 10
-4444.0447216625707
 20
10053.353651079999
 40
235.69226502682088
 50
128.64561282955856
 51
139.93931535074947
  0
ARC
  8
_0-1_レイヤ___3
  6
CONTINUOUS
 62
    7
 10
-4412.2718076842757
 20
10016.650635541522
 40
284.20673230090415
 50
110.99190648966862
 51
129.0275053111317
  0
ARC
  8
_0-1_レイヤ___3
  6
CONTINUOUS
 62
    7
 10
-4394.6550319676571
 20
9975.747465303486
 40
328.71106488204964
 50
95.239897903240447
 51
111.30471079897607
  0
ARC
  8
_0-1_レイヤ___3
  6
CONTINUOUS
 62
    7
 10
-4385.1413639848806
 20
9909.5217699453642
 40
395.54368721070705
 50
89.90056523732072
 51
95.73613941788814
  0
ARC
  8
_0-1_レイヤ___3
  6
CONTINUOUS
 62
    7
 10
-4206.1892611875182
 20
10144.733370282671
 40
85.731971558135825
 50
32.712410299046745
 51
35.776864310284864
  0
ARC
  8
_0-1_レイヤ___3
  6
CONTINUOUS
 62
    7
 10
-4268.8078522340775
 20
10100.054739876003
 40
162.65530541513274
 50
35.649720744070684
 51
40.201386478045109
  0
ARC
  8
_0-1_レイヤ___3
  6
CONTINUOUS
 62
    7
 10
-4325.0235368896301
 20
10053.33922448892
 40
235.74627358302268
 50
40.05422816298821
 51
51.343586766425858
  0
ARC
  8
_0-1_レイヤ___3
  6
CONTINUOUS
 62
    7
 10
-4357.5478157618109
 20
10015.621078401622
 40
285.52275923749096
 50
50.974792361685537
 51
70.765150450440316
  0
ARC
  8
_0-1_レイヤ___3
  6
CONTINUOUS
 62
    7
 10
-4375.8269770371544
 20
9970.1725065434257
 40
334.4639357459223
 50
70.373519651520297
 51
85.910519893971738
  0
ARC
  8
_0-1_レイヤ___3
  6
CONTINUOUS
 62
    7
 10
-4383.9992004674614
 20
9903.8985793447791
 40
401.16654099226736
 50
85.421325868018101
 51
90.065086140256781
  0
ARC
  8
_0-1_レイヤ___3
  6
CONTINUOUS
 62
    7
 10
-4061.8622254001116
 20
10237.436075383321
 40
85.802528749285102
 50
212.71367058105758
 51
215.7756040283295
  0
ARC
  8
_0-1_レイヤ___3
  6
CONTINUOUS
 62
    7
 10
-3999.1870760191214
 20
10282.286544738772
 40
162.87201205520844
 50
215.68663731110288
 51
220.23440846731762
  0
ARC
  8
_0-1_レイヤ___3
  6
CONTINUOUS
 62
    7
 10
-3942.9175568337532
 20
10329.089688295313
 40
236.06034213028335
 50
220.0850184249372
 51
231.36454602664637
  0
ARC
  8
_0-1_レイヤ___3
  6
CONTINUOUS
 62
    7
 10
-3910.3895361090076
 20
10366.825234270487
 40
285.8521394627619
 50
230.99411895665307
 51
250.76855345956992
  0
ARC
  8
_0-1_レイヤ___3
  6
CONTINUOUS
 62
    7
 10
-3892.1624755039556
 20
10412.175246068236
 40
334.68285969358692
 50
250.37954526170159
 51
265.90970154733179
  0
ARC
  8
_0-1_レイヤ___3
  6
CONTINUOUS
 62
    7
 10
-3884.0090733106636
 20
10478.2707129091
 40
401.2061044525978
 50
265.42155495706544
 51
270.06485705120957
  0
ARC
  8
_0-1_レイヤ___3
  6
CONTINUOUS
 62
    7
 10
-3705.1521885971601
 20
10237.371115202024
 40
85.687131946292851
 50
324.22233369226649
 51
327.28839169836988
  0
ARC
  8
_0-1_レイヤ___3
  6
CONTINUOUS
 62
    7
 10
-3767.7432971834596
 20
10282.024680678292
 40
162.57352260626021
 50
319.79746805851795
 51
324.35142471935831
  0
ARC
  8
_0-1_レイヤ___3
  6
CONTINUOUS
 62
    7
 10
-3823.9651113374293
 20
10328.776075920003
 40
235.69226502682088
 50
308.64561282955856
 51
319.9393153507495
  0
ARC
  8
_0-1_レイヤ___3
  6
CONTINUOUS
 62
    7
 10
-3855.7380253157235
 20
10365.479091458477
 40
284.20673230090415
 50
290.99190648966862
 51
309.02750531113168
  0
ARC
  8
_0-1_レイヤ___3
  6
CONTINUOUS
 62
    7
 10
-3873.354801032342
 20
10406.382261696512
 40
328.71106488204566
 50
275.2398979032406
 51
291.3047107989762
  0
ARC
  8
_0-1_レイヤ___3
  6
CONTINUOUS
 62
    7
 10
-3882.8684690151194
 20
10472.60795705465
 40
395.54368721071808
 50
269.90056523732062
 51
275.73613941788807
  0
ARC
  8
_0-1_レイヤ___3
  6
CONTINUOUS
 62
    7
 10
-2290.8576774027965
 20
10144.758611797966
 40
85.687131946333949
 50
144.22233369227664
 51
147.28839169838002
  0
ARC
  8
_0-1_レイヤ___3
  6
CONTINUOUS
 62
    7
 10
-2228.2665688165407
 20
10100.105046321725
 40
162.57352260625143
 50
139.79746805852193
 51
144.35142471936226
  0
ARC
  8
_0-1_レイヤ___3
  6
CONTINUOUS
 62
    7
 10
-2172.0447551625703
 20
10053.353656136807
 40
235.69226138958453
 50
128.64561369218288
 51
139.93931621337379
  0
ARC
  8
_0-1_レイヤ___3
  6
CONTINUOUS
 62
    7
 10
-2140.2718416842758
 20
10016.650635541526
 40
284.20673230090256
 50
110.99190648966881
 51
129.02750531113188
  0
ARC
  8
_0-1_レイヤ___3
  6
CONTINUOUS
 62
    7
 10
-2122.6550654676571
 20
9975.747461760342
 40
328.71106836472364
 50
95.239897760050809
 51
111.30471065578642
  0
ARC
  8
_0-1_レイヤ___3
  6
CONTINUOUS
 62
    7
 10
-2113.1413974848801
 20
9909.5217797552341
 40
395.54367739998446
 50
89.900565307281127
 51
95.736139487848547
  0
ARC
  8
_0-1_レイヤ___3
  6
CONTINUOUS
 62
    7
 10
-1934.0522155972035
 20
10144.758611797955
 40
85.687131946339932
 50
32.711608301625859
 51
35.777666307729241
  0
ARC
  8
_0-1_レイヤ___3
  6
CONTINUOUS
 62
    7
 10
-1996.6433241834598
 20
10100.105046321725
 40
162.57352260625143
 50
35.648575280637729
 51
40.202531941478085
  0
ARC
  8
_0-1_レイヤ___3
  6
CONTINUOUS
 62
    7
 10
-2052.8651378374298
 20
10053.353656136811
 40
235.69226138958246
 50
40.060683786625717
 51
51.354386307816618
  0
ARC
  8
_0-1_レイヤ___3
  6
CONTINUOUS
 62
    7
 10
-2084.6380513157237
 20
10016.650635541526
 40
284.20673230090256
 50
50.972494688868125
 51
69.008093510331193
  0
ARC
  8
_0-1_レイヤ___3
  6
CONTINUOUS
 62
    7
 10
-2102.2548275323425
 20
9975.747461760342
 40
328.71106836472364
 50
68.695289344213577
 51
84.760102239949205
  0
ARC
  8
_0-1_レイヤ___3
  6
CONTINUOUS
 62
    7
 10
-2111.7684955151199
 20
9909.5217797552286
 40
395.54367739998997
 50
84.263860512151496
 51
90.09943469271893
  0
ARC
  8
_0-1_レイヤ___3
  6
CONTINUOUS
 62
    7
 10
-1789.8576854028386
 20
10237.371115202044
 40
85.687131946304817
 50
212.71160830164183
 51
215.77766630774522
  0
ARC
  8
_0-1_レイヤ___3
  6
CONTINUOUS
 62
    7
 10
-1727.2665768165405
 20
10282.024680678269
 40
162.57352260624702
 50
215.64857528063575
 51
220.20253194147608
  0
ARC
  8
_0-1_レイヤ___3
  6
CONTINUOUS
 62
    7
 10
-1671.0447626625705
 20
10328.776075920005
 40
235.69226502682301
 50
220.06068464925102
 51
231.35438717044192
  0
ARC
  8
_0-1_レイヤ___3
  6
CONTINUOUS
 62
    7
 10
-1639.2718491842761
 20
10365.479088307937
 40
284.20672953857877
 50
230.9724943672266
 51
249.00809318868966
  0
ARC
  8
_0-1_レイヤ___3
  6
CONTINUOUS
 62
    7
 10
-1621.6550734676571
 20
10406.382265239659
 40
328.71106836472364
 50
248.69528934421356
 51
264.76010223994922
  0
ARC
  8
_0-1_レイヤ___3
  6
CONTINUOUS
 62
    7
 10
-1612.1414054848799
 20
10472.607947244769
 40
395.54367739998446
 50
264.26386051215144
 51
270.09943469271889
  0
ARC
  8
_0-1_レイヤ___3
  6
CONTINUOUS
 62
    7
 10
-1433.0522225971606
 20
10237.371115202033
 40
85.68713194629882
 50
324.22233369226063
 51
327.28839169836402
  0
ARC
  8
_0-1_レイヤ___3
  6
CONTINUOUS
 62
    7
 10
-1495.6433311834594
 20
10282.024680678278
 40
162.57352260625143
 50
319.79746805852193
 51
324.35142471936229
  0
ARC
  8
_0-1_レイヤ___3
  6
CONTINUOUS
 62
    7
 10
-1551.8651453374298
 20
10328.77607592001
 40
235.69226502682505
 50
308.64561282955759
 51
319.93931535074847
  0
ARC
  8
_0-1_レイヤ___3
  6
CONTINUOUS
 62
    7
 10
-1583.6380588157244
 20
10365.479088307933
 40
284.20672953857724
 50
290.99190681131051
 51
309.02750563277357
  0
ARC
  8
_0-1_レイヤ___3
  6
CONTINUOUS
 62
    7
 10
-1601.2548345323426
 20
10406.382265239659
 40
328.71106836472171
 50
275.23989776005089
 51
291.30471065578649
  0
ARC
  8
_0-1_レイヤ___3
  6
CONTINUOUS
 62
    7
 10
-1610.7685030151197
 20
10472.60795705465
 40
395.54368721071808
 50
269.90056523732062
 51
275.73613941788807
  0
ARC
  8
_0-1_レイヤ___3
  6
CONTINUOUS
 62
    7
 10
-640.93049659558972
 20
10245.524901377827
 40
100.9705718426374
 50
212.64045269264682
 51
215.49730146255212
  0
ARC
  8
_0-1_レイヤ___3
  6
CONTINUOUS
 62
    7
 10
-552.66785194392128
 20
10307.947182752345
 40
209.0758271115559
 50
215.37936993240547
 51
221.38465549162268
  0
ARC
  8
_0-1_レイヤ___3
  6
CONTINUOUS
 62
    7
 10
-479.13235423571393
 20
10370.555274237853
 40
305.6439400285019
 50
221.07703081915608
 51
231.23007117872271
  0
ARC
  8
_0-1_レイヤ___3
  6
CONTINUOUS
 62
    7
 10
-442.10252755693944
 20
10414.013849938307
 40
362.7188131343749
 50
230.96826502924114
 51
251.34834199623455
  0
ARC
  8
_0-1_レイヤ___3
  6
CONTINUOUS
 62
    7
 10
-420.23152458832328
 20
10469.11676633332
 40
421.93378118613771
 50
250.92742234098728
 51
264.01237634896836
  0
ARC
  8
_0-1_レイヤ___3
  6
CONTINUOUS
 62
    7
 10
-409.52198446129643
 20
10543.581950562448
 40
497.11823018035136
 50
263.68004814851218
 51
270.12297957024816
  0
ARC
  8
_0-1_レイヤ___3
  6
CONTINUOUS
 62
    7
 10
-175.84591341847215
 20
10245.502223718271
 40
100.93010227783145
 50
324.50212566871295
 51
327.36012017608812
  0
ARC
  8
_0-1_レイヤ___3
  6
CONTINUOUS
 62
    7
 10
-264.07958312639153
 20
10307.897670728826
 40
208.9961945030376
 50
318.6141993796906
 51
324.62177519628352
  0
ARC
  8
_0-1_レイヤ___3
  6
CONTINUOUS
 62
    7
 10
-337.62051756901485
 20
10370.546918730302
 40
305.59542888809415
 50
308.76110525464964
 51
318.91711914959734
  0
ARC
  8
_0-1_レイヤ___3
  6
CONTINUOUS
 62
    7
 10
-374.71868033572463
 20
10414.072350149027
 40
362.76505364824902
 50
288.6444027766882
 51
309.02607137185748
  0
ARC
  8
_0-1_レイヤ___3
  6
CONTINUOUS
 62
    7
 10
-396.6608469280348
 20
10469.392110608376
 40
422.20787734973584
 50
275.98405353516426
 51
289.06580942457413
  0
ARC
  8
_0-1_レイヤ___3
  6
CONTINUOUS
 62
    7
 10
-407.38847434836458
 20
10543.953934779156
 40
497.49021243479353
 50
269.87717178965937
 51
276.31758418819595
  0
ARC
  8
_0-1_レイヤ___3
  6
CONTINUOUS
 62
    7
 10
-1276.0226190732164
 20
10136.86405511169
 40
100.7533113132661
 50
144.59559624777009
 51
147.4554239348
  0
ARC
  8
_0-1_レイヤ___3
  6
CONTINUOUS
 62
    7
 10
-1187.8515067695196
 20
10074.411363475117
 40
208.80176608438217
 50
138.63276352575733
 51
144.64423277713425
  0
ARC
  8
_0-1_レイヤ___3
  6
CONTINUOUS
 62
    7
 10
-1114.3625214196113
 20
10011.8442922704
 40
305.30820552446175
 50
128.77234981341056
 51
138.93522570002384
  0
ARC
  8
_0-1_レイヤ___3
  6
CONTINUOUS
 62
    7
 10
-1077.2630257264518
 20
9968.3715807244535
 40
362.43800051855146
 50
108.64653596687239
 51
129.04116488951158
  0
ARC
  8
_0-1_レイヤ___3
  6
CONTINUOUS
 62
    7
 10
-1055.2727247403093
 20
9912.976211014502
 40
421.96811857703125
 50
95.984238880830361
 51
109.07079194618402
  0
ARC
  8
_0-1_レイヤ___3
  6
CONTINUOUS
 62
    7
 10
-1044.5243282788269
 20
9838.2288048303435
 40
497.43720610568312
 50
89.876828286418601
 51
96.317927691436694
  0
ARC
  8
_0-1_レイヤ___3
  6
CONTINUOUS
 62
    7
 10
-810.8873059267836
 20
10136.864055111695
 40
100.75331131326293
 50
32.544576065197333
 51
35.404403752227225
  0
ARC
  8
_0-1_レイヤ___3
  6
CONTINUOUS
 62
    7
 10
-899.05841773048019
 20
10074.411372997445
 40
208.80176016648454
 50
35.355765171199238
 51
41.367234422576153
  0
ARC
  8
_0-1_レイヤ___3
  6
CONTINUOUS
 62
    7
 10
-972.5474030803889
 20
10011.84428664744
 40
305.30820959523527
 50
41.064775033949324
 51
51.22765092056261
  0
ARC
  8
_0-1_レイヤ___3
  6
CONTINUOUS
 62
    7
 10
-1009.6468992735483
 20
9968.3715807244535
 40
362.43800051855209
 50
50.958835110488486
 51
71.353464033127693
  0
ARC
  8
_0-1_レイヤ___3
  6
CONTINUOUS
 62
    7
 10
-1031.6372002596906
 20
9912.9762110145039
 40
421.96811857702994
 50
70.929208053815955
 51
84.015761119169611
  0
ARC
  8
_0-1_レイヤ___3
  6
CONTINUOUS
 62
    7
 10
-1042.385596721173
 20
9838.2288048303435
 40
497.43720610568312
 50
83.682072308563306
 51
90.123171713581399
  0
ARC
  8
_0-1_レイヤ___3
  6
CONTINUOUS
 62
    7
 10
-18.757711402796531
 20
10144.758611797961
 40
85.687131946336947
 50
144.22233369227371
 51
147.2883916983771
  0
ARC
  8
_0-1_レイヤ___3
  6
CONTINUOUS
 62
    7
 10
43.83339718345951
 20
10100.105046321722
 40
162.57352260625362
 50
139.79746805852093
 51
144.35142471936129
  0
ARC
  8
_0-1_レイヤ___3
  6
CONTINUOUS
 62
    7
 10
100.05521083742991
 20
10053.353656136809
 40
235.69226138958345
 50
128.64561369218313
 51
139.93931621337404
  0
ARC
  8
_0-1_レイヤ___3
  6
CONTINUOUS
 62
    7
 10
131.82812431572415
 20
10016.650635541526
 40
284.20673230090256
 50
110.99190648966881
 51
129.02750531113188
  0
ARC
  8
_0-1_レイヤ___3
  6
CONTINUOUS
 62
    7
 10
149.4449005323429
 20
9975.7474617603439
 40
328.71106836472256
 50
95.239897760050852
 51
111.30471065578647
  0
ARC
  8
_0-1_レイヤ___3
  6
CONTINUOUS
 62
    7
 10
158.95856851511979
 20
9909.5217797552305
 40
395.54367739998719
 50
89.900565307281099
 51
95.736139487848533
  0
ARC
  8
_0-1_レイヤ___3
  6
CONTINUOUS
 62
    7
 10
337.95232440006856
 20
10144.693651616688
 40
85.802528749315769
 50
32.713670581037185
 51
35.77560402830909
  0
ARC
  8
_0-1_レイヤ___3
  6
CONTINUOUS
 62
    7
 10
275.27717551912218
 20
10099.843194853276
 40
162.87200430350629
 50
35.686633815836018
 51
40.234404972050754
  0
ARC
  8
_0-1_レイヤ___3
  6
CONTINUOUS
 62
    7
 10
219.00765633375315
 20
10053.040033641475
 40
236.0603457731514
 50
40.085019287030654
 51
51.364546888739845
  0
ARC
  8
_0-1_レイヤ___3
  6
CONTINUOUS
 62
    7
 10
186.47963510900809
 20
10015.304492729518
 40
285.85213946276093
 50
50.994118956652962
 51
70.768553459569802
  0
ARC
  8
_0-1_レイヤ___3
  6
CONTINUOUS
 62
    7
 10
168.25257500395566
 20
9969.954484598471
 40
334.68285607188528
 50
70.379545131548312
 51
85.909701417178496
  0
ARC
  8
_0-1_レイヤ___3
  6
CONTINUOUS
 62
    7
 10
160.0991728106635
 20
9903.859001758221
 40
401.20611678583725
 50
85.421555026476128
 51
90.064857120620218
  0
ARC
  8
_0-1_レイヤ___3
  6
CONTINUOUS
 62
    7
 10
482.27936018747573
 20
10237.396356717345
 40
85.731971558109663
 50
212.71241029907154
 51
215.77686431030966
  0
ARC
  8
_0-1_レイヤ___3
  6
CONTINUOUS
 62
    7
 10
544.89795123407805
 20
10282.074987124
 40
162.65530541513496
 50
215.64972074407166
 51
220.20138647804609
  0
ARC
  8
_0-1_レイヤ___3
  6
CONTINUOUS
 62
    7
 10
601.11363638963041
 20
10328.790507569851
 40
235.74627722112217
 50
220.05422902587941
 51
231.34358762931706
  0
ARC
  8
_0-1_レイヤ___3
  6
CONTINUOUS
 62
    7
 10
633.63791526181126
 20
10366.508645732083
 40
285.52275669592325
 50
230.9747920774642
 51
250.76515016621897
  0
ARC
  8
_0-1_レイヤ___3
  6
CONTINUOUS
 62
    7
 10
651.91707603715417
 20
10411.957220456574
 40
334.46393574591974
 50
250.37351965152021
 51
265.91051989397164
  0
ARC
  8
_0-1_レイヤ___3
  6
CONTINUOUS
 62
    7
 10
660.08929996746156
 20
10478.231159986703
 40
401.16655332430651
 50
265.42132593742883
 51
270.06508620966753
  0
ARC
  8
_0-1_レイヤ___3
  6
CONTINUOUS
 62
    7
 10
838.94774340283914
 20
10237.371115202037
 40
85.687131946301065
 50
324.22233369225842
 51
327.28839169836181
  0
ARC
  8
_0-1_レイヤ___3
  6
CONTINUOUS
 62
    7
 10
776.3566348165408
 20
10282.024680678278
 40
162.57352260625197
 50
319.79746805852164
 51
324.351424719362
  0
ARC
  8
_0-1_レイヤ___3
  6
CONTINUOUS
 62
    7
 10
720.13482116257035
 20
10328.77607086319
 40
235.69226138958373
 50
308.64561369218308
 51
319.93931621337396
  0
ARC
  8
_0-1_レイヤ___3
  6
CONTINUOUS
 62
    7
 10
688.36190768427605
 20
10365.479091458476
 40
284.20673230090233
 50
290.99190648966885
 51
309.0275053111319
  0
ARC
  8
_0-1_レイヤ___3
  6
CONTINUOUS
 62
    7
 10
670.7451314676573
 20
10406.382265239659
 40
328.71106836472325
 50
275.23989776005084
 51
291.30471065578644
  0
ARC
  8
_0-1_レイヤ___3
  6
CONTINUOUS
 62
    7
 10
661.23146348488046
 20
10472.607947244771
 40
395.54367739998719
 50
269.90056530728111
 51
275.7361394878485
  0
ARC
  8
_0-1_レイヤ___3
  6
CONTINUOUS
 62
    7
 10
1631.0773369267383
 20
10245.265671888308
 40
100.75331131322702
 50
212.54457606521339
 51
215.4044037522433
  0
ARC
  8
_0-1_レイヤ___3
  6
CONTINUOUS
 62
    7
 10
1719.2484492304802
 20
10307.718363524884
 40
208.80176608438285
 50
215.35576722286598
 51
221.3672364742429
  0
ARC
  8
_0-1_レイヤ___3
  6
CONTINUOUS
 62
    7
 10
1792.7374350803889
 20
10370.285440352563
 40
305.30820959523629
 50
221.06477503394947
 51
231.22765092056275
  0
ARC
  8
_0-1_レイヤ___3
  6
CONTINUOUS
 62
    7
 10
1829.8369312735485
 20
10413.75814627555
 40
362.43800051855175
 50
230.95883511048842
 51
251.35346403312764
  0
ARC
  8
_0-1_レイヤ___3
  6
CONTINUOUS
 62
    7
 10
1851.8272322596908
 20
10469.153515985499
 40
421.96811857703062
 50
250.92920805381596
 51
264.01576111916961
  0
ARC
  8
_0-1_レイヤ___3
  6
CONTINUOUS
 62
    7
 10
1862.5756287211732
 20
10543.90092216966
 40
497.43720610568437
 50
263.68207230856331
 51
270.12317171358143
  0
ARC
  8
_0-1_レイヤ___3
  6
CONTINUOUS
 62
    7
 10
2096.2126510732619
 20
10245.26567188831
 40
100.75331131322829
 50
324.59559624775562
 51
327.45542393478553
  0
ARC
  8
_0-1_レイヤ___3
  6
CONTINUOUS
 62
    7
 10
2008.0415387695198
 20
10307.718363524888
 40
208.8017660843839
 50
318.63276352575673
 51
324.64423277713365
  0
ARC
  8
_0-1_レイヤ___3
  6
CONTINUOUS
 62
    7
 10
1934.5525534196111
 20
10370.285434729602
 40
305.30820552446175
 50
308.77234981341053
 51
318.93522570002381
  0
ARC
  8
_0-1_レイヤ___3
  6
CONTINUOUS
 62
    7
 10
1897.4530572264518
 20
10413.758149055178
 40
362.43800299241167
 50
288.64653575148515
 51
309.04116467412439
  0
ARC
  8
_0-1_レイヤ___3
  6
CONTINUOUS
 62
    7
 10
1875.4627562403095
 20
10469.153511626333
 40
421.96811429374577
 50
275.9842390100597
 51
289.07079207541335
  0
ARC
  8
_0-1_レイヤ___3
  6
CONTINUOUS
 62
    7
 10
1864.7143602788269
 20
10543.900922169654
 40
497.43720610568181
 50
269.87682828641857
 51
276.31792769143669
  0
ARC
  8
_0-1_レイヤ___3
  6
CONTINUOUS
 62
    7
 10
996.0359454185176
 20
10136.627503281727
 40
100.93010227787077
 50
144.50212566872608
 51
147.3601201761013
  0
ARC
  8
_0-1_レイヤ___3
  6
CONTINUOUS
 62
    7
 10
1084.269615126392
 20
10074.232056271174
 40
208.99619450303848
 50
138.61419937969035
 51
144.62177519628324
  0
ARC
  8
_0-1_レイヤ___3
  6
CONTINUOUS
 62
    7
 10
1157.8105495690149
 20
10011.582808269703
 40
305.59542888809329
 50
128.76110525464975
 51
138.91711914959751
  0
ARC
  8
_0-1_レイヤ___3
  6
CONTINUOUS
 62
    7
 10
1194.9087118357247
 20
9968.0573796324115
 40
362.76505117262718
 50
108.64440299195788
 51
129.02607158712718
  0
ARC
  8
_0-1_レイヤ___3
  6
CONTINUOUS
 62
    7
 10
1216.8508784280348
 20
9912.7376120308472
 40
422.20788163462692
 50
95.984053405987382
 51
109.06580929539723
  0
ARC
  8
_0-1_レイヤ___3
  6
CONTINUOUS
 62
    7
 10
1227.5785063483647
 20
9838.1757922208417
 40
497.49021243479706
 50
89.877171789659343
 51
96.317584188195951
  0
ARC
  8
_0-1_レイヤ___3
  6
CONTINUOUS
 62
    7
 10
1461.1205275955444
 20
10136.604825622167
 40
100.97057184267894
 50
32.640452692635513
 51
35.497301462540811
  0
ARC
  8
_0-1_レイヤ___3
  6
CONTINUOUS
 62
    7
 10
1372.8578834439213
 20
10074.182553779814
 40
209.07582118488511
 50
35.379367881899604
 51
41.384653441116832
  0
ARC
  8
_0-1_レイヤ___3
  6
CONTINUOUS
 62
    7
 10
1299.3223857357139
 20
10011.574447133708
 40
305.64394410371193
 50
41.077031552933882
 51
51.230071912500513
  0
ARC
  8
_0-1_レイヤ___3
  6
CONTINUOUS
 62
    7
 10
1262.2925590569398
 20
9968.1158798433516
 40
362.71881065871497
 50
50.968264813883259
 51
71.34834178087668
  0
ARC
  8
_0-1_レイヤ___3
  6
CONTINUOUS
 62
    7
 10
1240.4215560883235
 20
9913.0129563069768
 40
421.93378546990107
 50
70.92742247026915
 51
84.012376478250204
  0
ARC
  8
_0-1_レイヤ___3
  6
CONTINUOUS
 62
    7
 10
1229.7120159612969
 20
9838.5477853209923
 40
497.11822129585903
 50
83.680048093082036
 51
90.122979514817999
  0
ARC
  8
_0-1_レイヤ___3
  6
CONTINUOUS
 62
    7
 10
2253.2422545972036
 20
10144.758611797966
 40
85.687131946333949
 50
144.22233369227664
 51
147.28839169838002
  0
ARC
  8
_0-1_レイヤ___3
  6
CONTINUOUS
 62
    7
 10
2315.8333631834594
 20
10100.105046321722
 40
162.57352260625362
 50
139.79746805852093
 51
144.35142471936129
  0
ARC
  8
_0-1_レイヤ___3
  6
CONTINUOUS
 62
    7
 10
2372.0551768374298
 20
10053.353656136809
 40
235.69226138958345
 50
128.64561369218313
 51
139.93931621337404
  0
ARC
  8
_0-1_レイヤ___3
  6
CONTINUOUS
 62
    7
 10
2403.8280903157242
 20
10016.650635541526
 40
284.20673230090256
 50
110.99190648966881
 51
129.02750531113188
  0
ARC
  8
_0-1_レイヤ___3
  6
CONTINUOUS
 62
    7
 10
2421.444866532343
 20
9975.747461760342
 40
328.71106836472364
 50
95.239897760050809
 51
111.30471065578642
  0
ARC
  8
_0-1_レイヤ___3
  6
CONTINUOUS
 62
    7
 10
2430.9585345151199
 20
9909.5217797552323
 40
395.54367739998577
 50
89.900565307281113
 51
95.736139487848533
  0
ARC
  8
_0-1_レイヤ___3
  6
CONTINUOUS
 62
    7
 10
2610.0477174027969
 20
10144.758611797966
 40
85.687131946333949
 50
32.711608301619982
 51
35.777666307723365
  0
ARC
  8
_0-1_レイヤ___3
  6
CONTINUOUS
 62
    7
 10
2547.4566088165411
 20
10100.105046321722
 40
162.57352260625362
 50
35.648575280638724
 51
40.202531941479087
  0
ARC
  8
_0-1_レイヤ___3
  6
CONTINUOUS
 62
    7
 10
2491.2347946625705
 20
10053.353651079997
 40
235.69226502682244
 50
40.060684649250895
 51
51.354387170441797
  0
ARC
  8
_0-1_レイヤ___3
  6
CONTINUOUS
 62
    7
 10
2459.4618806842759
 20
10016.650635541524
 40
284.20673230090301
 50
50.972494688868174
 51
69.00809351033125
  0
ARC
  8
_0-1_レイヤ___3
  6
CONTINUOUS
 62
    7
 10
2441.8451049676569
 20
9975.7474653034842
 40
328.71106488205066
 50
68.695289201023982
 51
84.760102096759596
  0
ARC
  8
_0-1_レイヤ___3
  6
CONTINUOUS
 62
    7
 10
2432.3314369848804
 20
9909.5217699453588
 40
395.5436872107112
 50
84.263860582111889
 51
90.099434762679323
  0
ARC
  8
_0-1_レイヤ___3
  6
CONTINUOUS
 62
    7
 10
2754.242247097161
 20
10237.371096519384
 40
85.687121429294223
 50
212.7115979711987
 51
215.77765597730209
  0
ARC
  8
_0-1_レイヤ___3
  6
CONTINUOUS
 62
    7
 10
2816.8333551834594
 20
10282.024680678278
 40
162.57352260625251
 50
215.64857528063823
 51
220.20253194147855
  0
ARC
  8
_0-1_レイヤ___3
  6
CONTINUOUS
 62
    7
 10
2873.05516933743
 20
10328.776075920005
 40
235.69226502682244
 50
220.06068464925087
 51
231.35438717044178
  0
ARC
  8
_0-1_レイヤ___3
  6
CONTINUOUS
 62
    7
 10
2904.8280833157241
 20
10365.479091458477
 40
284.20673230090335
 50
230.97249468886821
 51
249.00809351033129
  0
ARC
  8
_0-1_レイヤ___3
  6
CONTINUOUS
 62
    7
 10
2922.4448590323432
 20
10406.382261696517
 40
328.71106488204964
 50
248.69528920102391
 51
264.76010209675957
  0
ARC
  8
_0-1_レイヤ___3
  6
CONTINUOUS
 62
    7
 10
2931.9585270151197
 20
10472.607957054643
 40
395.54368721071256
 50
264.26386058211187
 51
270.09943476267932
  0
ARC
  8
_0-1_レイヤ___3
  6
CONTINUOUS
 62
    7
 10
3111.0477094028392
 20
10237.371115202039
 40
85.687131946301804
 50
324.22233369225773
 51
327.28839169836107
  0
ARC
  8
_0-1_レイヤ___3
  6
CONTINUOUS
 62
    7
 10
3048.4566008165402
 20
10282.024680678278
 40
162.57352260625143
 50
319.79746805852193
 51
324.35142471936229
  0
ARC
  8
_0-1_レイヤ___3
  6
CONTINUOUS
 62
    7
 10
2992.2347871625702
 20
10328.77607086319
 40
235.69226138958345
 50
308.64561369218313
 51
319.93931621337401
  0
ARC
  8
_0-1_レイヤ___3
  6
CONTINUOUS
 62
    7
 10
2960.4618736842758
 20
10365.479091458477
 40
284.20673230090335
 50
290.99190648966874
 51
309.02750531113179
  0
ARC
  8
_0-1_レイヤ___3
  6
CONTINUOUS
 62
    7
 10
2942.8450974676571
 20
10406.382265239659
 40
328.71106836472256
 50
275.23989776005084
 51
291.30471065578644
  0
ARC
  8
_0-1_レイヤ___3
  6
CONTINUOUS
 62
    7
 10
2933.3314294848797
 20
10472.607947244771
 40
395.54367739998719
 50
269.90056530728111
 51
275.7361394878485
  0
ARC
  8
_0-1_レイヤ___3
  6
CONTINUOUS
 62
    7
 10
3903.1359024184721
 20
10245.502223718282
 40
100.9301022778378
 50
212.6398798239172
 51
215.49787433129242
  0
ARC
  8
_0-1_レイヤ___3
  6
CONTINUOUS
 62
    7
 10
3991.3695716263919
 20
10307.897661200306
 40
208.99618857862353
 50
215.37822275321037
 51
221.38579856980323
  0
ARC
  8
_0-1_レイヤ___3
  6
CONTINUOUS
 62
    7
 10
4064.9105060690144
 20
10370.546924357084
 40
305.59543296261558
 50
221.08288158398486
 51
231.23889547893262
  0
ARC
  8
_0-1_レイヤ___3
  6
CONTINUOUS
 62
    7
 10
4102.0086688357251
 20
10414.07234736759
 40
362.76505117262622
 50
230.97392841287277
 51
251.35559700804205
  0
ARC
  8
_0-1_レイヤ___3
  6
CONTINUOUS
 62
    7
 10
4123.9508354280351
 20
10469.392114969156
 40
422.20788163462777
 50
250.93419070460283
 51
264.01594659401269
  0
ARC
  8
_0-1_レイヤ___3
  6
CONTINUOUS
 62
    7
 10
4134.6784633483649
 20
10543.953934779158
 40
497.49021243479604
 50
263.68241581180405
 51
270.12282821034069
  0
ARC
  8
_0-1_レイヤ___3
  6
CONTINUOUS
 62
    7
 10
4368.2204845955894
 20
10245.524901377848
 40
100.97057184265014
 50
324.50269853743714
 51
327.35954730734244
  0
ARC
  8
_0-1_レイヤ___3
  6
CONTINUOUS
 62
    7
 10
4279.9578399439215
 20
10307.947182752338
 40
209.07582711155086
 50
318.61534450837905
 51
324.62063006759627
  0
ARC
  8
_0-1_レイヤ___3
  6
CONTINUOUS
 62
    7
 10
4206.4223422357136
 20
10370.555274237853
 40
305.6439400285019
 50
308.76992882127729
 51
318.92296918084389
  0
ARC
  8
_0-1_レイヤ___3
  6
CONTINUOUS
 62
    7
 10
4169.3925160569397
 20
10414.01384715665
 40
362.71881065871611
 50
288.65165821912319
 51
309.03173518611663
  0
ARC
  8
_0-1_レイヤ___3
  6
CONTINUOUS
 62
    7
 10
4147.5215130883234
 20
10469.116770693026
 40
421.93378546990107
 50
275.98762352174981
 51
289.07257752973084
  0
ARC
  8
_0-1_レイヤ___3
  6
CONTINUOUS
 62
    7
 10
4136.8119729612963
 20
10543.581941679005
 40
497.11822129585721
 50
269.87702048518202
 51
276.31995190691799
  0
ARC
  8
_0-1_レイヤ___3
  6
CONTINUOUS
 62
    7
 10
3268.0773129267836
 20
10136.864055111695
 40
100.75331131326293
 50
144.59559624777279
 51
147.4554239348027
  0
ARC
  8
_0-1_レイヤ___3
  6
CONTINUOUS
 62
    7
 10
3356.2484252304803
 20
10074.411363475112
 40
208.80176608438552
 50
138.63276352575616
 51
144.64423277713306
  0
ARC
  8
_0-1_レイヤ___3
  6
CONTINUOUS
 62
    7
 10
3429.7374105803892
 20
10011.8442922704
 40
305.30820552446175
 50
128.77234981341056
 51
138.93522570002384
  0
ARC
  8
_0-1_レイヤ___3
  6
CONTINUOUS
 62
    7
 10
3466.8369067735489
 20
9968.371577944823
 40
362.43800299241201
 50
108.64653575148515
 51
129.04116467412436
  0
ARC
  8
_0-1_レイヤ___3
  6
CONTINUOUS
 62
    7
 10
3488.8272077596912
 20
9912.9762153736719
 40
421.96811429374492
 50
95.984239010059753
 51
109.07079207541342
  0
ARC
  8
_0-1_レイヤ___3
  6
CONTINUOUS
 62
    7
 10
3499.5756037211731
 20
9838.2288048303435
 40
497.43720610568312
 50
89.876828286418601
 51
96.317927691436694
  0
ARC
  8
_0-1_レイヤ___3
  6
CONTINUOUS
 62
    7
 10
3733.2126270732165
 20
10136.864055111695
 40
100.75331131326293
 50
32.544576065197333
 51
35.404403752227225
  0
ARC
  8
_0-1_レイヤ___3
  6
CONTINUOUS
 62
    7
 10
3645.0415147695194
 20
10074.411363475116
 40
208.8017660843839
 50
35.355767222866348
 51
41.367236474243263
  0
ARC
  8
_0-1_レイヤ___3
  6
CONTINUOUS
 62
    7
 10
3571.5525289196112
 20
10011.844286647438
 40
305.30820959523646
 50
41.064775033949537
 51
51.227650920562823
  0
ARC
  8
_0-1_レイヤ___3
  6
CONTINUOUS
 62
    7
 10
3534.4530327264515
 20
9968.3715807244535
 40
362.43800051855209
 50
50.958835110488486
 51
71.353464033127693
  0
ARC
  8
_0-1_レイヤ___3
  6
CONTINUOUS
 62
    7
 10
3512.4627317403092
 20
9912.9762110145057
 40
421.96811857702875
 50
70.929208053815913
 51
84.015761119169582
  0
ARC
  8
_0-1_レイヤ___3
  6
CONTINUOUS
 62
    7
 10
3501.7143352788275
 20
9838.2288048303417
 40
497.43720610568568
 50
83.682072308563335
 51
90.123171713581428
  0
ARC
  8
_0-1_レイヤ___3
  6
CONTINUOUS
 62
    7
 10
4525.3422205972038
 20
10144.758611797966
 40
85.687131946333949
 50
144.22233369227664
 51
147.28839169838002
  0
ARC
  8
_0-1_レイヤ___3
  6
CONTINUOUS
 62
    7
 10
4587.9333291834591
 20
10100.105046321731
 40
162.57352260624702
 50
139.79746805852392
 51
144.35142471936425
  0
ARC
  8
_0-1_レイヤ___3
  6
CONTINUOUS
 62
    7
 10
4644.1551428374296
 20
10053.353656136806
 40
235.69226138958658
 50
128.64561369218239
 51
139.9393162133733
  0
ARC
  8
_0-1_レイヤ___3
  6
CONTINUOUS
 62
    7
 10
4675.9280563157245
 20
10016.650635541526
 40
284.20673230090256
 50
110.99190648966881
 51
129.02750531113188
  0
ARC
  8
_0-1_レイヤ___3
  6
CONTINUOUS
 62
    7
 10
4693.5448325323432
 20
9975.7474617603439
 40
328.71106836472171
 50
95.23989776005088
 51
111.30471065578651
  0
ARC
  8
_0-1_レイヤ___3
  6
CONTINUOUS
 62
    7
 10
4703.0585005151197
 20
9909.5217797552341
 40
395.54367739998446
 50
89.900565307281127
 51
95.736139487848547
  0
ARC
  8
_0-1_レイヤ___3
  6
CONTINUOUS
 62
    7
 10
4882.0522574000679
 20
10144.69365161669
 40
85.802528749314291
 50
32.713670581035714
 51
35.775604028307619
  0
ARC
  8
_0-1_レイヤ___3
  6
CONTINUOUS
 62
    7
 10
4819.3771080191218
 20
10099.843182261238
 40
162.87201205520404
 50
35.686637311100895
 51
40.234408467315632
  0
ARC
  8
_0-1_レイヤ___3
  6
CONTINUOUS
 62
    7
 10
4763.1075883337526
 20
10053.040033641475
 40
236.0603457731514
 50
40.085019287030654
 51
51.364546888739845
  0
ARC
  8
_0-1_レイヤ___3
  6
CONTINUOUS
 62
    7
 10
4730.5795676090074
 20
10015.304495598168
 40
285.85213691888589
 50
50.994118672633938
 51
70.768553175550778
  0
ARC
  8
_0-1_レイヤ___3
  6
CONTINUOUS
 62
    7
 10
4712.3525075039561
 20
9969.9544809317631
 40
334.68285969358885
 50
70.379545261701679
 51
85.909701547331878
  0
ARC
  8
_0-1_レイヤ___3
  6
CONTINUOUS
 62
    7
 10
4704.1991048106629
 20
9903.8590017582137
 40
401.2061167858443
 50
85.42155502647617
 51
90.06485712062026
  0
ARC
  8
_0-1_レイヤ___3
  6
CONTINUOUS
 62
    7
 10
5026.3422135971605
 20
10237.371115202033
 40
85.68713194629882
 50
212.71160830163598
 51
215.77766630773934
  0
ARC
  8
_0-1_レイヤ___3
  6
CONTINUOUS
 62
    7
 10
5088.9333216834584
 20
10282.024668103368
 40
162.57351487113877
 50
215.6485717820467
 51
220.20252844288706
  0
ARC
  8
_0-1_レイヤ___3
  6
CONTINUOUS
 62
    7
 10
5145.1551353374289
 20
10328.776075920005
 40
235.69226502682301
 50
220.06068464925102
 51
231.35438717044192
  0
ARC
  8
_0-1_レイヤ___3
  6
CONTINUOUS
 62
    7
 10
5176.9280493157239
 20
10365.479091458476
 40
284.20673230090256
 50
230.97249468886812
 51
249.00809351033121
  0
ARC
  8
_0-1_レイヤ___3
  6
CONTINUOUS
 62
    7
 10
5194.5448255323436
 20
10406.382265239663
 40
328.71106836472558
 50
248.69528934421368
 51
264.76010223994928
  0
ARC
  8
_0-1_レイヤ___3
  6
CONTINUOUS
 62
    7
 10
5204.0584935151201
 20
10472.607947244769
 40
395.54367739998446
 50
264.26386051215144
 51
270.09943469271889
  0
ARC
  8
_0-1_レイヤ___3
  6
CONTINUOUS
 62
    7
 10
5383.010595812525
 20
10237.39635671735
 40
85.731971558112647
 50
324.22313568968741
 51
327.28758970092554
  0
ARC
  8
_0-1_レイヤ___3
  6
CONTINUOUS
 62
    7
 10
5320.3920047659221
 20
10282.074987124006
 40
162.65530541513715
 50
319.79861352195292
 51
324.35027925592732
  0
ARC
  8
_0-1_レイヤ___3
  6
CONTINUOUS
 62
    7
 10
5264.1763201103695
 20
10328.790502511083
 40
235.74627358302268
 50
308.65641323357414
 51
319.94577183701176
  0
ARC
  8
_0-1_レイヤ___3
  6
CONTINUOUS
 62
    7
 10
5231.6520412381888
 20
10366.508648598377
 40
285.52275923748948
 50
289.23484954955984
 51
309.02520763831461
  0
ARC
  8
_0-1_レイヤ___3
  6
CONTINUOUS
 62
    7
 10
5213.3728799628461
 20
10411.957220456572
 40
334.46393574591821
 50
274.08948010602842
 51
289.62648034847984
  0
ARC
  8
_0-1_レイヤ___3
  6
CONTINUOUS
 62
    7
 10
5205.2006565325382
 20
10478.231147655228
 40
401.16654099227435
 50
269.93491385974318
 51
274.57867413198187
  0
ARC
  8
_0-1_レイヤ___3
  6
CONTINUOUS
 62
    7
 10
6175.1772699267367
 20
10245.265671888299
 40
100.75331131322194
 50
212.54457606520913
 51
215.40440375223901
  0
ARC
  8
_0-1_レイヤ___3
  6
CONTINUOUS
 62
    7
 10
6263.3483817304796
 20
10307.718354002554
 40
208.80176016648289
 50
215.35576517119864
 51
221.36723442257554
  0
ARC
  8
_0-1_レイヤ___3
  6
CONTINUOUS
 62
    7
 10
6336.8373670803885
 20
10370.285440352563
 40
305.30820959523527
 50
221.06477503394933
 51
231.22765092056261
  0
ARC
  8
_0-1_レイヤ___3
  6
CONTINUOUS
 62
    7
 10
6373.9368632735477
 20
10413.758146275548
 40
362.43800051855146
 50
230.95883511048842
 51
251.35346403312761
  0
ARC
  8
_0-1_レイヤ___3
  6
CONTINUOUS
 62
    7
 10
6395.9271642596905
 20
10469.153515985501
 40
421.96811857703369
 50
250.92920805381607
 51
264.01576111916972
  0
ARC
  8
_0-1_レイヤ___3
  6
CONTINUOUS
 62
    7
 10
6406.6755607211735
 20
10543.900922169661
 40
497.43720610568812
 50
263.68207230856331
 51
270.12317171358143
  0
ARC
  8
_0-1_レイヤ___3
  6
CONTINUOUS
 62
    7
 10
6640.3125830732624
 20
10245.265671888299
 40
100.75331131322194
 50
324.59559624776097
 51
327.45542393479087
  0
ARC
  8
_0-1_レイヤ___3
  6
CONTINUOUS
 62
    7
 10
6552.1414712695196
 20
10307.718354002558
 40
208.80176016648622
 50
318.63276557742324
 51
324.64423482880017
  0
ARC
  8
_0-1_レイヤ___3
  6
CONTINUOUS
 62
    7
 10
6478.6524859196106
 20
10370.285440352563
 40
305.30820959523527
 50
308.77234907943739
 51
318.93522496605067
  0
ARC
  8
_0-1_レイヤ___3
  6
CONTINUOUS
 62
    7
 10
6441.5529897264514
 20
10413.758146275548
 40
362.43800051855146
 50
288.64653596687236
 51
309.04116488951161
  0
ARC
  8
_0-1_レイヤ___3
  6
CONTINUOUS
 62
    7
 10
6419.5626887403087
 20
10469.153515985501
 40
421.96811857703369
 50
275.98423888083028
 51
289.07079194618393
  0
ARC
  8
_0-1_レイヤ___3
  6
CONTINUOUS
 62
    7
 10
6408.8142922788284
 20
10543.900922169647
 40
497.43720610567294
 50
269.87682828641869
 51
276.31792769143675
  0
ARC
  8
_0-1_レイヤ___3
  6
CONTINUOUS
 62
    7
 10
5540.1358774185173
 20
10136.627503281741
 40
100.93010227786282
 50
144.50212566873279
 51
147.36012017610801
  0
ARC
  8
_0-1_レイヤ___3
  6
CONTINUOUS
 62
    7
 10
5628.3695471263927
 20
10074.232056271167
 40
208.99619450304266
 50
138.6141993796889
 51
144.62177519628176
  0
ARC
  8
_0-1_レイヤ___3
  6
CONTINUOUS
 62
    7
 10
5701.9104815690162
 20
10011.582808269701
 40
305.59542888809415
 50
128.76110525464961
 51
138.91711914959737
  0
ARC
  8
_0-1_レイヤ___3
  6
CONTINUOUS
 62
    7
 10
5739.008644335725
 20
9968.0573768509767
 40
362.76505364824754
 50
108.64440277668834
 51
129.02607137185763
  0
ARC
  8
_0-1_レイヤ___3
  6
CONTINUOUS
 62
    7
 10
5760.9508109280341
 20
9912.7376163916269
 40
422.2078773497347
 50
95.984053535164293
 51
109.06580942457414
  0
ARC
  8
_0-1_レイヤ___3
  6
CONTINUOUS
 62
    7
 10
5771.6784383483646
 20
9838.1757922208435
 40
497.49021243479604
 50
89.877171789659343
 51
96.317584188195951
  0
ARC
  8
_0-1_レイヤ___3
  6
CONTINUOUS
 62
    7
 10
6005.2204605955449
 20
10136.604825622162
 40
100.97057184268152
 50
32.640452692637687
 51
35.497301462542985
  0
ARC
  8
_0-1_レイヤ___3
  6
CONTINUOUS
 62
    7
 10
5916.9578159439207
 20
10074.182544247664
 40
209.07582711155086
 50
35.379369932403733
 51
41.384655491620954
  0
ARC
  8
_0-1_レイヤ___3
  6
CONTINUOUS
 62
    7
 10
5843.4223182357146
 20
10011.574452762146
 40
305.6439400285019
 50
41.077030819156093
 51
51.230071178722717
  0
ARC
  8
_0-1_レイヤ___3
  6
CONTINUOUS
 62
    7
 10
5806.3924915569396
 20
9968.115877061693
 40
362.71881313437632
 50
50.968265029241259
 51
71.34834199623468
  0
ARC
  8
_0-1_レイヤ___3
  6
CONTINUOUS
 62
    7
 10
5784.5214885883233
 20
9913.0129606666815
 40
421.93378118613651
 50
70.927422340987263
 51
84.012376348968317
  0
ARC
  8
_0-1_レイヤ___3
  6
CONTINUOUS
 62
    7
 10
5773.8119484612971
 20
9838.5477764375537
 40
497.11823018035136
 50
83.680048148512199
 51
90.122979570248162
  0
ARC
  8
_0-1_レイヤ___3
  6
CONTINUOUS
 62
    7
 10
6797.3421865972032
 20
10144.758611797955
 40
85.687131946339932
 50
144.22233369227075
 51
147.28839169837414
  0
ARC
  8
_0-1_レイヤ___3
  6
CONTINUOUS
 62
    7
 10
6859.9332951834594
 20
10100.105046321725
 40
162.57352260625143
 50
139.79746805852193
 51
144.35142471936226
  0
ARC
  8
_0-1_レイヤ___3
  6
CONTINUOUS
 62
    7
 10
6916.1551093374292
 20
10053.353651079999
 40
235.69226502682088
 50
128.64561282955856
 51
139.93931535074947
  0
ARC
  8
_0-1_レイヤ___3
  6
CONTINUOUS
 62
    7
 10
6947.9280228157231
 20
10016.650638692066
 40
284.20672953857724
 50
110.99190681131051
 51
129.0275056327736
  0
ARC
  8
_0-1_レイヤ___3
  6
CONTINUOUS
 62
    7
 10
6965.5447985323426
 20
9975.7474617603402
 40
328.71106836472558
 50
95.239897760050724
 51
111.30471065578634
  0
ARC
  8
_0-1_レイヤ___3
  6
CONTINUOUS
 62
    7
 10
6975.0584670151202
 20
9909.5217699453515
 40
395.54368721071808
 50
89.900565237320635
 51
95.736139417888069
  0
ARC
  8
_0-1_レイヤ___3
  6
CONTINUOUS
 62
    7
 10
7154.1476494027975
 20
10144.758611797955
 40
85.687131946339932
 50
32.711608301625859
 51
35.777666307729241
  0
ARC
  8
_0-1_レイヤ___3
  6
CONTINUOUS
 62
    7
 10
7091.5565408165412
 20
10100.105046321725
 40
162.57352260625143
 50
35.648575280637729
 51
40.202531941478085
  0
ARC
  8
_0-1_レイヤ___3
  6
CONTINUOUS
 62
    7
 10
7035.3347266625697
 20
10053.353651079993
 40
235.69226502682505
 50
40.060684649251506
 51
51.354387170442408
  0
ARC
  8
_0-1_レイヤ___3
  6
CONTINUOUS
 62
    7
 10
7003.5618131842766
 20
10016.650638692066
 40
284.20672953857724
 50
50.972494367226417
 51
69.008093188689486
  0
ARC
  8
_0-1_レイヤ___3
  6
CONTINUOUS
 62
    7
 10
6985.945037467658
 20
9975.7474617603439
 40
328.71106836472171
 50
68.695289344213506
 51
84.760102239949134
  0
ARC
  8
_0-1_レイヤ___3
  6
CONTINUOUS
 62
    7
 10
6976.4313694848806
 20
9909.5217797552341
 40
395.54367739998446
 50
84.263860512151453
 51
90.099434692718887
  0
ARC
  8
_0-1_レイヤ___3
  6
CONTINUOUS
 62
    7
 10
1238.1699692023803
 20
1344.8014846470303
 40
207.17436295164543
 50
166.53905732635957
 51
201.98942843098516
  0
ARC
  8
_0-1_レイヤ___3
  6
CONTINUOUS
 62
    7
 10
1209.3755053128766
 20
439.20217635316453
 40
471.34294330804778
 50
66.700815837916522
 51
76.042185286620935
  0
ARC
  8
_0-1_レイヤ___3
  6
CONTINUOUS
 62
    7
 10
1302.195897360514
 20
659.70153955750811
 40
232.11968985768675
 50
58.364178874511907
 51
66.216127445324602
  0
ARC
  8
_0-1_レイヤ___3
  6
CONTINUOUS
 62
    7
 10
1361.7136603094436
 20
758.92087540571208
 40
116.43432168831387
 50
49.903110798468326
 51
57.690504940308124
  0
ARC
  8
_0-1_レイヤ___3
  6
CONTINUOUS
 62
    7
 10
1396.2837067963144
 20
800.41205530331945
 40
62.43005526987411
 50
34.673039314548369
 51
49.646918387875736
  0
ARC
  8
_0-1_レイヤ___3
  6
CONTINUOUS
 62
    7
 10
1421.4605024274661
 20
818.62418233715516
 40
31.370454818261369
 50
5.8618473515846166
 51
33.476687976459282
  0
ARC
  8
_0-1_レイヤ___3
  6
CONTINUOUS
 62
    7
 10
1484.2618049321411
 20
828.08986917096718
 40
32.209423330657373
 50
191.2102296237274
 51
208.24285968224783
  0
ARC
  8
_0-1_レイヤ___3
  6
CONTINUOUS
 62
    7
 10
1506.0211728997294
 20
838.8533002828309
 40
56.477570894633402
 50
207.41632168356222
 51
218.76900923015688
  0
ARC
  8
_0-1_レイヤ___3
  6
CONTINUOUS
 62
    7
 10
1537.7724043082642
 20
863.32625837240016
 40
96.561121721560824
 50
218.29368553771107
 51
226.61670570266008
  0
ARC
  8
_0-1_レイヤ___3
  6
CONTINUOUS
 62
    7
 10
1580.0162372451623
 20
906.47173423957292
 40
156.93805506391212
 50
226.22745441622513
 51
233.38228869603773
  0
ARC
  8
_0-1_レイヤ___3
  6
CONTINUOUS
 62
    7
 10
1635.8899097903586
 20
980.06228929689905
 40
249.33322529096876
 50
233.16368768393306
 51
245.8968183392455
  0
ARC
  8
_0-1_レイヤ___3
  6
CONTINUOUS
 62
    7
 10
1637.6577068520864
 20
977.21501186230967
 40
247.47170793622331
 50
245.25399080817806
 51
256.25709035001182
  0
ARC
  8
_0-1_レイヤ___3
  6
CONTINUOUS
 62
    7
 10
1508.2149182414846
 20
396.15869936104673
 40
347.91854562111149
 50
65.175172785052354
 51
78.283427217135085
  0
ARC
  8
_0-1_レイヤ___3
  6
CONTINUOUS
 62
    7
 10
1573.2437766096539
 20
541.87566457697312
 40
188.37676578510414
 50
55.557049982644855
 51
64.518581824519401
  0
ARC
  8
_0-1_レイヤ___3
  6
CONTINUOUS
 62
    7
 10
1618.4729017847983
 20
609.68352733650352
 40
106.88055361342668
 50
43.214527554373696
 51
54.993553857362471
  0
ARC
  8
_0-1_レイヤ___3
  6
CONTINUOUS
 62
    7
 10
1651.0185756776914
 20
641.31696441800159
 40
61.505814507992454
 50
22.635010278230272
 51
42.497931994750779
  0
ARC
  8
_0-1_レイヤ___3
  6
CONTINUOUS
 62
    7
 10
1666.3459180502466
 20
648.8125822438476
 40
44.485979790297932
 50
11.955651260848597
 51
21.321960080009891
  0
ARC
  8
_0-1_レイヤ___3
  6
CONTINUOUS
 62
    7
 10
1754.0671099456076
 20
677.22442162013044
 40
48.188769047716768
 50
203.47555143135966
 51
216.25277756114255
  0
ARC
  8
_0-1_レイヤ___3
  6
CONTINUOUS
 62
    7
 10
1773.7856847346379
 20
690.69331896380618
 40
72.059387590355954
 50
215.617447928812
 51
245.99166791370865
  0
ARC
  8
_0-1_レイヤ___3
  6
CONTINUOUS
 62
    7
 10
1781.6577447256052
 20
705.22168246572346
 40
88.543000247414042
 50
245.16344019166942
 51
257.34975528776829
  0
ARC
  8
_0-1_レイヤ___3
  6
CONTINUOUS
 62
    7
 10
1776.9453648125377
 20
692.4156505795321
 40
75.037263483287632
 50
258.71932269845666
 51
263.45082338724762
  0
ARC
  8
_0-1_レイヤ___3
  6
CONTINUOUS
 62
    7
 10
1734.3742784698302
 20
279.04567477148419
 40
340.52527876005786
 50
77.260422455154156
 51
84.267574696540663
  0
ARC
  8
_0-1_レイヤ___3
  6
CONTINUOUS
 62
    7
 10
1770.8501140344001
 20
446.15412032013131
 40
169.49176159784344
 50
67.450553575143886
 51
76.830132794574567
  0
ARC
  8
_0-1_レイヤ___3
  6
CONTINUOUS
 62
    7
 10
1799.0866409430557
 20
517.20402954769315
 40
93.052869825103372
 50
53.752125698444196
 51
66.731082209643105
  0
ARC
  8
_0-1_レイヤ___3
  6
CONTINUOUS
 62
    7
 10
1820.7292525339981
 20
548.26874344576061
 40
55.210944185144719
 50
32.124865519975529
 51
52.803679126086138
  0
ARC
  8
_0-1_レイヤ___3
  6
CONTINUOUS
 62
    7
 10
1830.970586077892
 20
555.93314449243326
 40
42.474834450950482
 50
10.986712883553254
 51
30.71519539479365
  0
ARC
  8
_0-1_レイヤ___3
  6
CONTINUOUS
 62
    7
 10
1896.7433511264678
 20
571.33585877983012
 40
25.161054993259011
 50
196.88436262325618
 51
206.19758921381231
  0
ARC
  8
_0-1_レイヤ___3
  6
CONTINUOUS
 62
    7
 10
1922.8857737917488
 20
583.94284682837838
 40
54.18411548770947
 50
205.95534672500824
 51
211.70319981756174
  0
ARC
  8
_0-1_レイヤ___3
  6
CONTINUOUS
 62
    7
 10
1956.0699956104086
 20
604.62976896115754
 40
93.28815937829431
 50
211.80215142300142
 51
220.73942687901126
  0
ARC
  8
_0-1_レイヤ___3
  6
CONTINUOUS
 62
    7
 10
1998.3028021251757
 20
639.241797128455
 40
147.88188487862419
 50
220.22143104721417
 51
230.62469377904662
  0
ARC
  8
_0-1_レイヤ___3
  6
CONTINUOUS
 62
    7
 10
2036.6387322105581
 20
683.74823541485762
 40
206.61062867243317
 50
230.23668154459543
 51
242.00816475224786
  0
ARC
  8
_0-1_レイヤ___3
  6
CONTINUOUS
 62
    7
 10
2064.2567590678464
 20
731.06092144358604
 40
261.35991998534899
 50
241.53001238524564
 51
246.36299699377344
  0
ARC
  8
_0-1_レイヤ___3
  6
CONTINUOUS
 62
    7
 10
1313.1083230268669
 20
1584.4687769344364
 40
316.46973474367331
 50
214.52863000878534
 51
233.63546849505508
  0
ARC
  8
_0-1_レイヤ___3
  6
CONTINUOUS
 62
    7
 10
1327.1671638726868
 20
1610.2978251404968
 40
302.08064855860607
 50
214.09349291918613
 51
233.44906885918988
  0
ARC
  8
_0-1_レイヤ___3
  6
CONTINUOUS
 62
    7
 10
1388.4985091859173
 20
1656.0168391463876
 40
378.51418632336811
 50
202.18540105507299
 51
214.62057709934138
  0
ARC
  8
_0-1_レイヤ___3
  6
CONTINUOUS
 62
    7
 10
1336.3540364674359
 20
1630.7765694271882
 40
282.5851520066646
 50
215.02583104505194
 51
233.70176713235833
  0
ARC
  8
_0-1_レイヤ___3
  6
CONTINUOUS
 62
    7
 10
1392.4136002843866
 20
1673.5903223669663
 40
353.07651076488025
 50
202.43779129692993
 51
215.4939620542643
  0
ARC
  8
_0-1_レイヤ___3
  6
CONTINUOUS
 62
    7
 10
1348.0885623227837
 20
1652.6962008225839
 40
267.98016531341085
 50
215.19888322898626
 51
234.02461460376412
  0
ARC
  8
_0-1_レイヤ___3
  6
CONTINUOUS
 62
    7
 10
1391.5444613950538
 20
1686.6920956228955
 40
323.09775507176562
 50
207.2352441319822
 51
215.68323083038942
  0
ARC
  8
_0-1_レイヤ___3
  6
CONTINUOUS
 62
    7
 10
1368.221877207267
 20
1685.1200327821416
 40
262.11734865807875
 50
214.13664370160447
 51
234.46169459787023
  0
ARC
  8
_0-1_レイヤ___3
  6
CONTINUOUS
 62
    7
 10
1362.0213551409299
 20
1689.1013069588018
 40
207.05779470096869
 50
227.09778386356192
 51
237.72860390997951
  0
ARC
  8
_0-1_レイヤ___3
  6
CONTINUOUS
 62
    7
 10
2320.1627664720427
 20
668.94559950910161
 40
1365.1377673141224
 50
140.4157468934788
 51
155.08562913530199
  0
ARC
  8
_0-1_レイヤ___3
  6
CONTINUOUS
 62
    7
 10
2229.2870411540152
 20
714.48285851904973
 40
1240.9972863703888
 50
149.16874574599149
 51
163.61539013124778
  0
ARC
  8
_0-1_レイヤ___3
  6
CONTINUOUS
 62
    7
 10
2249.4465209617042
 20
709.65304472634239
 40
1260.7983412487038
 50
138.87844462185137
 51
149.44980446159894
  0
ARC
  8
_0-1_レイヤ___3
  6
CONTINUOUS
 62
    7
 10
2209.3818318126582
 20
728.50079467391561
 40
1191.5111900238976
 50
138.33233338709971
 51
162.92239120007613
  0
ARC
  8
_0-1_レイヤ___3
  6
CONTINUOUS
 62
    7
 10
2080.970700828419
 20
836.04473998613582
 40
1024.1025363808785
 50
136.66655130970616
 51
138.05080050969744
  0
LINE
  8
_0-1_レイヤ___3
  6
CONTINUOUS
 62
    7
 10
1066.4669285502819
 20
831.82805165765399
 11
1066.4669285502819
 21
837.4280516576539
  0
ARC
  8
_0-1_レイヤ___3
  6
CONTINUOUS
 62
    7
 10
1788.9390665534872
 20
836.96005204759649
 40
722.47228958248445
 50
171.19197732187047
 51
179.96288521410168
  0
ARC
  8
_0-1_レイヤ___3
  6
CONTINUOUS
 62
    7
 10
1965.3077870462973
 20
813.49555567158632
 40
900.36216491836456
 50
162.13341870458203
 51
171.43497622270752
  0
ARC
  8
_0-1_レイヤ___3
  6
CONTINUOUS
 62
    7
 10
2157.4174021762074
 20
755.84000999289083
 40
1100.9033209626566
 50
137.56007643885488
 51
162.34495353885677
  0
ARC
  8
_0-1_レイヤ___3
  6
CONTINUOUS
 62
    7
 10
2009.975094367916
 20
881.66778745098895
 40
907.20665013874384
 50
133.7292764725357
 51
137.14087353667776
  0
ARC
  8
_0-1_レイヤ___3
  6
CONTINUOUS
 62
    7
 10
1864.983111914315
 20
849.34216178322254
 40
760.72280638919642
 50
165.13280120967934
 51
175.07677064189983
  0
ARC
  8
_0-1_レイヤ___3
  6
CONTINUOUS
 62
    7
 10
2051.8337423337703
 20
804.87769114281207
 40
952.73987692971741
 50
152.98005353831391
 51
165.43145366368785
  0
ARC
  8
_0-1_レイヤ___3
  6
CONTINUOUS
 62
    7
 10
2115.1067864280417
 20
778.74974438023958
 40
1020.9911591795969
 50
139.08116043350472
 51
153.28696020714671
  0
ARC
  8
_0-1_レイヤ___3
  6
CONTINUOUS
 62
    7
 10
1962.4484978073317
 20
904.31858981842413
 40
823.40630687564521
 50
129.59301426701214
 51
138.7259368912645
  0
ARC
  8
_0-1_レイヤ___3
  6
CONTINUOUS
 62
    7
 10
1835.696713836966
 20
871.96462803842735
 40
691.87696833871541
 50
165.53666981845004
 51
174.62062468225764
  0
ARC
  8
_0-1_レイヤ___3
  6
CONTINUOUS
 62
    7
 10
1996.6340734265887
 20
834.04549033245871
 40
857.19160460769785
 50
153.51452330528429
 51
165.76916950357653
  0
ARC
  8
_0-1_レイヤ___3
  6
CONTINUOUS
 62
    7
 10
2061.0649556928965
 20
807.54584233665537
 40
926.69194837839655
 50
139.61017157085851
 51
153.82464686493665
  0
ARC
  8
_0-1_レイヤ___3
  6
CONTINUOUS
 62
    7
 10
1930.7311384563898
 20
912.8459282337501
 40
759.20182289745753
 50
131.00630060801635
 51
139.28926634545854
  0
ARC
  8
_0-1_レイヤ___3
  6
CONTINUOUS
 62
    7
 10
1829.383370648824
 20
1025.3549883450237
 40
607.80556174181004
 50
122.87440505598879
 51
130.7556545172439
  0
ARC
  8
_0-1_レイヤ___3
  6
CONTINUOUS
 62
    7
 10
1820.8548728044227
 20
892.0033774534171
 40
639.48901835431332
 50
163.4663593650447
 51
174.00181369753338
  0
ARC
  8
_0-1_レイヤ___3
  6
CONTINUOUS
 62
    7
 10
1989.8891501574324
 20
845.85518277437768
 40
814.67613719941153
 50
136.56717129377702
 51
163.73807027193672
  0
ARC
  8
_0-1_レイヤ___3
  6
CONTINUOUS
 62
    7
 10
1849.4597333615079
 20
971.77850132595734
 40
626.14702483028384
 50
127.36847287329272
 51
136.10024756762414
  0
ARC
  8
_0-1_レイヤ___3
  6
CONTINUOUS
 62
    7
 10
1776.5240952118043
 20
1062.5061355324485
 40
509.78214431757613
 50
122.92095671606313
 51
127.04259987039231
  0
ARC
  8
_0-1_レイヤ___3
  6
CONTINUOUS
 62
    7
 10
1791.655083398779
 20
918.4297779185888
 40
564.20419955724606
 50
162.59380629162021
 51
173.15967742498535
  0
ARC
  8
_0-1_レイヤ___3
  6
CONTINUOUS
 62
    7
 10
1927.349888082189
 20
879.37527406879371
 40
705.37602779159943
 50
136.34931616154668
 51
162.86398217725196
  0
ARC
  8
_0-1_レイヤ___3
  6
CONTINUOUS
 62
    7
 10
1791.8258506375148
 20
1001.6364345045693
 40
522.94877986307381
 50
123.99070744684221
 51
135.79236288252326
  0
ARC
  8
_0-1_レイヤ___3
  6
CONTINUOUS
 62
    7
 10
1762.6048053992131
 20
946.16485602027842
 40
485.2490280426955
 50
159.9424091244905
 51
171.84143577058322
  0
ARC
  8
_0-1_レイヤ___3
  6
CONTINUOUS
 62
    7
 10
1864.6510469146826
 20
913.13263344544362
 40
592.44817602889668
 50
138.63835711550567
 51
160.32630062988991
  0
ARC
  8
_0-1_レイヤ___3
  6
CONTINUOUS
 62
    7
 10
1768.2434382709632
 20
994.00305357605941
 40
466.65885446179982
 50
127.50814149245488
 51
138.26885422839965
  0
ARC
  8
_0-1_レイヤ___3
  6
CONTINUOUS
 62
    7
 10
1706.0344390341456
 20
1069.8379006783871
 40
368.63780224579563
 50
124.11779374995498
 51
127.01474324592922
  0
ARC
  8
_0-1_レイヤ___3
  6
CONTINUOUS
 62
    7
 10
1738.9488318366127
 20
965.51528925834305
 40
426.87910679102737
 50
159.36860762292631
 51
170.54662199349934
  0
ARC
  8
_0-1_レイヤ___3
  6
CONTINUOUS
 62
    7
 10
1815.1622623985272
 20
939.73349181507319
 40
507.29636719834082
 50
138.5226447877065
 51
159.67647235594291
  0
ARC
  8
_0-1_レイヤ___3
  6
CONTINUOUS
 62
    7
 10
1726.3796002976321
 20
1014.6950506745209
 40
391.13891212596826
 50
125.6760134971119
 51
138.13586837581417
  0
ARC
  8
_0-1_レイヤ___3
  6
CONTINUOUS
 62
    7
 10
1722.6452022684034
 20
983.43102444439933
 40
374.71695928296447
 50
153.82090902185027
 51
168.64188330429502
  0
ARC
  8
_0-1_レイヤ___3
  6
CONTINUOUS
 62
    7
 10
1763.8890746564969
 20
967.10180175095206
 40
418.94908280470753
 50
137.93102689797573
 51
154.30528617092943
  0
ARC
  8
_0-1_レイヤ___3
  6
CONTINUOUS
 62
    7
 10
1689.4585544908612
 20
1030.8323635479946
 40
321.00558198570388
 50
126.33369209003875
 51
137.47398082815303
  0
ARC
  8
_0-1_レイヤ___3
  6
CONTINUOUS
 62
    7
 10
1695.2127810694205
 20
1004.0552846472718
 40
304.26247907840252
 50
136.05905928649443
 51
163.11515514697453
  0
ARC
  8
_0-1_レイヤ___3
  6
CONTINUOUS
 62
    7
 10
1638.9761644652717
 20
1054.5524494223916
 40
228.74367831733665
 50
127.58178986959925
 51
135.39207579490429
  0
ARC
  8
_0-1_レイヤ___3
  6
CONTINUOUS
 62
    7
 10
1653.8141381295397
 20
1025.8022815655363
 40
229.67325228335926
 50
137.67544380043833
 51
157.73374423702967
  0
ARC
  8
_0-1_レイヤ___3
  6
CONTINUOUS
 62
    7
 10
1616.1344601586748
 20
1057.7172113257338
 40
180.33453327154666
 50
130.31208408241011
 51
137.1115557920628
  0
LINE
  8
_0-1_レイヤ___3
  6
CONTINUOUS
 62
    7
 10
941.86693055028263
 20
1538.628041657654
 11
941.86693055028263
 21
756.42805365765389
  0
LINE
  8
_0-1_レイヤ___3
  6
CONTINUOUS
 62
    7
 10
941.86693055028263
 20
756.42805365765389
 11
1047.2669285502823
 21
817.4280516576539
  0
ARC
  8
_0-1_レイヤ___3
  6
CONTINUOUS
 62
    7
 10
1265.0781304670797
 20
898.71694609068425
 40
232.48570717053622
 50
191.99304563480527
 51
200.46597926520201
  0
ARC
  8
_0-1_レイヤ___3
  6
CONTINUOUS
 62
    7
 10
1162.1935973160621
 20
875.43307887585729
 40
127.01631084696996
 50
180.70598589187045
 51
191.36287650081869
  0
ARC
  8
_0-1_レイヤ___3
  6
CONTINUOUS
 62
    7
 10
1120.318423882758
 20
873.81670879861304
 40
85.131510814929442
 50
157.0820016394768
 51
179.96544488308314
  0
ARC
  8
_0-1_レイヤ___3
  6
CONTINUOUS
 62
    7
 10
966.95222653024894
 20
941.79119315587423
 40
82.649008092760369
 50
335.08093020743291
 51
345.22093271765578
  0
ARC
  8
_0-1_レイヤ___3
  6
CONTINUOUS
 62
    7
 10
1018.0413601437251
 20
928.39905106807669
 40
29.83395543095456
 50
345.0608203522774
 51
20.051479804874539
  0
ARC
  8
_0-1_レイヤ___3
  6
CONTINUOUS
 62
    7
 10
1312.6544899280989
 20
1036.0647831672932
 40
283.83594719203467
 50
181.85275948762106
 51
200.07716462014358
  0
ARC
  8
_0-1_レイヤ___3
  6
CONTINUOUS
 62
    7
 10
1260.3739355198845
 20
1031.7415007520074
 40
231.45789868171482
 50
165.01516209990015
 51
181.20152584220031
  0
ARC
  8
_0-1_レイヤ___3
  6
CONTINUOUS
 62
    7
 10
1201.5090879286461
 20
1045.7374770157799
 40
170.98439875747985
 50
157.97155869089286
 51
164.44540527033945
  0
ARC
  8
_0-1_レイヤ___3
  6
CONTINUOUS
 62
    7
 10
1124.5201751442235
 20
1077.0426135485584
 40
87.87444733672784
 50
153.22569591307206
 51
158.06532387279441
  0
ARC
  8
_0-1_レイヤ___3
  6
CONTINUOUS
 62
    7
 10
887.71701445420513
 20
1183.4314248002513
 40
171.86444219759679
 50
337.12648619943934
 51
357.41765623845708
  0
ARC
  8
_0-1_レイヤ___3
  6
CONTINUOUS
 62
    7
 10
827.76858838274711
 20
1188.6737149621795
 40
232.00204350590298
 50
356.79135166727588
 51
19.791191673371706
  0
ARC
  8
_0-1_レイヤ___3
  6
CONTINUOUS
 62
    7
 10
1190.4699539071098
 20
1354.2454847827635
 40
158.59793744176829
 50
155.57419295576841
 51
165.84571460585354
  0
ARC
  8
_0-1_レイヤ___3
  6
CONTINUOUS
 62
    7
 10
942.63466873214247
 20
1454.1550032000364
 40
108.97968857778781
 50
341.64009598531322
 51
2.0156254323722416
  0
ARC
  8
_0-1_レイヤ___3
  6
CONTINUOUS
 62
    7
 10
967.66719212333646
 20
1453.9370167286443
 40
83.977502856594541
 50
2.7649875012183207
 51
16.642457580100935
  0
ARC
  8
_0-1_レイヤ___3
  6
CONTINUOUS
 62
    7
 10
1004.3027617456116
 20
1464.5028976103015
 40
45.852008746633928
 50
17.103666548979994
 51
24.377329043184627
  0
ARC
  8
_0-1_レイヤ___3
  6
CONTINUOUS
 62
    7
 10
1190.7854502047323
 20
1536.5461665218349
 40
154.15896243467716
 50
192.91605993065897
 51
200.15537940940936
  0
ARC
  8
_0-1_レイヤ___3
  6
CONTINUOUS
 62
    7
 10
1289.0287724367581
 20
1560.8026372871234
 40
255.34402314311279
 50
185.02700674860782
 51
193.29372168811108
  0
ARC
  8
_0-2_決定
  6
CONTINUOUS
 62
    7
 10
775.27398703274662
 20
1218.5237503152084
 40
6.0575680531158174
 50
324.52257114122887
 51
37.699147424679246
  0
ARC
  8
_0-2_決定
  6
CONTINUOUS
 62
    7
 10
769.21211553314777
 20
1222.0687194932657
 40
13.066717883737018
 50
303.30467319380773
 51
327.2921524461679
  0
ARC
  8
_0-2_決定
  6
CONTINUOUS
 62
    7
 10
762.54720064711876
 20
1231.1518141047191
 40
24.32465685750217
 50
277.36870302144132
 51
304.6776639764808
  0
ARC
  8
_0-2_決定
  6
CONTINUOUS
 62
    7
 10
755.09082326564624
 20
1230.6680908115416
 40
25.89798877284494
 50
267.86703018876858
 51
294.10283956051643
  0
ARC
  8
_0-2_決定
  6
CONTINUOUS
 62
    7
 10
754.94412584992369
 20
1218.450712493601
 40
13.687084056111365
 50
244.19930879481564
 51
266.57709490829222
  0
ARC
  8
_0-2_決定
  6
CONTINUOUS
 62
    7
 10
752.03966861626418
 20
1211.9552310596623
 40
6.5783954881059632
 50
177.62318803513253
 51
242.35093190962152
  0
ARC
  8
_0-2_決定
  6
CONTINUOUS
 62
    7
 10
750.25766217186606
 20
1215.9322980325881
 40
6.0557886327317032
 50
144.51007219345678
 51
217.7116463724513
  0
ARC
  8
_0-2_決定
  6
CONTINUOUS
 62
    7
 10
756.07725662390976
 20
1212.4611935625849
 40
12.821293612049935
 50
122.71988614340934
 51
146.97934930044011
  0
ARC
  8
_0-2_決定
  6
CONTINUOUS
 62
    7
 10
762.521853679944
 20
1203.6501173888175
 40
23.726932116375984
 50
96.424555995523065
 51
124.31221031097361
  0
ARC
  8
_0-2_決定
  6
CONTINUOUS
 62
    7
 10
770.657292260041
 20
1202.7510634331452
 40
26.749850868460886
 50
88.222699953095926
 51
113.78966076450007
  0
ARC
  8
_0-2_決定
  6
CONTINUOUS
 62
    7
 10
770.72945143429195
 20
1215.9734072172305
 40
13.535849800306481
 50
63.69935773094614
 51
86.79198896926674
  0
ARC
  8
_0-2_決定
  6
CONTINUOUS
 62
    7
 10
773.71374502969218
 20
1222.5078677122847
 40
6.3593468260535744
 50
357.47807419715139
 51
61.717433389362228
  0
ARC
  8
_0-2_決定
  6
CONTINUOUS
 62
    7
 10
830.10754568423465
 20
1283.8891863839517
 40
32.258499016427109
 50
284.2845478729202
 51
300.26725750940375
  0
ARC
  8
_0-2_決定
  6
CONTINUOUS
 62
    7
 10
843.09720562481971
 20
1261.4740842059271
 40
6.3521993795431833
 50
300.98001275803244
 51
319.49270386052217
  0
ARC
  8
_0-2_決定
  6
CONTINUOUS
 62
    7
 10
846.91765706301453
 20
1258.2592984221642
 40
1.3597847524253424
 50
317.9217537380498
 51
7.12869774941624
  0
ARC
  8
_0-2_決定
  6
CONTINUOUS
 62
    7
 10
847.04906584377454
 20
1258.0962544807323
 40
1.2622518878732589
 50
15.23962748684006
 51
56.435678421660803
  0
ARC
  8
_0-2_決定
  6
CONTINUOUS
 62
    7
 10
845.76837989596038
 20
1256.1972152763567
 40
3.5527542317060066
 50
56.157894245019101
 51
77.67183840940335
  0
ARC
  8
_0-2_決定
  6
CONTINUOUS
 62
    7
 10
844.30584767541973
 20
1249.5177583464854
 40
10.390454351772561
 50
77.657101358479636
 51
90.324886726498036
  0
ARC
  8
_0-2_決定
  6
CONTINUOUS
 62
    7
 10
844.08031003557994
 20
1236.3933972017467
 40
23.515238769802679
 50
89.5940193398975
 51
97.854096605607637
  0
ARC
  8
_0-2_決定
  6
CONTINUOUS
 62
    7
 10
845.71534250977493
 20
1223.1964245821227
 40
36.812301031708081
 50
97.568203998396811
 51
104.55039854177188
  0
ARC
  8
_0-2_決定
  6
CONTINUOUS
 62
    7
 10
844.0132519520032
 20
1228.9414847169428
 40
30.824559386561333
 50
104.170910456294
 51
120.54676583505461
  0
ARC
  8
_0-2_決定
  6
CONTINUOUS
 62
    7
 10
831.74415860055035
 20
1250.1023862573516
 40
6.3676111700298978
 50
122.24336445518944
 51
140.55407931038542
  0
ARC
  8
_0-2_決定
  6
CONTINUOUS
 62
    7
 10
827.86003376992483
 20
1253.1981202656264
 40
1.4034444700258042
 50
137.40179939844126
 51
186.96042277253457
  0
ARC
  8
_0-2_決定
  6
CONTINUOUS
 62
    7
 10
827.68691322369955
 20
1253.3613650328991
 40
1.2646954769528014
 50
195.28122850480852
 51
236.39407740369234
  0
ARC
  8
_0-2_決定
  6
CONTINUOUS
 62
    7
 10
828.96634189743941
 20
1255.2608906644489
 40
3.5549057649630305
 50
236.16448219559197
 51
257.66525045883327
  0
ARC
  8
_0-2_決定
  6
CONTINUOUS
 62
    7
 10
830.41143038754399
 20
1261.7862336251712
 40
10.238338407587971
 50
257.56581975165733
 51
270.31060267085252
  0
ARC
  8
_0-2_決定
  6
CONTINUOUS
 62
    7
 10
830.63349609834268
 20
1274.1953593868993
 40
22.647926231035424
 50
269.57861597303906
 51
278.00371540170022
  0
ARC
  8
_0-2_決定
  6
CONTINUOUS
 62
    7
 10
829.17403997189524
 20
1285.8054645361483
 40
34.348575834375353
 50
277.71794029495931
 51
285.00488200095492
  0
ARC
  8
_0-2_決定
  6
CONTINUOUS
 62
    7
 10
824.7077090263715
 20
1484.1872651815643
 40
4.9617789240026786
 50
271.83893771166004
 51
358.16106228833996
  0
ARC
  8
_0-2_決定
  6
CONTINUOUS
 62
    7
 10
825.07679206515206
 20
1484.2379011725234
 40
5.0142530226061606
 50
182.39867783169132
 51
267.60132216830874
  0
ARC
  8
_0-2_決定
  6
CONTINUOUS
 62
    7
 10
825.00867735364727
 20
1483.8862968542887
 40
4.943777229089811
 50
91.642972918947919
 51
178.35702708105208
  0
ARC
  8
_0-2_決定
  6
CONTINUOUS
 62
    7
 10
824.7745563296528
 20
1483.935665437024
 40
4.8932482514503359
 50
1.0817113152084326
 51
88.918288684791577
  0
ARC
  8
_0-2_決定
  6
CONTINUOUS
 62
    7
 10
800.84537692271601
 20
1382.4394696495897
 40
2.4215825839082354
 50
275.24945117444094
 51
359.72965466955708
  0
ARC
  8
_0-2_決定
  6
CONTINUOUS
 62
    7
 10
801.18413457256565
 20
1382.3438121780805
 40
2.3187324455884752
 50
177.91818570673985
 51
267.10270844926208
  0
ARC
  8
_0-2_決定
  6
CONTINUOUS
 62
    7
 10
801.52566529792671
 20
1382.409115948109
 40
2.6588001206531691
 50
99.935169263722102
 51
179.5921141177451
  0
ARC
  8
_0-2_決定
  6
CONTINUOUS
 62
    7
 10
800.97615887678649
 20
1382.8768831474104
 40
2.1530748711164129
 50
25.0361721736056
 51
87.583692774424705
  0
ARC
  8
_0-2_決定
  6
CONTINUOUS
 62
    7
 10
800.35015883630285
 20
1382.4213502291605
 40
2.916781394027375
 50
0.1314824417499331
 51
27.941004494035411
  0
ARC
  8
_0-2_決定
  6
CONTINUOUS
 62
    7
 10
812.62127032611374
 20
1319.923241372941
 40
1.0499867104156229
 50
310.76967880440924
 51
354.79809808088646
  0
ARC
  8
_0-2_決定
  6
CONTINUOUS
 62
    7
 10
811.29979436948247
 20
1321.3434734506334
 40
2.9894368774811135
 50
288.4712214695594
 51
312.17599225554892
  0
ARC
  8
_0-2_決定
  6
CONTINUOUS
 62
    7
 10
810.52187852674001
 20
1323.6766013787494
 40
5.4488347653819424
 50
269.42222033795673
 51
288.45690966833075
  0
ARC
  8
_0-2_決定
  6
CONTINUOUS
 62
    7
 10
810.30364670593576
 20
1322.5411969283723
 40
4.3162429731968963
 50
228.91192695083393
 51
272.16804817861401
  0
ARC
  8
_0-2_決定
  6
CONTINUOUS
 62
    7
 10
808.13388708190496
 20
1319.8421008915889
 40
0.8670684896407998
 50
180.92894099234078
 51
219.71733266711377
  0
ARC
  8
_0-2_決定
  6
CONTINUOUS
 62
    7
 10
808.39339680293642
 20
1319.8021347439587
 40
1.1267621684798474
 50
132.86209198548394
 51
178.68241737854891
  0
ARC
  8
_0-2_決定
  6
CONTINUOUS
 62
    7
 10
809.30956077945575
 20
1318.7336442787839
 40
2.5337692800003615
 50
106.09945584318854
 51
131.61186659626151
  0
ARC
  8
_0-2_決定
  6
CONTINUOUS
 62
    7
 10
810.36085434766676
 20
1315.4038338763689
 40
6.0251436558807114
 50
88.991202917539155
 51
106.92384753630466
  0
ARC
  8
_0-2_決定
  6
CONTINUOUS
 62
    7
 10
810.62525155597655
 20
1315.8642305160195
 40
5.5660651795131812
 50
69.802975563566974
 51
91.629918825903147
  0
ARC
  8
_0-2_決定
  6
CONTINUOUS
 62
    7
 10
812.06744500136438
 20
1319.534054725282
 40
1.6262810063151809
 50
10.414832372873981
 51
72.852246300251977
  0
ARC
  8
_0-2_決定
  6
CONTINUOUS
 62
    7
 10
835.39399512306886
 20
1349.2764454121746
 40
1.273857301051124
 50
315.78036584102318
 51
357.82245313161843
  0
ARC
  8
_0-2_決定
  6
CONTINUOUS
 62
    7
 10
834.39172085051609
 20
1350.2793119385365
 40
2.6916410542997165
 50
289.87809051090557
 51
315.36039563151195
  0
ARC
  8
_0-2_決定
  6
CONTINUOUS
 62
    7
 10
833.53058841282632
 20
1352.5120224480288
 40
5.0843772883033775
 50
269.28264419673093
 51
290.44896968942771
  0
ARC
  8
_0-2_決定
  6
CONTINUOUS
 62
    7
 10
833.30173219617961
 20
1351.5199982492641
 40
4.0952879675055307
 50
227.34680398139011
 51
272.31188919492109
  0
ARC
  8
_0-2_決定
  6
CONTINUOUS
 62
    7
 10
831.44272347545211
 20
1349.2456903806319
 40
1.1759233421206847
 50
180.85985256518072
 51
218.85057617346391
  0
ARC
  8
_0-2_決定
  6
CONTINUOUS
 62
    7
 10
831.31259477445064
 20
1349.1328459423664
 40
1.0499867104157072
 50
130.7696788044116
 51
174.79809808088882
  0
ARC
  8
_0-2_決定
  6
CONTINUOUS
 62
    7
 10
832.63407073108169
 20
1347.7126138646749
 40
2.9894368774805162
 50
108.47122146956607
 51
132.17599225555563
  0
ARC
  8
_0-2_決定
  6
CONTINUOUS
 62
    7
 10
833.41198657382483
 20
1345.3794859365551
 40
5.4488347653853371
 50
89.422220337951089
 51
108.45690966832514
  0
ARC
  8
_0-2_決定
  6
CONTINUOUS
 62
    7
 10
833.63021839462954
 20
1346.5148903869358
 40
4.3162429731965313
 50
48.911926950832218
 51
92.168048178612295
  0
ARC
  8
_0-2_決定
  6
CONTINUOUS
 62
    7
 10
835.79997801865943
 20
1349.2139864237199
 40
0.8670684896404541
 50
0.9289409922587565
 51
39.717332667031755
  0
ARC
  8
_0-2_決定
  6
CONTINUOUS
 62
    7
 10
845.59067735396661
 20
1528.9624015609716
 40
13.078951116780393
 50
346.8550243485135
 51
1.1637862156289891
  0
ARC
  8
_0-2_決定
  6
CONTINUOUS
 62
    7
 10
854.92277023076122
 20
1526.6387795774417
 40
3.4657996654815575
 50
322.89710065829286
 51
349.1779213925256
  0
ARC
  8
_0-2_決定
  6
CONTINUOUS
 62
    7
 10
857.03211732058946
 20
1525.0561172901821
 40
0.8288071031000958
 50
272.40736129192334
 51
322.19178313084296
  0
ARC
  8
_0-2_決定
  6
CONTINUOUS
 62
    7
 10
857.19026673110852
 20
1525.0354534944938
 40
0.8167776244307203
 50
213.21462573667102
 51
261.31492171906677
  0
ARC
  8
_0-2_決定
  6
CONTINUOUS
 62
    7
 10
859.79694740762397
 20
1526.9275734944815
 40
4.0370311043048339
 50
195.51004783540492
 51
215.41664228828867
  0
ARC
  8
_0-2_決定
  6
CONTINUOUS
 62
    7
 10
867.07708652428153
 20
1529.0207838554552
 40
11.61200574996284
 50
178.97729744630468
 51
195.8565299919984
  0
ARC
  8
_0-2_決定
  6
CONTINUOUS
 62
    7
 10
866.772120500656
 20
1529.2969835948466
 40
11.305400161194907
 50
165.49784367134049
 51
180.34939997336593
  0
ARC
  8
_0-2_決定
  6
CONTINUOUS
 62
    7
 10
860.03772331647554
 20
1531.2207730159803
 40
4.3074252295296267
 50
145.05468807576682
 51
167.84078457845786
  0
ARC
  8
_0-2_決定
  6
CONTINUOUS
 62
    7
 10
857.13275116112015
 20
1533.288454769214
 40
0.7425100122978747
 50
95.085722541368824
 51
147.44174084736935
  0
ARC
  8
_0-2_決定
  6
CONTINUOUS
 62
    7
 10
857.00243133073946
 20
1533.1247930884913
 40
0.9055485227282424
 50
36.863527658558112
 51
85.915553009538243
  0
ARC
  8
_0-2_決定
  6
CONTINUOUS
 62
    7
 10
855.0859725228969
 20
1531.7191668025769
 40
3.2821901991142939
 50
14.267163616504583
 51
36.425188267377742
  0
ARC
  8
_0-2_決定
  6
CONTINUOUS
 62
    7
 10
847.25915017584521
 20
1529.519522824387
 40
11.411503596895617
 50
358.53634912714767
 51
15.286105110917605
  0
ARC
  8
_0-2_決定
  6
CONTINUOUS
 62
    7
 10
878.8409333744537
 20
1487.0348874856359
 40
12.027548237575502
 50
345.91594022890223
 51
0.9201704607202515
  0
ARC
  8
_0-2_決定
  6
CONTINUOUS
 62
    7
 10
887.3024539329665
 20
1484.7557699439428
 40
3.2692846807488971
 50
321.66662430094505
 51
348.57264198075853
  0
ARC
  8
_0-2_決定
  6
CONTINUOUS
 62
    7
 10
889.23358241907204
 20
1483.2447379200767
 40
0.8173768304214913
 50
272.33825767880808
 51
320.79184467519593
  0
ARC
  8
_0-2_決定
  6
CONTINUOUS
 62
    7
 10
889.39569741165064
 20
1483.2572121302683
 40
0.8391093952770257
 50
212.36387201096773
 51
261.17270585305192
  0
ARC
  8
_0-2_決定
  6
CONTINUOUS
 62
    7
 10
892.13124519257485
 20
1485.1861868771766
 40
4.1855558818691945
 50
194.92693748461983
 51
214.62334365310994
  0
ARC
  8
_0-2_決定
  6
CONTINUOUS
 62
    7
 10
898.61101865418982
 20
1487.113015056254
 40
10.944692574262735
 50
179.39782135672476
 51
195.93578716687387
  0
ARC
  8
_0-2_決定
  6
CONTINUOUS
 62
    7
 10
899.92960689862934
 20
1487.3365503225543
 40
12.263156418910272
 50
166.0733468226276
 51
180.50697956185977
  0
ARC
  8
_0-2_決定
  6
CONTINUOUS
 62
    7
 10
892.31075413306462
 20
1489.411916634971
 40
4.3724980896247487
 50
145.50771382452507
 51
168.44130215840261
  0
ARC
  8
_0-2_決定
  6
CONTINUOUS
 62
    7
 10
889.32986478665293
 20
1491.4932087977488
 40
0.7375229149682293
 50
94.895111051705115
 51
147.63235233700877
  0
ARC
  8
_0-2_決定
  6
CONTINUOUS
 62
    7
 10
889.20588410735286
 20
1491.3311231789498
 40
0.8989935626213041
 50
36.672765044659961
 51
86.106315623426894
  0
ARC
  8
_0-2_決定
  6
CONTINUOUS
 62
    7
 10
887.19726137905559
 20
1489.9053116979392
 40
3.3620533426918673
 50
13.462745707874447
 51
35.717488624533438
  0
ARC
  8
_0-2_決定
  6
CONTINUOUS
 62
    7
 10
878.64293875130579
 20
1487.5679848022799
 40
12.228717710497069
 50
358.40704337298411
 51
14.781986691478439
  0
ARC
  8
_0-2_決定
  6
CONTINUOUS
 62
    7
 10
791.93627812940713
 20
1439.1094495212192
 40
7.9877148965529585
 50
152.2548784302509
 51
183.88647721527514
  0
ARC
  8
_0-2_決定
  6
CONTINUOUS
 62
    7
 10
784.84090349438679
 20
1438.6196456469131
 40
0.8754929905108732
 50
183.37899990222832
 51
244.71287481093748
  0
ARC
  8
_0-2_決定
  6
CONTINUOUS
 62
    7
 10
784.72764625032005
 20
1438.5419772073342
 40
0.7600478581948938
 50
249.93885679697519
 51
303.48081681853381
  0
ARC
  8
_0-2_決定
  6
CONTINUOUS
 62
    7
 10
783.32974185440798
 20
1440.7287430215217
 40
3.3553728446325568
 50
302.79101481703572
 51
324.66292514285271
  0
ARC
  8
_0-2_決定
  6
CONTINUOUS
 62
    7
 10
776.48436115308755
 20
1446.0573796560739
 40
12.027839392021189
 50
322.81605607512375
 51
338.39183821498432
  0
ARC
  8
_0-2_決定
  6
CONTINUOUS
 62
    7
 10
780.59758697115603
 20
1445.3466377940886
 40
7.9877148965546159
 50
332.25487843025343
 51
3.8864772152776381
  0
ARC
  8
_0-2_決定
  6
CONTINUOUS
 62
    7
 10
787.69296329258646
 20
1445.836440668395
 40
0.8754913659753836
 50
3.3790717376154955
 51
64.712946646324667
  0
ARC
  8
_0-2_決定
  6
CONTINUOUS
 62
    7
 10
787.80621885024425
 20
1445.9141081079724
 40
0.760047858195843
 50
69.938856796972743
 51
123.48081681853137
  0
ARC
  8
_0-2_決定
  6
CONTINUOUS
 62
    7
 10
789.20411807072333
 20
1443.7273432937877
 40
3.3553692010893843
 50
122.79094977243069
 51
144.66286009824768
  0
ARC
  8
_0-2_決定
  6
CONTINUOUS
 62
    7
 10
796.04950394747698
 20
1438.3987076592337
 40
12.027839392021189
 50
142.81605607512375
 51
158.39183821498432
  0
ARC
  8
_0-2_決定
  6
CONTINUOUS
 62
    7
 10
855.63376258856897
 20
1403.4921061139266
 40
6.2346500988209428
 50
324.45954741193964
 51
1.2493507503431753
  0
ARC
  8
_0-2_決定
  6
CONTINUOUS
 62
    7
 10
858.53987078320779
 20
1401.5980455084546
 40
2.7729144303151076
 50
272.6263119694903
 51
321.39901872638154
  0
ARC
  8
_0-2_決定
  6
CONTINUOUS
 62
    7
 10
858.7511546840409
 20
1401.5392761396406
 40
2.7125403731722724
 50
211.84583102467946
 51
268.22068523408058
  0
ARC
  8
_0-2_決定
  6
CONTINUOUS
 62
    7
 10
861.23030729603875
 20
1403.3361996834619
 40
5.7707611645953163
 50
177.10115120568057
 51
214.01422082939709
  0
ARC
  8
_0-2_決定
  6
CONTINUOUS
 62
    7
 10
861.68175821048089
 20
1403.7038241310313
 40
6.2152896574593832
 50
144.10289643520608
 51
180.69860121053401
  0
ARC
  8
_0-2_決定
  6
CONTINUOUS
 62
    7
 10
858.85947766881463
 20
1405.6388351581763
 40
2.7958466421486765
 50
93.949028010760244
 51
142.31365671734753
  0
ARC
  8
_0-2_決定
  6
CONTINUOUS
 62
    7
 10
858.56931993875924
 20
1405.7513180073843
 40
2.678504813938833
 50
30.929993012538098
 51
87.911553242467875
  0
ARC
  8
_0-2_決定
  6
CONTINUOUS
 62
    7
 10
855.96605602440377
 20
1403.8349366502596
 40
5.9045003921206884
 50
357.99195163507375
 51
33.898840166779316
  0
ARC
  8
_0-2_決定
  6
CONTINUOUS
 62
    7
 10
916.50610955709885
 20
1253.059744618276
 40
8.9683866178641889
 50
2.3536040399277236
 51
90.250301305229883
  0
ARC
  8
_0-2_決定
  6
CONTINUOUS
 62
    7
 10
916.72442897767519
 20
1252.7492682336378
 40
9.2823496984622373
 50
91.589626173234336
 51
175.80646848161166
  0
ARC
  8
_0-2_決定
  6
CONTINUOUS
 62
    7
 10
916.42775154346486
 20
1253.7963466970316
 40
8.9683866178634499
 50
182.35360403992888
 51
270.25030130523101
  0
ARC
  8
_0-2_決定
  6
CONTINUOUS
 62
    7
 10
916.20943212288898
 20
1254.1068230816702
 40
9.2823496984620846
 50
271.58962617322959
 51
355.80646848160688
  0
ARC
  8
_0-2_決定
  6
CONTINUOUS
 62
    7
 10
884.17265078011405
 20
1316.746001404457
 40
3.4962701758073966
 50
308.45395570131251
 51
358.06657851773036
  0
ARC
  8
_0-2_決定
  6
CONTINUOUS
 62
    7
 10
881.03299831888739
 20
1320.1052095218072
 40
8.0878493640059883
 50
281.07721386383497
 51
311.07349730407003
  0
ARC
  8
_0-2_決定
  6
CONTINUOUS
 62
    7
 10
879.6926958197148
 20
1324.3156624473534
 40
12.48764336996723
 50
269.8817837601419
 51
283.40117707837794
  0
ARC
  8
_0-2_決定
  6
CONTINUOUS
 62
    7
 10
879.56981955047104
 20
1323.5284822657513
 40
11.700839600916805
 50
243.59844692452498
 51
270.47553120134842
  0
ARC
  8
_0-2_決定
  6
CONTINUOUS
 62
    7
 10
876.98632227968892
 20
1318.1514252492195
 40
5.7363504688271512
 50
208.11689917220093
 51
242.83011694529858
  0
ARC
  8
_0-2_決定
  6
CONTINUOUS
 62
    7
 10
874.61741914467302
 20
1316.6595072462455
 40
2.95065635122657
 50
180.6109708434432
 51
204.24091488730997
  0
ARC
  8
_0-2_決定
  6
CONTINUOUS
 62
    7
 10
875.16121032045044
 20
1316.5100859108518
 40
3.4962701758067878
 50
128.45395570133232
 51
178.06657851775017
  0
ARC
  8
_0-2_決定
  6
CONTINUOUS
 62
    7
 10
878.30086278167732
 20
1313.1508777934994
 40
8.087849364006976
 50
101.07721386383157
 51
131.07349730406659
  0
ARC
  8
_0-2_決定
  6
CONTINUOUS
 62
    7
 10
879.64117371757743
 20
1308.9404258679497
 40
12.487644352565908
 50
89.881822478895359
 51
103.40121579713143
  0
ARC
  8
_0-2_決定
  6
CONTINUOUS
 62
    7
 10
879.76403736502198
 20
1309.7276060495587
 40
11.700840566147102
 50
63.598426391446957
 51
90.475510668270431
  0
ARC
  8
_0-2_決定
  6
CONTINUOUS
 62
    7
 10
882.34753882087512
 20
1315.1046620660891
 40
5.7363504688264726
 50
28.116899172194273
 51
62.830116945291905
  0
ARC
  8
_0-2_決定
  6
CONTINUOUS
 62
    7
 10
884.7164419558917
 20
1316.5965800690592
 40
2.9506563512271673
 50
0.6109708434958172
 51
24.240914887362603
  0
ARC
  8
_0-2_決定
  6
CONTINUOUS
 62
    7
 10
876.15869563463571
 20
1242.9362805732994
 40
8.3139506960758762
 50
272.12469482833836
 51
357.87530517166061
  0
ARC
  8
_0-2_決定
  6
CONTINUOUS
 62
    7
 10
876.77516546592778
 20
1242.9362805732992
 40
8.3139506960757252
 50
182.12469482833836
 51
267.87530517166061
  0
ARC
  8
_0-2_決定
  6
CONTINUOUS
 62
    7
 10
876.77516546592778
 20
1242.3198107420078
 40
8.3139506960757448
 50
92.1246948283395
 51
177.87530517166175
  0
ARC
  8
_0-2_決定
  6
CONTINUOUS
 62
    7
 10
876.15869563463571
 20
1242.3198107420076
 40
8.3139506960758922
 50
2.1246948283392402
 51
87.875305171661495
  0
ARC
  8
_0-2_決定
  6
CONTINUOUS
 62
    7
 10
778.99580682701924
 20
1270.5910677021184
 40
8.744138874137878
 50
319.11839784687942
 51
18.931855642301279
  0
ARC
  8
_0-2_決定
  6
CONTINUOUS
 62
    7
 10
775.92419150680394
 20
1272.7177688750451
 40
12.464895856151283
 50
287.47337137092762
 51
320.96858557455596
  0
ARC
  8
_0-2_決定
  6
CONTINUOUS
 62
    7
 10
775.77480751716507
 20
1272.5065792663313
 40
12.31002780347885
 50
238.52236147323612
 51
288.43177182063118
  0
ARC
  8
_0-2_決定
  6
CONTINUOUS
 62
    7
 10
774.54013805107911
 20
1269.6767685406335
 40
9.2616787910966814
 50
200.53444417217793
 51
235.89441746995544
  0
ARC
  8
_0-2_決定
  6
CONTINUOUS
 62
    7
 10
774.43727838377811
 20
1269.0652427057437
 40
8.9669189790124229
 50
151.90523275736373
 51
197.10375228432758
  0
ARC
  8
_0-2_決定
  6
CONTINUOUS
 62
    7
 10
777.25815006111338
 20
1267.774400956446
 40
12.064796192059614
 50
108.31481911197062
 51
152.80613289023012
  0
ARC
  8
_0-2_決定
  6
CONTINUOUS
 62
    7
 10
777.22769157289326
 20
1266.7878851486014
 40
12.996187976369738
 50
58.661434760675299
 51
106.82048259994984
  0
ARC
  8
_0-2_決定
  6
CONTINUOUS
 62
    7
 10
779.02409998907592
 20
1270.8021508592785
 40
8.6509890835795229
 50
17.670164655501438
 51
54.993296490195064
  0
ARC
  8
_0-2_決定
  6
CONTINUOUS
 62
    7
 10
816.74666434634503
 20
1449.0795192863716
 40
2.5207938761497588
 50
300.52291602272828
 51
358.82987025217113
  0
ARC
  8
_0-2_決定
  6
CONTINUOUS
 62
    7
 10
815.63361522683272
 20
1450.7593672615972
 40
4.5343882408008938
 50
267.89335065451598
 51
301.85792972433609
  0
ARC
  8
_0-2_決定
  6
CONTINUOUS
 62
    7
 10
815.42244934103906
 20
1450.773220591301
 40
4.5453946048784859
 50
227.76116444278165
 51
270.56073037777685
  0
ARC
  8
_0-2_決定
  6
CONTINUOUS
 62
    7
 10
814.05234721869101
 20
1449.0975418230155
 40
2.3864269134514178
 50
181.66886706019719
 51
225.06935926676687
  0
ARC
  8
_0-2_決定
  6
CONTINUOUS
 62
    7
 10
814.39142046173424
 20
1448.9152486909904
 40
2.7268217090555327
 50
121.98742805972324
 51
177.62932601836357
  0
ARC
  8
_0-2_決定
  6
CONTINUOUS
 62
    7
 10
815.46878314546325
 20
1447.6532122828346
 40
4.3748297662290101
 50
90.024236667999261
 51
125.2009190178515
  0
ARC
  8
_0-2_決定
  6
CONTINUOUS
 62
    7
 10
815.52628780129771
 20
1447.9826967128934
 40
4.045780365753763
 50
26.50200328823923
 51
90.840610976147886
  0
ARC
  8
_0-2_決定
  6
CONTINUOUS
 62
    7
 10
816.864013550599
 20
1449.0381070787566
 40
2.4029400807635244
 50
359.75999907807631
 51
18.18525415171208
  0
ARC
  8
_0-2_決定
  6
CONTINUOUS
 62
    7
 10
893.94666234634519
 20
1510.6795192863717
 40
2.5207938761496114
 50
300.52291602273397
 51
358.82987025217687
  0
ARC
  8
_0-2_決定
  6
CONTINUOUS
 62
    7
 10
892.83360995235876
 20
1512.3593662615976
 40
4.5343891197584609
 50
267.89339246673728
 51
301.85797153655733
  0
ARC
  8
_0-2_決定
  6
CONTINUOUS
 62
    7
 10
892.58275576188021
 20
1512.7523435454209
 40
4.9250212666412176
 50
229.84670788271805
 51
270.97930439044205
  0
ARC
  8
_0-2_決定
  6
CONTINUOUS
 62
    7
 10
891.02350539567988
 20
1510.7044229903322
 40
2.3578123568131604
 50
181.85642160674303
 51
226.71522870452398
  0
ARC
  8
_0-2_決定
  6
CONTINUOUS
 62
    7
 10
891.11341234350698
 20
1510.5355675337087
 40
2.4482288757746242
 50
118.45441753048553
 51
177.8353177046082
  0
ARC
  8
_0-2_決定
  6
CONTINUOUS
 62
    7
 10
892.54985968923302
 20
1508.4894372550298
 40
4.939991804864313
 50
88.642043442680389
 51
121.79688621969524
  0
ARC
  8
_0-2_決定
  6
CONTINUOUS
 62
    7
 10
892.77528754516675
 20
1508.9436225404481
 40
4.485728040920848
 50
47.826079565700979
 51
91.384168270178549
  0
ARC
  8
_0-2_決定
  6
CONTINUOUS
 62
    7
 10
894.04727701605816
 20
1510.5857462898052
 40
2.420023165968054
 50
1.0014240739761611
 51
44.039707131789399
  0
ARC
  8
_0-2_決定
  6
CONTINUOUS
 62
    7
 10
932.49864310099133
 20
1520.6541368112012
 40
7.7683312784570244
 50
298.51309433180666
 51
359.80753331413456
  0
ARC
  8
_0-2_決定
  6
CONTINUOUS
 62
    7
 10
934.25179563751703
 20
1518.4059459845719
 40
4.9779273350995137
 50
270.17420261534244
 51
293.12639625970365
  0
ARC
  8
_0-2_決定
  6
CONTINUOUS
 62
    7
 10
934.35541492392213
 20
1519.044488133814
 40
5.6171434469797346
 50
211.51791142207796
 51
269.09740762265761
  0
ARC
  8
_0-2_決定
  6
CONTINUOUS
 62
    7
 10
936.29826243169396
 20
1520.4909910925739
 40
8.0325011451463588
 50
179.02237175496606
 51
213.06922280693817
  0
ARC
  8
_0-2_決定
  6
CONTINUOUS
 62
    7
 10
936.67532189853569
 20
1520.7244425580375
 40
8.4089439407681503
 50
134.83036904762582
 51
180.65685843125667
  0
ARC
  8
_0-2_決定
  6
CONTINUOUS
 62
    7
 10
934.32554502904031
 20
1522.5807857134546
 40
5.4475712917528529
 50
90.616499881411997
 51
131.0653387977294
  0
ARC
  8
_0-2_決定
  6
CONTINUOUS
 62
    7
 10
934.1224577903788
 20
1522.4555479467363
 40
5.5743662004361081
 50
30.063049121506371
 51
88.514879346318878
  0
ARC
  8
_0-2_決定
  6
CONTINUOUS
 62
    7
 10
931.94944162828483
 20
1520.7501876799404
 40
8.3183857579648777
 50
359.15864648677598
 51
32.732145315071612
  0
ARC
  8
_0-2_決定
  6
CONTINUOUS
 62
    7
 10
843.23776007766787
 20
1536.5568085190225
 40
0.8391093952770257
 50
302.36387201096773
 51
351.17270585305192
  0
ARC
  8
_0-2_決定
  6
CONTINUOUS
 62
    7
 10
841.3087853307602
 20
1539.2923562999499
 40
4.1855558818713847
 50
284.92693748459658
 51
304.62334365308669
  0
ARC
  8
_0-2_決定
  6
CONTINUOUS
 62
    7
 10
839.38195815167865
 20
1545.7721228807363
 40
10.944685683307878
 50
269.39782621290681
 51
285.93579202305591
  0
ARC
  8
_0-2_決定
  6
CONTINUOUS
 62
    7
 10
839.2388137115679
 20
1545.2212482741177
 40
10.393244654177927
 50
254.87490864560749
 51
270.15501345365988
  0
ARC
  8
_0-2_決定
  6
CONTINUOUS
 62
    7
 10
837.43587200287664
 20
1539.2317084533584
 40
4.1445641608218819
 50
233.78053003650331
 51
257.33156040261861
  0
ARC
  8
_0-2_決定
  6
CONTINUOUS
 62
    7
 10
835.38644337025517
 20
1536.4896036250452
 40
0.7221396650835059
 50
184.89036603300787
 51
236.41096988102345
  0
ARC
  8
_0-2_決定
  6
CONTINUOUS
 62
    7
 10
835.65504478615878
 20
1536.3402175327781
 40
0.9920074937209348
 50
129.28460130384121
 51
174.92085663425308
  0
ARC
  8
_0-2_決定
  6
CONTINUOUS
 62
    7
 10
837.20566019636431
 20
1534.4938884905373
 40
3.4030355474116813
 50
108.12630096858179
 51
129.80902032355343
  0
ARC
  8
_0-2_決定
  6
CONTINUOUS
 62
    7
 10
839.12961817997541
 20
1529.1004833283655
 40
9.1285911449056361
 50
89.138111184246753
 51
109.07109054655591
  0
ARC
  8
_0-2_決定
  6
CONTINUOUS
 62
    7
 10
839.37329472809756
 20
1527.5324898127174
 40
10.696080692505348
 50
75.081581093423893
 51
90.569760504150977
  0
ARC
  8
_0-2_決定
  6
CONTINUOUS
 62
    7
 10
841.15946796752951
 20
1533.8377646946117
 40
4.1447697460599811
 50
53.46458244253801
 51
76.501630601276801
  0
ARC
  8
_0-2_決定
  6
CONTINUOUS
 62
    7
 10
843.06253964127313
 20
1536.3316470631075
 40
1.0090059543721011
 50
5.4820680856445509
 51
55.988907318256707
  0
ARC
  8
_0-2_決定
  6
CONTINUOUS
 62
    7
 10
851.14012723090264
 20
1428.516764985407
 40
1.5293789099070574
 50
319.72285337097355
 51
356.67432765624483
  0
ARC
  8
_0-2_決定
  6
CONTINUOUS
 62
    7
 10
849.48881028451433
 20
1429.8441885232369
 40
3.6477841041783803
 50
298.81410491440295
 51
320.5840420525688
  0
ARC
  8
_0-2_決定
  6
CONTINUOUS
 62
    7
 10
847.18968996307012
 20
1434.156194414503
 40
8.5342562048542252
 50
267.83259807253819
 51
298.38581832378259
  0
ARC
  8
_0-2_決定
  6
CONTINUOUS
 62
    7
 10
846.70557176192779
 20
1435.4713866023944
 40
9.8446654075372066
 50
241.88887022097373
 51
270.93914736325274
  0
ARC
  8
_0-2_決定
  6
CONTINUOUS
 62
    7
 10
843.22958899778291
 20
1428.8977937411905
 40
2.4089043319585817
 50
191.24505676582777
 51
241.14135784529134
  0
ARC
  8
_0-2_決定
  6
CONTINUOUS
 62
    7
 10
842.51451519653097
 20
1428.3789309304602
 40
1.6483164825137229
 50
141.36611317000666
 51
178.29258000630389
  0
ARC
  8
_0-2_決定
  6
CONTINUOUS
 62
    7
 10
843.73980530109952
 20
1427.4004616383852
 40
3.2163527600973518
 50
118.46278733016825
 51
141.37799694981828
  0
ARC
  8
_0-2_決定
  6
CONTINUOUS
 62
    7
 10
845.58263058256841
 20
1424.1085847505569
 40
6.9887858762179897
 50
103.36682720305186
 51
118.8826110890748
  0
ARC
  8
_0-2_決定
  6
CONTINUOUS
 62
    7
 10
846.73550232530545
 20
1419.1184869465258
 40
12.110269902787268
 50
89.378178150679403
 51
103.2154592873097
  0
ARC
  8
_0-2_決定
  6
CONTINUOUS
 62
    7
 10
847.06360853378919
 20
1421.845560969856
 40
9.3845438682989535
 50
61.18408916864265
 51
91.200872798953753
  0
ARC
  8
_0-2_決定
  6
CONTINUOUS
 62
    7
 10
850.4251225784401
 20
1428.1273408469281
 40
2.261885311636282
 50
7.6397156665309449
 51
59.093016335622139
  0
ARC
  8
_0-2_決定
  6
CONTINUOUS
 62
    7
 10
885.53754019699318
 20
1454.0377342289694
 40
2.9294063883110208
 50
306.66837745329246
 51
359.81042424003709
  0
ARC
  8
_0-2_決定
  6
CONTINUOUS
 62
    7
 10
886.44029138879864
 20
1452.9351343977216
 40
1.5073281567358072
 50
271.01264676931896
 51
304.17220235492891
  0
ARC
  8
_0-2_決定
  6
CONTINUOUS
 62
    7
 10
886.53723721580582
 20
1453.3204361915809
 40
1.893700108056545
 50
200.7976839780363
 51
267.87231294825881
  0
ARC
  8
_0-2_決定
  6
CONTINUOUS
 62
    7
 10
887.77148387320744
 20
1454.0238141191596
 40
3.3045560270843306
 50
179.92670114305298
 51
204.60284631275317
  0
ARC
  8
_0-2_決定
  6
CONTINUOUS
 62
    7
 10
887.63320426584437
 20
1454.165009733591
 40
3.1692348438841353
 50
130.69095646564779
 51
182.47698201788586
  0
ARC
  8
_0-2_決定
  6
CONTINUOUS
 62
    7
 10
886.45335718956198
 20
1455.1873340601487
 40
1.6407637418693675
 50
89.526010275666977
 51
122.70082619054908
  0
ARC
  8
_0-2_決定
  6
CONTINUOUS
 62
    7
 10
886.40082019085207
 20
1455.2481979413631
 40
1.5812263429148554
 50
50.484655666567313
 51
87.603790872217814
  0
ARC
  8
_0-2_決定
  6
CONTINUOUS
 62
    7
 10
885.46595447205254
 20
1454.1745848367846
 40
3.00455193422449
 50
357.20436244912577
 51
49.758418916056506
  0
ARC
  8
_0-2_決定
  6
CONTINUOUS
 62
    7
 10
925.1803036590652
 20
1430.1522055721293
 40
2.8876229366580306
 50
307.71924650382601
 51
1.5049409140056029
  0
ARC
  8
_0-2_決定
  6
CONTINUOUS
 62
    7
 10
926.0829056950522
 20
1429.302801460165
 40
1.6748339924670752
 50
269.45348478938394
 51
301.0567526166995
  0
ARC
  8
_0-2_決定
  6
CONTINUOUS
 62
    7
 10
926.12636167670394
 20
1429.2465266614458
 40
1.6195737996002155
 50
230.990880965017
 51
267.89702859585327
  0
ARC
  8
_0-2_決定
  6
CONTINUOUS
 62
    7
 10
926.93384004832046
 20
1430.1976802103138
 40
2.8670702832114277
 50
179.39320290970744
 51
230.4163347064634
  0
ARC
  8
_0-2_決定
  6
CONTINUOUS
 62
    7
 10
927.27593925790279
 20
1430.2746556869788
 40
3.2093472181834191
 50
130.14184468232091
 51
180.83218370432812
  0
ARC
  8
_0-2_決定
  6
CONTINUOUS
 62
    7
 10
926.1108410735701
 20
1431.5195001575651
 40
1.509182436194203
 50
91.667288663882317
 51
126.79405608748522
  0
ARC
  8
_0-2_決定
  6
CONTINUOUS
 62
    7
 10
926.0072465323392
 20
1431.1608962137004
 40
1.8681011106097447
 50
19.615953541821057
 51
88.169143874648
  0
ARC
  8
_0-2_決定
  6
CONTINUOUS
 62
    7
 10
924.23592584794187
 20
1430.3001581379735
 40
3.8316833803988053
 50
358.92159687542511
 51
22.849457233879978
  0
ARC
  8
_0-2_決定
  6
CONTINUOUS
 62
    7
 10
890.58425877196123
 20
1382.6763095446313
 40
1.8832903707954989
 50
323.95126436585821
 51
358.53143493844016
  0
ARC
  8
_0-2_決定
  6
CONTINUOUS
 62
    7
 10
889.59402981450785
 20
1383.4073281999122
 40
3.1141030386364372
 50
299.91185524975992
 51
323.79822982087853
  0
ARC
  8
_0-2_決定
  6
CONTINUOUS
 62
    7
 10
888.58176138535873
 20
1385.196651542944
 40
5.1698833248500788
 50
268.72727044308886
 51
299.74729048840658
  0
ARC
  8
_0-2_決定
  6
CONTINUOUS
 62
    7
 10
888.38325018042065
 20
1385.1195791508087
 40
5.0922230982501704
 50
230.53983427531014
 51
270.94158243715327
  0
ARC
  8
_0-2_決定
  6
CONTINUOUS
 62
    7
 10
886.5669162036354
 20
1382.7391479939604
 40
2.102922708478923
 50
183.02853490419528
 51
227.52690956694838
  0
ARC
  8
_0-2_決定
  6
CONTINUOUS
 62
    7
 10
886.91341234350693
 20
1382.5355695337084
 40
2.4482288757757193
 50
118.45441753048566
 51
177.83531770460831
  0
ARC
  8
_0-2_決定
  6
CONTINUOUS
 62
    7
 10
888.3498596892307
 20
1380.4894392550314
 40
4.9399918048629257
 50
88.642043442665297
 51
121.79688621968016
  0
ARC
  8
_0-2_決定
  6
CONTINUOUS
 62
    7
 10
888.55110533868378
 20
1380.503741769887
 40
4.9250212666412176
 50
49.846707882718029
 51
90.979304390442053
  0
ARC
  8
_0-2_決定
  6
CONTINUOUS
 62
    7
 10
890.1103557048848
 20
1382.5516623249746
 40
2.3578123568133824
 50
1.8564216067604542
 51
46.715228704541403
  0
ARC
  8
_0-2_決定
  6
CONTINUOUS
 62
    7
 10
927.71411194256279
 20
1392.7879989890275
 40
8.3529145972499723
 50
314.86837833279913
 51
0.2746824795640731
  0
ARC
  8
_0-2_決定
  6
CONTINUOUS
 62
    7
 10
929.89354326153466
 20
1390.9255374091604
 40
5.5002273316429582
 50
271.80647187236713
 51
312.46451188382497
  0
ARC
  8
_0-2_決定
  6
CONTINUOUS
 62
    7
 10
930.21140331018591
 20
1391.0005373685715
 40
5.5743662004366445
 50
210.06304912150881
 51
268.51487934632132
  0
ARC
  8
_0-2_決定
  6
CONTINUOUS
 62
    7
 10
932.38436526470059
 20
1392.7058821474866
 40
8.3183317836678388
 50
179.1585343368109
 51
212.73225746502362
  0
ARC
  8
_0-2_決定
  6
CONTINUOUS
 62
    7
 10
931.83521799957339
 20
1392.8019485041068
 40
7.768331278456964
 50
118.51309433180641
 51
179.80753331413433
  0
ARC
  8
_0-2_決定
  6
CONTINUOUS
 62
    7
 10
930.08206546304996
 20
1395.0501393307359
 40
4.9779273350999826
 50
90.174202615368628
 51
113.12639625972983
  0
ARC
  8
_0-2_決定
  6
CONTINUOUS
 62
    7
 10
929.92184549669423
 20
1394.4134458288979
 40
5.6164720645125072
 50
30.784839527685655
 51
88.519767224955814
  0
ARC
  8
_0-2_決定
  6
CONTINUOUS
 62
    7
 10
928.08568348607628
 20
1392.8912171722841
 40
7.9814970771681644
 50
359.5464994193328
 51
33.427228213468744
  0
ARC
  8
_0-2_決定
  6
CONTINUOUS
 62
    7
 10
838.8311398990453
 20
1408.7144331680288
 40
1.039387040852974
 50
309.11949332820905
 51
355.2323139032913
  0
ARC
  8
_0-2_決定
  6
CONTINUOUS
 62
    7
 10
837.35193050398289
 20
1410.4101371752795
 40
3.2891787985218626
 50
288.34082256550494
 51
310.47364467642774
  0
ARC
  8
_0-2_決定
  6
CONTINUOUS
 62
    7
 10
835.51546577452143
 20
1415.9532096149835
 40
9.1285498581299489
 50
268.4398765575931
 51
288.33418819972906
  0
ARC
  8
_0-2_決定
  6
CONTINUOUS
 62
    7
 10
835.16056937246981
 20
1417.5236028561276
 40
10.696088055623729
 50
255.08158605814202
 51
270.56976546886909
  0
ARC
  8
_0-2_決定
  6
CONTINUOUS
 62
    7
 10
833.37439513303457
 20
1411.2183206206964
 40
4.1447697460599811
 50
233.46458244253802
 51
256.50163060127682
  0
ARC
  8
_0-2_決定
  6
CONTINUOUS
 62
    7
 10
831.47132345929151
 20
1408.7244382521994
 40
1.0090059543716621
 50
185.48206808559337
 51
235.98890731820555
  0
ARC
  8
_0-2_決定
  6
CONTINUOUS
 62
    7
 10
831.29610302289643
 20
1408.4992767962865
 40
0.8391093952764603
 50
122.36387201102664
 51
171.17270585311084
  0
ARC
  8
_0-2_決定
  6
CONTINUOUS
 62
    7
 10
833.22507776980365
 20
1405.763729015358
 40
4.1855558818712977
 50
104.92693748459401
 51
124.62334365308413
  0
ARC
  8
_0-2_決定
  6
CONTINUOUS
 62
    7
 10
835.15190594888531
 20
1399.2839555537464
 40
10.944692574262918
 50
89.397821356741602
 51
105.93578716689069
  0
ARC
  8
_0-2_決定
  6
CONTINUOUS
 62
    7
 10
835.36944087946665
 20
1399.8060255696114
 40
10.422522198826838
 50
74.886461486316023
 51
90.56352859788565
  0
ARC
  8
_0-2_決定
  6
CONTINUOUS
 62
    7
 10
837.24267880524906
 20
1406.1480350411189
 40
3.8146072527975399
 50
52.838767857714259
 51
77.213350251624291
  0
ARC
  8
_0-2_決定
  6
CONTINUOUS
 62
    7
 10
839.10804992518308
 20
1408.5658261575968
 40
0.7614268319833952
 50
4.6869625482546571
 51
54.802800045698682
  0
ARC
  8
_0-2_決定
  6
CONTINUOUS
 62
    7
 10
726.05383200891674
 20
1475.3534004046421
 40
28.214437261356803
 50
343.22017373120639
 51
0.557729826128601
  0
ARC
  8
_0-2_決定
  6
CONTINUOUS
 62
    7
 10
742.05035687177224
 20
1470.770096606642
 40
11.578133491195302
 50
328.54353742384387
 51
342.08211511661
  0
ARC
  8
_0-2_決定
  6
CONTINUOUS
 62
    7
 10
747.47824795056147
 20
1467.4070522066704
 40
5.1930619281444246
 50
309.29285021339888
 51
328.94352919450029
  0
ARC
  8
_0-2_決定
  6
CONTINUOUS
 62
    7
 10
749.18708843956006
 20
1465.3308383827998
 40
2.5040699929153005
 50
271.82722772099106
 51
309.11733131852526
  0
ARC
  8
_0-2_決定
  6
CONTINUOUS
 62
    7
 10
749.32734577543499
 20
1464.9382161359088
 40
2.1110391011186658
 50
236.00212333203439
 51
268.36009883894366
  0
ARC
  8
_0-2_決定
  6
CONTINUOUS
 62
    7
 10
750.48234517332867
 20
1466.6094427635044
 40
4.1424796495581448
 50
215.42954096035587
 51
235.68296349379077
  0
ARC
  8
_0-2_決定
  6
CONTINUOUS
 62
    7
 10
754.52949492324308
 20
1469.5055494828537
 40
9.119102002859437
 50
201.87423043598147
 51
215.51557832270805
  0
ARC
  8
_0-2_決定
  6
CONTINUOUS
 62
    7
 10
762.56940562957743
 20
1472.8601616687865
 40
17.830388172376036
 50
192.27929911122359
 51
202.25231987880946
  0
ARC
  8
_0-2_決定
  6
CONTINUOUS
 62
    7
 10
773.92754552955012
 20
1475.3666417835502
 40
29.461772638596813
 50
179.49163594990193
 51
192.34448475429994
  0
ARC
  8
_0-2_決定
  6
CONTINUOUS
 62
    7
 10
773.23814070817411
 20
1475.8886561913482
 40
28.772388479232809
 50
163.52578133225043
 51
180.51898079507106
  0
ARC
  8
_0-2_決定
  6
CONTINUOUS
 62
    7
 10
757.11901150520191
 20
1480.4435711534529
 40
12.025007408046323
 50
149.60325513946464
 51
162.55753902035653
  0
ARC
  8
_0-2_決定
  6
CONTINUOUS
 62
    7
 10
751.28542794778014
 20
1483.8727320716866
 40
5.2581945067136857
 50
130.55119469850422
 51
149.66964042358128
  0
ARC
  8
_0-2_決定
  6
CONTINUOUS
 62
    7
 10
749.36069206092441
 20
1486.1636428810493
 40
2.2663390446544489
 50
92.371029977685438
 51
131.23178899505027
  0
ARC
  8
_0-2_決定
  6
CONTINUOUS
 62
    7
 10
749.21905420696021
 20
1486.0884471799159
 40
2.3400843266905151
 50
57.773870322659057
 51
88.827641209318855
  0
ARC
  8
_0-2_決定
  6
CONTINUOUS
 62
    7
 10
748.30726006543216
 20
1484.6332976318608
 40
4.0572961149684206
 50
37.943090203619512
 51
57.839448988838505
  0
ARC
  8
_0-2_決定
  6
CONTINUOUS
 62
    7
 10
744.85390325953495
 20
1482.0470582518228
 40
8.3713315018505803
 50
23.223570714227478
 51
37.369325638262566
  0
ARC
  8
_0-2_決定
  6
CONTINUOUS
 62
    7
 10
737.73136116260787
 20
1478.7620861850426
 40
16.213450127302067
 50
13.649053839801674
 51
23.966548414252529
  0
ARC
  8
_0-2_決定
  6
CONTINUOUS
 62
    7
 10
726.03749662231871
 20
1475.9881048726247
 40
28.231732117065683
 50
359.26923853572328
 51
13.519556994727662
  0
ARC
  8
_0-2_決定
  6
CONTINUOUS
 62
    7
 10
831.7090146915566
 20
895.20572078725013
 40
29.471636534654948
 50
282.45836171646255
 51
299.15522982154187
  0
ARC
  8
_0-2_決定
  6
CONTINUOUS
 62
    7
 10
842.42413097511439
 20
875.69265982996114
 40
7.2121935389723744
 50
300.33726012442025
 51
317.79968602574866
  0
ARC
  8
_0-2_決定
  6
CONTINUOUS
 62
    7
 10
846.49536530225737
 20
872.0893434141849
 40
1.7769871706952518
 50
315.69023401659149
 51
4.4769539957727806
  0
ARC
  8
_0-2_決定
  6
CONTINUOUS
 62
    7
 10
847.07755467946527
 20
871.9168357509534
 40
1.229418684852523
 50
14.663440793179051
 51
57.011865115320447
  0
ARC
  8
_0-2_決定
  6
CONTINUOUS
 62
    7
 10
845.93373155324593
 20
869.98695866551361
 40
3.4721408829362406
 50
58.519150858121115
 51
80.163029015265153
  0
ARC
  8
_0-2_決定
  6
CONTINUOUS
 62
    7
 10
844.34688037321644
 20
862.73934982259743
 40
10.889160556253339
 50
78.451129198219576
 51
90.525915969748297
  0
ARC
  8
_0-2_決定
  6
CONTINUOUS
 62
    7
 10
844.25296543130821
 20
846.22308568586686
 40
27.404966636261104
 50
90.012617173376867
 51
97.898673787383714
  0
ARC
  8
_0-2_決定
  6
CONTINUOUS
 62
    7
 10
846.95680095307978
 20
826.93175700969027
 40
46.884844925215518
 50
97.931837450385089
 51
102.92861263144296
  0
ARC
  8
_0-2_決定
  6
CONTINUOUS
 62
    7
 10
843.73853905065403
 20
843.62331784349885
 40
29.902355170224016
 50
104.07420758748962
 51
120.80071136163933
  0
ARC
  8
_0-2_決定
  6
CONTINUOUS
 62
    7
 10
832.06674449748391
 20
863.71061477548653
 40
6.6767904460781313
 50
123.03450152711567
 51
140.60583823314477
  0
ARC
  8
_0-2_決定
  6
CONTINUOUS
 62
    7
 10
828.19044513880442
 20
866.78688079481378
 40
1.7308155122959501
 50
137.864919645138
 51
185.26518270905802
  0
ARC
  8
_0-2_決定
  6
CONTINUOUS
 62
    7
 10
827.61045378468089
 20
866.99918679186396
 40
1.2022404507273126
 50
197.98107963487249
 51
240.96384006178326
  0
ARC
  8
_0-2_決定
  6
CONTINUOUS
 62
    7
 10
829.01382665704978
 20
869.63468589564286
 40
4.1879613412997498
 50
241.6777622250415
 51
261.94414637566354
  0
ARC
  8
_0-2_決定
  6
CONTINUOUS
 62
    7
 10
830.47827153731782
 20
878.03613858333756
 40
12.714655997479799
 50
260.71551596873746
 51
271.84185750176766
  0
ARC
  8
_0-2_決定
  6
CONTINUOUS
 62
    7
 10
830.09263537837285
 20
894.49555501611769
 40
29.178316609483947
 50
271.55990830237619
 51
285.86045167764462
  0
ARC
  8
_0-2_決定
  6
CONTINUOUS
 62
    7
 10
802.92965247741904
 20
1177.4378794156053
 40
4.0197017113649602
 50
348.37732152496341
 51
34.3856183671057
  0
ARC
  8
_0-2_決定
  6
CONTINUOUS
 62
    7
 10
798.76490073272385
 20
1175.1146393269823
 40
8.7795319828340954
 50
31.546803904323127
 51
45.606255222560598
  0
ARC
  8
_0-2_決定
  6
CONTINUOUS
 62
    7
 10
793.26984659714299
 20
1169.4055022724631
 40
16.703386347047392
 50
45.837940400851316
 51
66.886098663056501
  0
ARC
  8
_0-2_決定
  6
CONTINUOUS
 62
    7
 10
788.51323576680466
 20
1160.1819913682211
 40
27.064253184439011
 50
65.289661528820005
 51
74.233802020046085
  0
ARC
  8
_0-2_決定
  6
CONTINUOUS
 62
    7
 10
790.15164092617488
 20
1162.3985663508145
 40
24.505277847510499
 50
76.512868445827863
 51
95.067909434869776
  0
ARC
  8
_0-2_決定
  6
CONTINUOUS
 62
    7
 10
788.93815790829422
 20
1176.0134715549773
 40
10.836404373218009
 50
95.035935608366543
 51
120.93873369575762
  0
ARC
  8
_0-2_決定
  6
CONTINUOUS
 62
    7
 10
785.50172454437359
 20
1182.1876668157608
 40
3.7807540220132663
 50
124.37779256061879
 51
164.0274013834202
  0
ARC
  8
_0-2_決定
  6
CONTINUOUS
 62
    7
 10
785.79507669734744
 20
1182.2453574824713
 40
4.0491965239744072
 50
165.95480434613631
 51
213.20204149278686
  0
ARC
  8
_0-2_決定
  6
CONTINUOUS
 62
    7
 10
789.48162005028166
 20
1184.1586706576529
 40
8.1922686792647319
 50
210.27893422841046
 51
224.58427172839987
  0
ARC
  8
_0-2_決定
  6
CONTINUOUS
 62
    7
 10
794.54158050842125
 20
1189.3101851213248
 40
15.41265710437748
 50
225.01969242640797
 51
246.94973948163693
  0
ARC
  8
_0-2_決定
  6
CONTINUOUS
 62
    7
 10
799.02978265765319
 20
1197.7928852887599
 40
24.988502140515877
 50
245.09546041572352
 51
255.2482720416576
  0
ARC
  8
_0-2_決定
  6
CONTINUOUS
 62
    7
 10
798.58731569269457
 20
1196.052262224167
 40
23.192592254380884
 50
255.21038964564082
 51
274.40075253887881
  0
ARC
  8
_0-2_決定
  6
CONTINUOUS
 62
    7
 10
799.41765457088059
 20
1184.3382010907067
 40
11.449573356592381
 50
274.75582153479036
 51
299.44963640332276
  0
ARC
  8
_0-2_決定
  6
CONTINUOUS
 62
    7
 10
802.74519294431173
 20
1178.0844928270633
 40
4.3714951573713128
 50
301.77155000924284
 51
340.53878667732261
  0
ARC
  8
_0-2_決定
  6
CONTINUOUS
 62
    7
 10
824.7077090263715
 20
1097.9872711815647
 40
4.9617789240026786
 50
271.83893771166004
 51
358.16106228833996
  0
ARC
  8
_0-2_決定
  6
CONTINUOUS
 62
    7
 10
825.07679206515206
 20
1098.037907172524
 40
5.0142530226061606
 50
182.39867783169132
 51
267.60132216830874
  0
ARC
  8
_0-2_決定
  6
CONTINUOUS
 62
    7
 10
825.07679206515206
 20
1097.6181881427842
 40
5.0142530226061606
 50
92.398677831691316
 51
177.60132216830871
  0
ARC
  8
_0-2_決定
  6
CONTINUOUS
 62
    7
 10
824.7251877469173
 20
1097.6863028542891
 40
4.943777229089811
 50
1.6429729189479145
 51
88.357027081052081
  0
ARC
  8
_0-2_決定
  6
CONTINUOUS
 62
    7
 10
800.60819980263796
 20
996.24697736719884
 40
2.658800120652645
 50
279.93516926371257
 51
359.59211411773555
  0
ARC
  8
_0-2_決定
  6
CONTINUOUS
 62
    7
 10
801.15770622377738
 20
995.77921016789674
 40
2.1530748711152596
 50
205.03617217361224
 51
267.58369277443131
  0
ARC
  8
_0-2_決定
  6
CONTINUOUS
 62
    7
 10
801.78370626426181
 20
996.23474308614846
 40
2.9167813940278062
 50
180.13148244178373
 51
207.9410044940692
  0
ARC
  8
_0-2_決定
  6
CONTINUOUS
 62
    7
 10
801.52566529792671
 20
996.20912194810853
 40
2.6588001206531846
 50
99.935169263722415
 51
179.59211411774538
  0
ARC
  8
_0-2_決定
  6
CONTINUOUS
 62
    7
 10
800.97615887678728
 20
996.67688914741029
 40
2.1530748711159431
 50
25.036172173624355
 51
87.583692774443449
  0
ARC
  8
_0-2_決定
  6
CONTINUOUS
 62
    7
 10
800.35015883630081
 20
996.22135622916062
 40
2.9167813940292047
 50
0.1314824417409512
 51
27.94100449402643
  0
ARC
  8
_0-2_決定
  6
CONTINUOUS
 62
    7
 10
812.54046829762819
 20
933.65395857134888
 40
1.126762168479831
 50
312.86209198548357
 51
358.68241737854851
  0
ARC
  8
_0-2_決定
  6
CONTINUOUS
 62
    7
 10
811.62430432110853
 20
934.7224490365237
 40
2.5337692800003762
 50
286.09945584318916
 51
311.61186659626213
  0
ARC
  8
_0-2_決定
  6
CONTINUOUS
 62
    7
 10
810.5730107528982
 20
938.05225943893583
 40
6.0251436558779892
 50
268.9912029175419
 51
286.92384753630739
  0
ARC
  8
_0-2_決定
  6
CONTINUOUS
 62
    7
 10
810.30861354458807
 20
937.59186279929042
 40
5.5660651795154106
 50
249.80297556357033
 51
271.62991882590654
  0
ARC
  8
_0-2_決定
  6
CONTINUOUS
 62
    7
 10
808.86642009920001
 20
933.92203859002552
 40
1.6262810063151507
 50
190.41483237287494
 51
252.85224630025294
  0
ARC
  8
_0-2_決定
  6
CONTINUOUS
 62
    7
 10
808.31259477445064
 20
933.53285194236651
 40
1.0499867104156562
 50
130.76967880441018
 51
174.7980980808874
  0
ARC
  8
_0-2_決定
  6
CONTINUOUS
 62
    7
 10
809.63407073108192
 20
932.11261986467434
 40
2.9894368774810962
 50
108.4712214695588
 51
132.17599225554835
  0
ARC
  8
_0-2_決定
  6
CONTINUOUS
 62
    7
 10
810.41198657382461
 20
929.77949193655581
 40
5.4488347653845093
 50
89.422220337953846
 51
108.45690966832787
  0
ARC
  8
_0-2_決定
  6
CONTINUOUS
 62
    7
 10
810.63021839462954
 20
930.9148963869352
 40
4.316242973196915
 50
48.911926950833198
 51
92.168048178613276
  0
ARC
  8
_0-2_決定
  6
CONTINUOUS
 62
    7
 10
812.79997801865966
 20
933.61399242371988
 40
0.8670684896403739
 50
0.9289409922607222
 51
39.717332667033723
  0
ARC
  8
_0-2_決定
  6
CONTINUOUS
 62
    7
 10
835.62127032611352
 20
962.92324737294143
 40
1.0499867104156599
 50
310.76967880441026
 51
354.79809808088748
  0
ARC
  8
_0-2_決定
  6
CONTINUOUS
 62
    7
 10
834.29979436948258
 20
964.3434794506328
 40
2.989436877480494
 50
288.47122146956531
 51
312.17599225555489
  0
ARC
  8
_0-2_決定
  6
CONTINUOUS
 62
    7
 10
833.52187852673728
 20
966.67660737874917
 40
5.448834765382391
 50
269.42222033798669
 51
288.45690966836071
  0
ARC
  8
_0-2_決定
  6
CONTINUOUS
 62
    7
 10
833.3036467059369
 20
965.54120292837206
 40
4.3162429731973271
 50
228.9119269508177
 51
272.16804817859781
  0
ARC
  8
_0-2_決定
  6
CONTINUOUS
 62
    7
 10
831.13388708190519
 20
962.84210689158931
 40
0.8670684896408186
 50
180.9289409923403
 51
219.71733266711331
  0
ARC
  8
_0-2_決定
  6
CONTINUOUS
 62
    7
 10
831.39339680293631
 20
962.80214074395883
 40
1.1267621684798317
 50
132.8620919854836
 51
178.68241737854854
  0
ARC
  8
_0-2_決定
  6
CONTINUOUS
 62
    7
 10
832.30956077945598
 20
961.73365027878413
 40
2.5337692800003757
 50
106.09945584318915
 51
131.61186659626213
  0
ARC
  8
_0-2_決定
  6
CONTINUOUS
 62
    7
 10
833.36085434766665
 20
958.40383987636926
 40
6.0251436558806972
 50
88.991202917538217
 51
106.92384753630371
  0
ARC
  8
_0-2_決定
  6
CONTINUOUS
 62
    7
 10
833.62525155597666
 20
958.86423651602036
 40
5.5660651795124476
 50
69.802975563565383
 51
91.629918825901555
  0
ARC
  8
_0-2_決定
  6
CONTINUOUS
 62
    7
 10
835.06744500136415
 20
962.53406072528242
 40
1.6262810063151492
 50
10.414832372874985
 51
72.852246300252986
  0
ARC
  8
_0-2_決定
  6
CONTINUOUS
 62
    7
 10
758.2338272391155
 20
855.0611569688208
 40
2.4333305194437282
 50
270.77952958438573
 51
359.22047041560069
  0
ARC
  8
_0-2_決定
  6
CONTINUOUS
 62
    7
 10
758.3841345725657
 20
854.94382017808016
 40
2.3187324455886991
 50
177.91818570673482
 51
267.10270844925708
  0
ARC
  8
_0-2_決定
  6
CONTINUOUS
 62
    7
 10
758.72566529792607
 20
855.00912394810882
 40
2.658800120652915
 50
99.935169263717469
 51
179.59211411774046
  0
ARC
  8
_0-2_決定
  6
CONTINUOUS
 62
    7
 10
758.14799442627327
 20
855.11057031241467
 40
2.5202893883381003
 50
358.12370125979623
 51
87.29507865494439
  0
ARC
  8
_0-2_決定
  6
CONTINUOUS
 62
    7
 10
769.82127032611345
 20
792.5232493729402
 40
1.0499867104156715
 50
310.76967880448041
 51
354.79809808095763
  0
ARC
  8
_0-2_決定
  6
CONTINUOUS
 62
    7
 10
768.49979436948274
 20
793.94348145063464
 40
2.9894368774823077
 50
288.47122146954598
 51
312.1759922555355
  0
ARC
  8
_0-2_決定
  6
CONTINUOUS
 62
    7
 10
767.72187852673994
 20
796.27660937875009
 40
5.4488347653828084
 50
269.42222033795645
 51
288.45690966833047
  0
ARC
  8
_0-2_決定
  6
CONTINUOUS
 62
    7
 10
767.50364670593626
 20
795.14120492837208
 40
4.3162429731967569
 50
228.91192695082376
 51
272.16804817860384
  0
ARC
  8
_0-2_決定
  6
CONTINUOUS
 62
    7
 10
765.33388708190557
 20
792.44210889158808
 40
0.867068489640379
 50
180.92894099226064
 51
219.71733266703362
  0
ARC
  8
_0-2_決定
  6
CONTINUOUS
 62
    7
 10
765.59339680293624
 20
792.40214274395976
 40
1.1267621684788363
 50
132.86209198552186
 51
178.68241737858682
  0
ARC
  8
_0-2_決定
  6
CONTINUOUS
 62
    7
 10
766.50956077945693
 20
791.33365227878414
 40
2.533769280000886
 50
106.09945584321007
 51
131.61186659628305
  0
ARC
  8
_0-2_決定
  6
CONTINUOUS
 62
    7
 10
767.5608543476651
 20
788.00384187637007
 40
6.0251436558795959
 50
88.991202917525854
 51
106.92384753629136
  0
ARC
  8
_0-2_決定
  6
CONTINUOUS
 62
    7
 10
767.82525155597625
 20
788.46423851601935
 40
5.5660651795131901
 50
69.802975563566491
 51
91.629918825902678
  0
ARC
  8
_0-2_決定
  6
CONTINUOUS
 62
    7
 10
769.26744500136442
 20
792.13406272528232
 40
1.6262810063148225
 50
10.414832372885201
 51
72.852246300263204
  0
ARC
  8
_0-2_決定
  6
CONTINUOUS
 62
    7
 10
792.59399512306936
 20
821.87645341217353
 40
1.2738573010507013
 50
315.78036584107315
 51
357.82245313166845
  0
ARC
  8
_0-2_決定
  6
CONTINUOUS
 62
    7
 10
791.59172085051807
 20
822.87931993853658
 40
2.6916410542991303
 50
289.87809051088607
 51
315.36039563149245
  0
ARC
  8
_0-2_決定
  6
CONTINUOUS
 62
    7
 10
790.73058841282523
 20
825.11203044803187
 40
5.0843772883066514
 50
269.28264419673945
 51
290.44896968943624
  0
ARC
  8
_0-2_決定
  6
CONTINUOUS
 62
    7
 10
790.59818528244682
 20
824.27119527394461
 40
4.2437005001890595
 50
227.78775632246749
 51
270.92822304626162
  0
ARC
  8
_0-2_決定
  6
CONTINUOUS
 62
    7
 10
788.57729197252809
 20
821.86619542655194
 40
1.1110143985005534
 50
181.96748714045432
 51
221.63533183222222
  0
ARC
  8
_0-2_決定
  6
CONTINUOUS
 62
    7
 10
788.50273734583971
 20
821.71890048292335
 40
1.0415399912842864
 50
129.02424399605709
 51
173.98447876753494
  0
ARC
  8
_0-2_決定
  6
CONTINUOUS
 62
    7
 10
789.99908775184906
 20
819.92892757735137
 40
3.3744952209837886
 50
107.45416147712032
 51
129.62580889877705
  0
ARC
  8
_0-2_決定
  6
CONTINUOUS
 62
    7
 10
790.6754069086287
 20
818.19720550757756
 40
5.2308530146161587
 50
90.092823326972677
 51
108.83182108908797
  0
ARC
  8
_0-2_決定
  6
CONTINUOUS
 62
    7
 10
790.83021839462867
 20
819.11489838693547
 40
4.3162429731971201
 50
48.911926950825489
 51
92.168048178605574
  0
ARC
  8
_0-2_決定
  6
CONTINUOUS
 62
    7
 10
792.99997801865948
 20
821.81399442371981
 40
0.867068489640379
 50
0.9289409922606013
 51
39.717332667033602
  0
ARC
  8
_0-2_決定
  6
CONTINUOUS
 62
    7
 10
846.64093337445388
 20
1142.6348934856364
 40
12.027548237575502
 50
345.91594022890223
 51
0.9201704607202515
  0
ARC
  8
_0-2_決定
  6
CONTINUOUS
 62
    7
 10
855.10245393296691
 20
1140.3557759439441
 40
3.269284680749085
 50
321.66662430093476
 51
348.57264198074824
  0
ARC
  8
_0-2_決定
  6
CONTINUOUS
 62
    7
 10
857.03358241907131
 20
1138.8447439200766
 40
0.8173768304216656
 50
272.33825767888675
 51
320.79184467527466
  0
ARC
  8
_0-2_決定
  6
CONTINUOUS
 62
    7
 10
857.1956974116506
 20
1138.8572181302684
 40
0.8391093952770257
 50
212.36387201096773
 51
261.17270585305192
  0
ARC
  8
_0-2_決定
  6
CONTINUOUS
 62
    7
 10
859.93124519257776
 20
1140.7861928771765
 40
4.1855558818714576
 50
194.92693748460553
 51
214.62334365309565
  0
ARC
  8
_0-2_決定
  6
CONTINUOUS
 62
    7
 10
866.41101865418989
 20
1142.7130210562573
 40
10.944692574263131
 50
179.39782135674014
 51
195.93578716688924
  0
ARC
  8
_0-2_決定
  6
CONTINUOUS
 62
    7
 10
866.81327027548355
 20
1142.9690938653453
 40
11.347216363161113
 50
165.51127700916626
 51
180.71220643682031
  0
ARC
  8
_0-2_決定
  6
CONTINUOUS
 62
    7
 10
859.61610654144692
 20
1144.9944212083267
 40
3.8755441799908597
 50
143.34601383467503
 51
167.88124396175016
  0
ARC
  8
_0-2_決定
  6
CONTINUOUS
 62
    7
 10
857.12594589272703
 20
1146.8747708083765
 40
0.7555850860767803
 50
94.479677447592366
 51
145.01008514635549
  0
ARC
  8
_0-2_決定
  6
CONTINUOUS
 62
    7
 10
857.0081500286426
 20
1146.6947955612241
 40
0.9351013983604239
 50
37.809449686376283
 51
86.396008251660248
  0
ARC
  8
_0-2_決定
  6
CONTINUOUS
 62
    7
 10
855.27049112670875
 20
1145.3838715070019
 40
3.1117313485122673
 50
14.216058677700497
 51
37.265358034770394
  0
ARC
  8
_0-2_決定
  6
CONTINUOUS
 62
    7
 10
847.29815686257689
 20
1143.2085494644823
 40
11.375139418366278
 50
358.08308148962976
 51
14.975990508069653
  0
ARC
  8
_0-2_決定
  6
CONTINUOUS
 62
    7
 10
878.8409333744537
 20
1100.8348934856365
 40
12.027548237575502
 50
345.91594022890223
 51
0.9201704607202515
  0
ARC
  8
_0-2_決定
  6
CONTINUOUS
 62
    7
 10
887.3024539329665
 20
1098.5557759439432
 40
3.2692846807488971
 50
321.66662430094505
 51
348.57264198075853
  0
ARC
  8
_0-2_決定
  6
CONTINUOUS
 62
    7
 10
889.2335824190709
 20
1097.0447439200766
 40
0.8173768304219655
 50
272.33825767887458
 51
320.79184467526244
  0
ARC
  8
_0-2_決定
  6
CONTINUOUS
 62
    7
 10
889.39569741165064
 20
1097.0572181302682
 40
0.8391093952770376
 50
212.3638720109665
 51
261.17270585305067
  0
ARC
  8
_0-2_決定
  6
CONTINUOUS
 62
    7
 10
892.13124519257781
 20
1098.9861928771766
 40
4.1855558818714576
 50
194.92693748460553
 51
214.62334365309565
  0
ARC
  8
_0-2_決定
  6
CONTINUOUS
 62
    7
 10
898.61101865418982
 20
1100.9130210562541
 40
10.944692574262735
 50
179.39782135672476
 51
195.93578716687387
  0
ARC
  8
_0-2_決定
  6
CONTINUOUS
 62
    7
 10
898.97212050065286
 20
1101.0969895948488
 40
11.305400161191088
 50
165.49784367134933
 51
180.34939997337477
  0
ARC
  8
_0-2_決定
  6
CONTINUOUS
 62
    7
 10
892.23772331647842
 20
1103.0207790159782
 40
4.3074252295325497
 50
145.05468807575244
 51
167.84078457844348
  0
ARC
  8
_0-2_決定
  6
CONTINUOUS
 62
    7
 10
889.33275116112077
 20
1105.0884607692158
 40
0.7425100122967942
 50
95.085722541423067
 51
147.4417408474236
  0
ARC
  8
_0-2_決定
  6
CONTINUOUS
 62
    7
 10
889.20243133073791
 20
1104.9247990884915
 40
0.9055485227287754
 50
36.863527658496324
 51
85.915553009476454
  0
ARC
  8
_0-2_決定
  6
CONTINUOUS
 62
    7
 10
887.2859725228991
 20
1103.5191728025761
 40
3.2821901991125229
 50
14.267163616533519
 51
36.425188267406682
  0
ARC
  8
_0-2_決定
  6
CONTINUOUS
 62
    7
 10
879.45915017584502
 20
1101.3195288243883
 40
11.411503596895381
 50
358.53634912714284
 51
15.286105110912814
  0
ARC
  8
_0-2_決定
  6
CONTINUOUS
 62
    7
 10
794.43338549687633
 20
1052.044296346339
 40
10.607912050134159
 50
154.39866027503672
 51
169.9906392959397
  0
ARC
  8
_0-2_決定
  6
CONTINUOUS
 62
    7
 10
788.34428596057046
 20
1053.0280476576538
 40
4.4414106702884739
 50
168.83516997338609
 51
191.16483002661391
  0
ARC
  8
_0-2_決定
  6
CONTINUOUS
 62
    7
 10
785.04575471622331
 20
1052.3291755490752
 40
1.0710119404014538
 50
188.65268877812787
 51
237.28611902881147
  0
ARC
  8
_0-2_決定
  6
CONTINUOUS
 62
    7
 10
784.59334566856933
 20
1052.429319119989
 40
1.0092199055520703
 50
262.80433042174127
 51
307.44368419499062
  0
ARC
  8
_0-2_決定
  6
CONTINUOUS
 62
    7
 10
782.63006417396525
 20
1055.1284304348644
 40
4.3465998453796004
 50
306.35929637474879
 51
325.84411585566681
  0
ARC
  8
_0-2_決定
  6
CONTINUOUS
 62
    7
 10
776.52929308924683
 20
1059.5330114619951
 40
11.870035408496868
 50
324.78409780828088
 51
339.76778971976142
  0
ARC
  8
_0-2_決定
  6
CONTINUOUS
 62
    7
 10
780.90498893915424
 20
1059.073464145752
 40
7.681988204350235
 50
331.67054710648188
 51
4.1399387395045126
  0
ARC
  8
_0-2_決定
  6
CONTINUOUS
 62
    7
 10
787.45417558247652
 20
1059.4888245527748
 40
1.1214326294218939
 50
7.1315301047643169
 51
56.879236311461241
  0
ARC
  8
_0-2_決定
  6
CONTINUOUS
 62
    7
 10
787.80621885024425
 20
1059.7141141079719
 40
0.7600478581958385
 50
69.938856796969787
 51
123.48081681852841
  0
ARC
  8
_0-2_決定
  6
CONTINUOUS
 62
    7
 10
789.20412324615597
 20
1057.5273482937876
 40
3.3553728446308679
 50
122.79101481706107
 51
144.66292514287807
  0
ARC
  8
_0-2_決定
  6
CONTINUOUS
 62
    7
 10
796.04950394747357
 20
1052.1987116592336
 40
12.027839392018331
 50
142.81605607511611
 51
158.39183821497664
  0
ARC
  8
_0-2_決定
  6
CONTINUOUS
 62
    7
 10
855.65210289008462
 20
1017.1522691842767
 40
6.2152896574581975
 50
324.1028964351982
 51
0.6986012105261687
  0
ARC
  8
_0-2_決定
  6
CONTINUOUS
 62
    7
 10
858.47438343175008
 20
1015.2172581571307
 40
2.7958466421474326
 50
273.94902801077285
 51
322.31365671736012
  0
ARC
  8
_0-2_決定
  6
CONTINUOUS
 62
    7
 10
858.76454116180469
 20
1015.1047753079245
 40
2.6785048139393473
 50
210.92999301256958
 51
267.91155324249939
  0
ARC
  8
_0-2_決定
  6
CONTINUOUS
 62
    7
 10
861.36776913670792
 20
1017.0211463966323
 40
5.9044648345531305
 50
177.99183983341396
 51
213.89895196843005
  0
ARC
  8
_0-2_決定
  6
CONTINUOUS
 62
    7
 10
862.11501950680088
 20
1017.3450894092709
 40
6.6491191203986224
 50
145.32354909704068
 51
181.00858926159907
  0
ARC
  8
_0-2_決定
  6
CONTINUOUS
 62
    7
 10
858.86154675090006
 20
1019.4659362710629
 40
2.7689611456149703
 50
94.030351990300218
 51
143.11104510659629
  0
ARC
  8
_0-2_決定
  6
CONTINUOUS
 62
    7
 10
858.57225484410515
 20
1019.576923480691
 40
2.6528161443106875
 50
30.117736314280595
 51
87.954750621576551
  0
ARC
  8
_0-2_決定
  6
CONTINUOUS
 62
    7
 10
855.63992651798856
 20
1017.5117985619214
 40
6.2334655416452867
 50
357.39098029217746
 51
33.013837126179148
  0
ARC
  8
_0-2_決定
  6
CONTINUOUS
 62
    7
 10
909.04356012371386
 20
1210.3301756236463
 40
4.4244530141241363
 50
1.2675006995185585
 51
66.512370727611838
  0
ARC
  8
_0-2_決定
  6
CONTINUOUS
 62
    7
 10
907.24713320800197
 20
1207.2844241575035
 40
7.9456652040909077
 50
63.383437947286893
 51
91.299543435111588
  0
ARC
  8
_0-2_決定
  6
CONTINUOUS
 62
    7
 10
906.99926239105571
 20
1206.7371233774718
 40
8.4911919156185576
 50
89.543392610964503
 51
120.83518086339591
  0
ARC
  8
_0-2_決定
  6
CONTINUOUS
 62
    7
 10
905.09129413179585
 20
1210.0877921555152
 40
4.6368643477837974
 50
121.81368278890626
 51
175.79184846336736
  0
ARC
  8
_0-2_決定
  6
CONTINUOUS
 62
    7
 10
904.37146354694369
 20
1210.520403598985
 40
3.9056251626784948
 50
181.35502341752564
 51
227.77931922368856
  0
ARC
  8
_0-2_決定
  6
CONTINUOUS
 62
    7
 10
906.76427188140246
 20
1212.8985735984334
 40
7.2768247750996951
 50
226.40977652008766
 51
272.38374133307656
  0
ARC
  8
_0-2_決定
  6
CONTINUOUS
 62
    7
 10
907.13790754346496
 20
1213.05477128691
 40
7.4270647840055268
 50
269.45244263076057
 51
317.19504721430252
  0
ARC
  8
_0-2_決定
  6
CONTINUOUS
 62
    7
 10
909.42279836401917
 20
1210.5286391799305
 40
4.045383071686774
 50
321.4586652193459
 51
358.57512173686985
  0
ARC
  8
_0-2_決定
  6
CONTINUOUS
 62
    7
 10
916.50610955709885
 20
866.85975061827594
 40
8.9683866178641978
 50
2.353604039927665
 51
90.250301305229826
  0
ARC
  8
_0-2_決定
  6
CONTINUOUS
 62
    7
 10
916.72442897767519
 20
866.5492742336379
 40
9.2823496984622462
 50
91.589626173234379
 51
175.80646848161172
  0
ARC
  8
_0-2_決定
  6
CONTINUOUS
 62
    7
 10
916.42775154346486
 20
867.59635269703131
 40
8.9683866178636702
 50
182.3536040399274
 51
270.25030130522953
  0
ARC
  8
_0-2_決定
  6
CONTINUOUS
 62
    7
 10
916.20943212288898
 20
867.90682908167003
 40
9.2823496984623137
 50
271.58962617323107
 51
355.80646848160836
  0
ARC
  8
_0-2_決定
  6
CONTINUOUS
 62
    7
 10
884.09958280733031
 20
930.48942490431557
 40
3.5678756760917683
 50
310.29330915803882
 51
359.01433895807367
  0
ARC
  8
_0-2_決定
  6
CONTINUOUS
 62
    7
 10
881.3542856369113
 20
933.48862689623149
 40
7.6324455165526874
 50
280.66604026388916
 51
311.45224239087111
  0
ARC
  8
_0-2_決定
  6
CONTINUOUS
 62
    7
 10
879.70448391856257
 20
938.8318956530311
 40
13.203899398477201
 50
269.83704416818318
 51
283.41102110084222
  0
ARC
  8
_0-2_決定
  6
CONTINUOUS
 62
    7
 10
879.53947806844758
 20
937.71680436409315
 40
12.089426557433525
 50
244.24814000112792
 51
270.60405053463666
  0
ARC
  8
_0-2_決定
  6
CONTINUOUS
 62
    7
 10
876.72285550158927
 20
931.62397460896295
 40
5.3790916061162228
 50
206.92672418336386
 51
243.07327581666925
  0
ARC
  8
_0-2_決定
  6
CONTINUOUS
 62
    7
 10
874.86477250451708
 20
930.45130684160335
 40
3.1979265252450433
 50
180.41669194705869
 51
203.26746028349265
  0
ARC
  8
_0-2_決定
  6
CONTINUOUS
 62
    7
 10
875.16121032045112
 20
930.31009191085229
 40
3.4962701758068175
 50
128.45395570133257
 51
178.06657851775043
  0
ARC
  8
_0-2_決定
  6
CONTINUOUS
 62
    7
 10
878.30086278167732
 20
926.95088379349966
 40
8.0878493640069369
 50
101.07721386383103
 51
131.07349730406605
  0
ARC
  8
_0-2_決定
  6
CONTINUOUS
 62
    7
 10
879.64117371757402
 20
922.74043186794961
 40
12.487644352565468
 50
89.881822478878036
 51
103.40121579711411
  0
ARC
  8
_0-2_決定
  6
CONTINUOUS
 62
    7
 10
879.76403736502357
 20
923.5276120495588
 40
11.700840566146645
 50
63.598426391456584
 51
90.475510668280066
  0
ARC
  8
_0-2_決定
  6
CONTINUOUS
 62
    7
 10
882.34753882087352
 20
928.90466806608902
 40
5.7363504688275899
 50
28.116899172182912
 51
62.830116945280544
  0
ARC
  8
_0-2_決定
  6
CONTINUOUS
 62
    7
 10
884.71644195589397
 20
930.39658606905914
 40
2.9506563512249646
 50
0.6109708435052412
 51
24.240914887372028
  0
ARC
  8
_0-2_決定
  6
CONTINUOUS
 62
    7
 10
876.15869563463571
 20
856.53628657329955
 40
8.3139506960758922
 50
272.12469482833848
 51
357.87530517166073
  0
ARC
  8
_0-2_決定
  6
CONTINUOUS
 62
    7
 10
876.77516546592778
 20
856.53628657329932
 40
8.3139506960757448
 50
182.12469482833825
 51
267.8753051716605
  0
ARC
  8
_0-2_決定
  6
CONTINUOUS
 62
    7
 10
876.93365274123698
 20
855.97027391038068
 40
8.47064543147685
 50
93.158526818015147
 51
178.25611191907649
  0
ARC
  8
_0-2_決定
  6
CONTINUOUS
 62
    7
 10
876.14249520569024
 20
856.10909034585734
 40
8.3252853164314811
 50
0.8187362716554645
 51
87.766624991254943
  0
ARC
  8
_0-2_決定
  6
CONTINUOUS
 62
    7
 10
778.86473806120364
 20
884.36289458032365
 40
8.8772742049611608
 50
319.41919356290714
 51
18.82942976538531
  0
ARC
  8
_0-2_決定
  6
CONTINUOUS
 62
    7
 10
776.38572808026743
 20
885.9848583626756
 40
11.82130962750216
 50
286.11504425005774
 51
321.26509080190544
  0
ARC
  8
_0-2_決定
  6
CONTINUOUS
 62
    7
 10
775.65717062443355
 20
886.56195254731165
 40
12.589526645039726
 50
239.91864495609769
 51
288.57222438169902
  0
ARC
  8
_0-2_決定
  6
CONTINUOUS
 62
    7
 10
774.25040775878244
 20
883.15064196168555
 40
8.9461291505527392
 50
200.42883663805009
 51
236.76245790917295
  0
ARC
  8
_0-2_決定
  6
CONTINUOUS
 62
    7
 10
775.01604080942252
 20
882.69100083516014
 40
9.5287711830776072
 50
138.79560711389183
 51
196.22822134821732
  0
ARC
  8
_0-2_決定
  6
CONTINUOUS
 62
    7
 10
777.41951210702518
 20
881.05201613721306
 40
12.421670488749335
 50
108.5541228844646
 51
140.41098553934054
  0
ARC
  8
_0-2_決定
  6
CONTINUOUS
 62
    7
 10
777.42077419050224
 20
880.96209322771847
 40
12.507351165490288
 50
59.403200586325497
 51
108.42852631111516
  0
ARC
  8
_0-2_決定
  6
CONTINUOUS
 62
    7
 10
778.96611103007081
 20
884.4043496820243
 40
8.7679490622137095
 50
18.786835014518488
 51
56.645117676640801
  0
ARC
  8
_0-2_決定
  6
CONTINUOUS
 62
    7
 10
816.50711964756988
 20
1062.9193693163468
 40
2.7613233970911071
 50
302.40545181615289
 51
358.10478558996346
  0
ARC
  8
_0-2_決定
  6
CONTINUOUS
 62
    7
 10
815.54514819468955
 20
1064.1265957840913
 40
4.2992596667714631
 50
268.95757085871207
 51
304.60771743184438
  0
ARC
  8
_0-2_決定
  6
CONTINUOUS
 62
    7
 10
815.47603683945886
 20
1063.9689785356049
 40
4.1409408863262307
 50
207.01526687942822
 51
269.87402916877153
  0
ARC
  8
_0-2_決定
  6
CONTINUOUS
 62
    7
 10
813.89879800064193
 20
1062.8102420550099
 40
2.231936474901199
 50
179.54290961403331
 51
198.87914346760596
  0
ARC
  8
_0-2_決定
  6
CONTINUOUS
 62
    7
 10
814.39142046173424
 20
1062.7152546909911
 40
2.7268217090554989
 50
121.98742805972283
 51
177.62932601836317
  0
ARC
  8
_0-2_決定
  6
CONTINUOUS
 62
    7
 10
815.46878314546325
 20
1061.4532182828348
 40
4.3748297662290012
 50
90.024236667998906
 51
125.20091901785115
  0
ARC
  8
_0-2_決定
  6
CONTINUOUS
 62
    7
 10
815.52628780129771
 20
1061.782702712894
 40
4.0457803657537372
 50
26.502003288239827
 51
90.840610976148483
  0
ARC
  8
_0-2_決定
  6
CONTINUOUS
 62
    7
 10
816.864013550599
 20
1062.838113078757
 40
2.4029400807635244
 50
359.75999907807631
 51
18.18525415171208
  0
ARC
  8
_0-2_決定
  6
CONTINUOUS
 62
    7
 10
855.21934590403362
 20
1170.2771603848485
 40
1.6483164825141872
 50
321.36611316996272
 51
358.29258000625998
  0
ARC
  8
_0-2_決定
  6
CONTINUOUS
 62
    7
 10
853.99405579946483
 20
1171.2556296769205
 40
3.2163527600957638
 50
298.46278733019398
 51
321.37799694984403
  0
ARC
  8
_0-2_決定
  6
CONTINUOUS
 62
    7
 10
852.15123051799628
 20
1174.5475065647547
 40
6.9887858762218702
 50
283.36682720303838
 51
298.88261108906136
  0
ARC
  8
_0-2_決定
  6
CONTINUOUS
 62
    7
 10
850.99835877525891
 20
1179.5376043687772
 40
12.110269902782596
 50
269.37817815068252
 51
283.2154592873128
  0
ARC
  8
_0-2_決定
  6
CONTINUOUS
 62
    7
 10
850.67025256677675
 20
1176.8105303454538
 40
9.3845438683009768
 50
241.18408916863444
 51
271.20087279894557
  0
ARC
  8
_0-2_決定
  6
CONTINUOUS
 62
    7
 10
847.30873852212369
 20
1170.5287504683793
 40
2.2618853116348872
 50
187.63971566652441
 51
239.0930163356156
  0
ARC
  8
_0-2_決定
  6
CONTINUOUS
 62
    7
 10
846.49957960513746
 20
1170.1556003170315
 40
1.4344796727528371
 50
138.39686543818675
 51
177.105087247424
  0
ARC
  8
_0-2_決定
  6
CONTINUOUS
 62
    7
 10
847.96668882380629
 20
1168.8451179452338
 40
3.4016500365686779
 50
115.78605161951236
 51
138.29889792663769
  0
ARC
  8
_0-2_決定
  6
CONTINUOUS
 62
    7
 10
849.95123333664537
 20
1165.0959216233582
 40
7.6424115894612594
 50
102.11772347521064
 51
116.95558640104935
  0
ARC
  8
_0-2_決定
  6
CONTINUOUS
 62
    7
 10
850.81176966233897
 20
1161.0203762638812
 40
11.80780023826977
 50
89.732338157389847
 51
102.04891467502608
  0
ARC
  8
_0-2_決定
  6
CONTINUOUS
 62
    7
 10
851.0792035658659
 20
1162.3941041189662
 40
10.436102605938116
 50
63.185712504419335
 51
91.165491291113241
  0
ARC
  8
_0-2_決定
  6
CONTINUOUS
 62
    7
 10
854.80460066370199
 20
1169.8571582809604
 40
2.0954148731999691
 50
10.195093038922153
 51
62.043588660022486
  0
ARC
  8
_0-2_決定
  6
CONTINUOUS
 62
    7
 10
889.45792184266202
 20
1195.7814336283295
 40
3.2093472181834191
 50
310.14184468232088
 51
0.8321837043281104
  0
ARC
  8
_0-2_決定
  6
CONTINUOUS
 62
    7
 10
890.62302002699516
 20
1194.5365891577435
 40
1.5091824361941839
 50
271.66728866388019
 51
306.79405608748311
  0
ARC
  8
_0-2_決定
  6
CONTINUOUS
 62
    7
 10
890.72661456822425
 20
1194.8951931016079
 40
1.8681011106096506
 50
199.6159535418513
 51
268.16914387467824
  0
ARC
  8
_0-2_決定
  6
CONTINUOUS
 62
    7
 10
892.49793525262453
 20
1195.7559311773332
 40
3.8316833804007344
 50
178.92159687539868
 51
202.84945723385357
  0
ARC
  8
_0-2_決定
  6
CONTINUOUS
 62
    7
 10
891.55355744149892
 20
1195.9038837431788
 40
2.8876229366571442
 50
127.71924650381763
 51
181.50494091399725
  0
ARC
  8
_0-2_決定
  6
CONTINUOUS
 62
    7
 10
890.6509554055126
 20
1196.7532878551424
 40
1.6748339924670752
 50
89.453484789383978
 51
121.05675261669951
  0
ARC
  8
_0-2_決定
  6
CONTINUOUS
 62
    7
 10
890.60749942386087
 20
1196.8095626538625
 40
1.6195737995993746
 50
50.990880965005836
 51
87.897028595842087
  0
ARC
  8
_0-2_決定
  6
CONTINUOUS
 62
    7
 10
889.80002105224548
 20
1195.8584091049936
 40
2.8670702832107704
 50
359.39320290972807
 51
50.416334706484015
  0
ARC
  8
_0-2_決定
  6
CONTINUOUS
 62
    7
 10
929.0579218426617
 20
1171.9814356283291
 40
3.2093472181834191
 50
310.14184468232088
 51
0.8321837043281104
  0
ARC
  8
_0-2_決定
  6
CONTINUOUS
 62
    7
 10
930.22302002699485
 20
1170.7365911577429
 40
1.5091824361941839
 50
271.66728866388019
 51
306.79405608748311
  0
ARC
  8
_0-2_決定
  6
CONTINUOUS
 62
    7
 10
930.33304090971365
 20
1170.8078913739441
 40
1.5812263429145008
 50
230.48465566651043
 51
267.60379087216097
  0
ARC
  8
_0-2_決定
  6
CONTINUOUS
 62
    7
 10
931.26790662851045
 20
1171.8815044785244
 40
3.0045519342240814
 50
177.20436244915581
 51
229.75841891608658
  0
ARC
  8
_0-2_決定
  6
CONTINUOUS
 62
    7
 10
931.19632090357095
 20
1172.0183550863371
 40
2.9294063883115928
 50
126.6683774532703
 51
179.81042424001495
  0
ARC
  8
_0-2_決定
  6
CONTINUOUS
 62
    7
 10
930.2935697117673
 20
1173.1209549175874
 40
1.5073281567353656
 50
91.012646769391282
 51
124.17220235500129
  0
ARC
  8
_0-2_決定
  6
CONTINUOUS
 62
    7
 10
930.20749942385942
 20
1173.0095646538618
 40
1.6195737996007278
 50
50.99088096496866
 51
87.897028595804912
  0
ARC
  8
_0-2_決定
  6
CONTINUOUS
 62
    7
 10
929.40002105224517
 20
1172.0584111049939
 40
2.8670702832104924
 50
359.39320290971608
 51
50.41633470647205
  0
ARC
  8
_0-2_決定
  6
CONTINUOUS
 62
    7
 10
893.94666234634519
 20
1124.4795252863712
 40
2.5207938761496114
 50
300.52291602273397
 51
358.82987025217687
  0
ARC
  8
_0-2_決定
  6
CONTINUOUS
 62
    7
 10
892.83360995236058
 20
1126.1593722615978
 40
4.5343891197580408
 50
267.89339246671727
 51
301.85797153653732
  0
ARC
  8
_0-2_決定
  6
CONTINUOUS
 62
    7
 10
892.58275576188021
 20
1126.5523495454213
 40
4.9250212666412176
 50
229.84670788271805
 51
270.97930439044205
  0
ARC
  8
_0-2_決定
  6
CONTINUOUS
 62
    7
 10
891.02350539567874
 20
1124.5044289903324
 40
2.3578123568120151
 50
181.85642160675559
 51
226.71522870453654
  0
ARC
  8
_0-2_決定
  6
CONTINUOUS
 62
    7
 10
890.54960232860458
 20
1124.3797817706775
 40
1.883290370796606
 50
143.95126436590033
 51
178.53143493848233
  0
ARC
  8
_0-2_決定
  6
CONTINUOUS
 62
    7
 10
891.53983128605455
 20
1123.6487631153955
 40
3.1141030386350059
 50
119.91185524973052
 51
143.79822982084914
  0
ARC
  8
_0-2_決定
  6
CONTINUOUS
 62
    7
 10
892.55209971520708
 20
1121.8594397723637
 40
5.1698833248504874
 50
88.727270443106718
 51
119.74729048842443
  0
ARC
  8
_0-2_決定
  6
CONTINUOUS
 62
    7
 10
892.77212790618842
 20
1122.3699982231487
 40
4.6592371712527134
 50
49.031472029436422
 51
91.293747561461771
  0
ARC
  8
_0-2_決定
  6
CONTINUOUS
 62
    7
 10
894.31019323507053
 20
1124.3529025331784
 40
2.158046022808068
 50
1.9954945257806211
 51
45.345582443598254
  0
ARC
  8
_0-2_決定
  6
CONTINUOUS
 62
    7
 10
932.16233189143418
 20
1134.4714102013388
 40
8.1047146606894955
 50
299.9366854964104
 51
359.69344971419514
  0
ARC
  8
_0-2_決定
  6
CONTINUOUS
 62
    7
 10
934.24977216110369
 20
1131.7977792648135
 40
4.7697624694166514
 50
270.2061120254574
 51
294.22532624280024
  0
ARC
  8
_0-2_決定
  6
CONTINUOUS
 62
    7
 10
934.36816385199813
 20
1132.5459791816868
 40
5.5188600711824529
 50
211.1880205886446
 51
268.94895573034091
  0
ARC
  8
_0-2_決定
  6
CONTINUOUS
 62
    7
 10
936.64982836250852
 20
1134.2977520839988
 40
8.3839103446273811
 50
179.1095220844326
 51
213.35517923788893
  0
ARC
  8
_0-2_決定
  6
CONTINUOUS
 62
    7
 10
936.70328161309067
 20
1134.4734379174931
 40
8.4364731689634578
 50
134.9123168408324
 51
180.3082665961027
  0
ARC
  8
_0-2_決定
  6
CONTINUOUS
 62
    7
 10
934.35922416716244
 20
1136.413356692859
 40
5.4154774818062359
 50
90.976514214765857
 51
131.83835950143035
  0
ARC
  8
_0-2_決定
  6
CONTINUOUS
 62
    7
 10
934.19651822298101
 20
1136.7526096263298
 40
5.0759264283132479
 50
48.394388803290525
 51
89.205177885439696
  0
ARC
  8
_0-2_決定
  6
CONTINUOUS
 62
    7
 10
932.38652580232747
 20
1134.606986739439
 40
7.8824360566123817
 50
358.69921749046409
 51
48.912669546442956
  0
ARC
  8
_0-2_決定
  6
CONTINUOUS
 62
    7
 10
843.16368198112002
 20
1150.2925468771966
 40
0.9055485227283961
 50
306.86352765855725
 51
355.9155530095374
  0
ARC
  8
_0-2_決定
  6
CONTINUOUS
 62
    7
 10
841.75805569520548
 20
1152.2090056850391
 40
3.2821901991142548
 50
284.26716361650313
 51
306.42518826737626
  0
ARC
  8
_0-2_決定
  6
CONTINUOUS
 62
    7
 10
839.55841271701843
 20
1160.0358212394972
 40
11.411496780974758
 50
268.5363532752462
 51
285.28610925901614
  0
ARC
  8
_0-2_決定
  6
CONTINUOUS
 62
    7
 10
839.11787189767347
 20
1159.7513267362183
 40
11.124277798481009
 50
255.36353982805377
 51
270.76776236941981
  0
ARC
  8
_0-2_決定
  6
CONTINUOUS
 62
    7
 10
836.98237706219425
 20
1152.1250721044676
 40
3.2089168996063084
 50
231.0916656321177
 51
257.84893838677044
  0
ARC
  8
_0-2_決定
  6
CONTINUOUS
 62
    7
 10
835.48921827120125
 20
1150.2641905181135
 40
0.8230796517889491
 50
182.51676669260345
 51
230.61333566159598
  0
ARC
  8
_0-2_決定
  6
CONTINUOUS
 62
    7
 10
835.65504478615992
 20
1150.140223532778
 40
0.9920074937220279
 50
129.28460130387464
 51
174.92085663428651
  0
ARC
  8
_0-2_決定
  6
CONTINUOUS
 62
    7
 10
837.20566019636431
 20
1148.2938944905377
 40
3.4030355474116347
 50
108.1263009685804
 51
129.80902032355203
  0
ARC
  8
_0-2_決定
  6
CONTINUOUS
 62
    7
 10
839.12961817997541
 20
1142.9004893283657
 40
9.128591144905652
 50
89.138111184247379
 51
109.07109054655655
  0
ARC
  8
_0-2_決定
  6
CONTINUOUS
 62
    7
 10
839.37329472809756
 20
1141.3324958127178
 40
10.696080692505348
 50
75.081581093423893
 51
90.569760504150977
  0
ARC
  8
_0-2_決定
  6
CONTINUOUS
 62
    7
 10
841.15946796752701
 20
1147.6377706946116
 40
4.144769746060998
 50
53.464582442507925
 51
76.501630601246703
  0
ARC
  8
_0-2_決定
  6
CONTINUOUS
 62
    7
 10
843.06253964127313
 20
1150.131653063107
 40
1.0090059543721011
 50
5.4820680856445509
 51
55.988907318256707
  0
ARC
  8
_0-2_決定
  6
CONTINUOUS
 62
    7
 10
851.0072792771598
 20
1042.2815950232916
 40
1.6605148161216465
 50
321.50658719329834
 51
358.15210598292435
  0
ARC
  8
_0-2_決定
  6
CONTINUOUS
 62
    7
 10
849.78191170482148
 20
1043.2322180620968
 40
3.2113306318598251
 50
299.16608031349665
 51
321.83961645714533
  0
ARC
  8
_0-2_決定
  6
CONTINUOUS
 62
    7
 10
848.03354693618076
 20
1046.4316126475039
 40
6.8572063952668616
 50
282.92152917944099
 51
298.89443176260176
  0
ARC
  8
_0-2_決定
  6
CONTINUOUS
 62
    7
 10
846.90190885760762
 20
1050.6835451896072
 40
11.255549882249248
 50
269.82194449573785
 51
283.69621775819138
  0
ARC
  8
_0-2_決定
  6
CONTINUOUS
 62
    7
 10
846.59789566657139
 20
1049.447254807201
 40
10.022816550119888
 50
242.60986973456235
 51
271.53813201602986
  0
ARC
  8
_0-2_決定
  6
CONTINUOUS
 62
    7
 10
843.13967092711118
 20
1042.5298765755401
 40
2.2926945520128656
 50
187.56479059287253
 51
239.81534445910381
  0
ARC
  8
_0-2_決定
  6
CONTINUOUS
 62
    7
 10
842.38277253295394
 20
1042.143712864586
 40
1.518186289983622
 50
139.58165914687947
 51
176.8155218804707
  0
ARC
  8
_0-2_決定
  6
CONTINUOUS
 62
    7
 10
844.02785119457462
 20
1040.7932761060858
 40
3.6464124825266646
 50
118.16088345765081
 51
140.18630494925483
  0
ARC
  8
_0-2_決定
  6
CONTINUOUS
 62
    7
 10
845.8729472908683
 20
1037.3537746040929
 40
7.5495579516615328
 50
103.06026021838059
 51
118.18680254824646
  0
ARC
  8
_0-2_決定
  6
CONTINUOUS
 62
    7
 10
846.83066400416749
 20
1033.7834216404913
 40
11.244684501052792
 50
89.815208365147171
 51
103.70295388878284
  0
ARC
  8
_0-2_決定
  6
CONTINUOUS
 62
    7
 10
846.97991789431649
 20
1035.7754112633079
 40
9.2533262336246587
 50
60.99354977432251
 51
90.699625049973534
  0
ARC
  8
_0-2_決定
  6
CONTINUOUS
 62
    7
 10
850.30560036046586
 20
1041.7592688983
 40
2.4074126496471964
 50
11.228594552320587
 51
61.157886656070453
  0
ARC
  8
_0-2_決定
  6
CONTINUOUS
 62
    7
 10
885.25792184266174
 20
1067.7814356283282
 40
3.2093472181828684
 50
310.14184468234248
 51
0.8321837043496821
  0
ARC
  8
_0-2_決定
  6
CONTINUOUS
 62
    7
 10
886.42302002699489
 20
1066.5365911577449
 40
1.509182436195962
 50
271.66728866385665
 51
306.79405608745952
  0
ARC
  8
_0-2_決定
  6
CONTINUOUS
 62
    7
 10
886.5266145682242
 20
1066.895195101607
 40
1.868101110608835
 50
199.61595354183305
 51
268.16914387465999
  0
ARC
  8
_0-2_決定
  6
CONTINUOUS
 62
    7
 10
888.29793525262426
 20
1067.7559331773357
 40
3.8316833804012522
 50
178.92159687543895
 51
202.84945723389382
  0
ARC
  8
_0-2_決定
  6
CONTINUOUS
 62
    7
 10
887.63320426584437
 20
1067.9650157335914
 40
3.1692348438841162
 50
130.69095646564764
 51
182.47698201788572
  0
ARC
  8
_0-2_決定
  6
CONTINUOUS
 62
    7
 10
886.45335718956153
 20
1068.9873400601487
 40
1.6407637418693506
 50
89.526010275664888
 51
122.70082619054699
  0
ARC
  8
_0-2_決定
  6
CONTINUOUS
 62
    7
 10
886.40082019085094
 20
1069.0482039413628
 40
1.5812263429153344
 50
50.484655666521995
 51
87.603790872172496
  0
ARC
  8
_0-2_決定
  6
CONTINUOUS
 62
    7
 10
885.46595447205368
 20
1067.9745908367845
 40
3.0045519342235516
 50
357.2043624491335
 51
49.758418916064279
  0
ARC
  8
_0-2_決定
  6
CONTINUOUS
 62
    7
 10
924.90064624394131
 20
1043.8910860604292
 40
3.1692451447772028
 50
310.69104885308741
 51
2.4768567258873011
  0
ARC
  8
_0-2_決定
  6
CONTINUOUS
 62
    7
 10
926.08050391100255
 20
1042.8687572551589
 40
1.6407637418693506
 50
269.52601027566487
 51
302.70082619054699
  0
ARC
  8
_0-2_決定
  6
CONTINUOUS
 62
    7
 10
926.13304090971292
 20
1042.8078933739448
 40
1.5812263429153344
 50
230.48465566652197
 51
267.60379087217251
  0
ARC
  8
_0-2_決定
  6
CONTINUOUS
 62
    7
 10
927.06790460312027
 20
1043.8815054785232
 40
3.0045498624704994
 50
177.20437961229433
 51
229.75843607922511
  0
ARC
  8
_0-2_決定
  6
CONTINUOUS
 62
    7
 10
927.27593925790279
 20
1044.0746596869785
 40
3.2093472181834191
 50
130.14184468232091
 51
180.83218370432812
  0
ARC
  8
_0-2_決定
  6
CONTINUOUS
 62
    7
 10
926.11084107356965
 20
1045.3195041575648
 40
1.5091824361941741
 50
91.667288663879134
 51
126.79405608748203
  0
ARC
  8
_0-2_決定
  6
CONTINUOUS
 62
    7
 10
926.00724653233988
 20
1044.9609002137006
 40
1.8681011106092427
 50
19.615953541842163
 51
88.169143874669103
  0
ARC
  8
_0-2_決定
  6
CONTINUOUS
 62
    7
 10
924.2359258479396
 20
1044.1001621379737
 40
3.8316833804009516
 50
358.92159687541891
 51
22.849457233873807
  0
ARC
  8
_0-2_決定
  6
CONTINUOUS
 62
    7
 10
890.02044875705701
 20
996.52052378159919
 40
2.4482288757754311
 50
298.45441753049727
 51
357.83531770461991
  0
ARC
  8
_0-2_決定
  6
CONTINUOUS
 62
    7
 10
888.58400141133325
 20
998.56665406027878
 40
4.9399918048648521
 50
268.64204344265937
 51
301.79688621967426
  0
ARC
  8
_0-2_決定
  6
CONTINUOUS
 62
    7
 10
888.38275576188016
 20
998.55235154541947
 40
4.9250212666396944
 50
229.84670788271174
 51
270.9793043904358
  0
ARC
  8
_0-2_決定
  6
CONTINUOUS
 62
    7
 10
886.82350539567983
 20
996.50443099033396
 40
2.3578123568137204
 50
181.85642160677662
 51
226.71522870455755
  0
ARC
  8
_0-2_決定
  6
CONTINUOUS
 62
    7
 10
886.51976497274154
 20
996.3560165500337
 40
2.0540978395949052
 50
144.52697967860433
 51
177.99033943099695
  0
ARC
  8
_0-2_決定
  6
CONTINUOUS
 62
    7
 10
888.20710531611235
 20
995.04779212651783
 40
4.1883245073569961
 50
86.44333805388996
 51
143.34759703663582
  0
ARC
  8
_0-2_決定
  6
CONTINUOUS
 62
    7
 10
888.49770563116772
 20
994.38252445327123
 40
4.8456229333190208
 50
49.153200846811089
 51
90.363894204634292
  0
ARC
  8
_0-2_決定
  6
CONTINUOUS
 62
    7
 10
890.05494238647793
 20
996.24447525577625
 40
2.4189639235333904
 50
4.3523430004403147
 51
48.210479042161651
  0
ARC
  8
_0-2_決定
  6
CONTINUOUS
 62
    7
 10
928.2986431009906
 20
1006.4541448112016
 40
7.7683312784572864
 50
298.51309433180302
 51
359.80753331413098
  0
ARC
  8
_0-2_決定
  6
CONTINUOUS
 62
    7
 10
930.05179563751449
 20
1004.2059539845689
 40
4.9779273350971751
 50
270.17420261537478
 51
293.126396259736
  0
ARC
  8
_0-2_決定
  6
CONTINUOUS
 62
    7
 10
930.21201560387021
 20
1004.8426474864102
 40
5.6164720645130384
 50
210.78483952768832
 51
268.51976722495846
  0
ARC
  8
_0-2_決定
  6
CONTINUOUS
 62
    7
 10
932.04812622221334
 20
1006.364860932754
 40
7.9814458069077432
 50
179.54638731393715
 51
213.42734031886454
  0
ARC
  8
_0-2_決定
  6
CONTINUOUS
 62
    7
 10
932.17152920913031
 20
1006.3846871139688
 40
8.1047146606895115
 50
119.9366854964105
 51
179.69344971419522
  0
ARC
  8
_0-2_決定
  6
CONTINUOUS
 62
    7
 10
930.08408893946103
 20
1009.0583180504943
 40
4.7697624694166469
 50
90.206112025457131
 51
114.22532624279998
  0
ARC
  8
_0-2_決定
  6
CONTINUOUS
 62
    7
 10
929.99651822298142
 20
1008.7526116263302
 40
5.0759264283124841
 50
48.394388803287342
 51
89.205177885436512
  0
ARC
  8
_0-2_決定
  6
CONTINUOUS
 62
    7
 10
928.18652580232788
 20
1006.6069887394392
 40
7.8824360566114038
 50
358.69921749046722
 51
48.912669546446089
  0
ARC
  8
_0-2_決定
  6
CONTINUOUS
 62
    7
 10
839.0010926951752
 20
1022.3560802992221
 40
0.8752525558471708
 50
303.71643500407492
 51
351.58867799697907
  0
ARC
  8
_0-2_決定
  6
CONTINUOUS
 62
    7
 10
837.20517454903131
 20
1024.7272833210066
 40
3.8485919177412198
 50
286.01459435296374
 51
306.36170143610389
  0
ARC
  8
_0-2_決定
  6
CONTINUOUS
 62
    7
 10
835.43930906563673
 20
1030.7852257924997
 40
10.158638722650062
 50
269.02773185459245
 51
286.16155488257766
  0
ARC
  8
_0-2_決定
  6
CONTINUOUS
 62
    7
 10
835.19801207549563
 20
1031.9334124996608
 40
11.305572918754299
 50
255.49795778238922
 51
270.34928586234804
  0
ARC
  8
_0-2_決定
  6
CONTINUOUS
 62
    7
 10
833.27420119195745
 20
1025.1988424238491
 40
4.3074252295323419
 50
235.05468807575582
 51
257.84078457844686
  0
ARC
  8
_0-2_決定
  6
CONTINUOUS
 62
    7
 10
831.20651943872076
 20
1022.293870268491
 40
0.7425100122965372
 50
185.08572254135149
 51
237.44174084735204
  0
ARC
  8
_0-2_決定
  6
CONTINUOUS
 62
    7
 10
831.44744486406944
 20
1022.1442490209433
 40
0.9840868580571726
 50
129.09043806084253
 51
175.11501987731862
  0
ARC
  8
_0-2_決定
  6
CONTINUOUS
 62
    7
 10
833.0012827642031
 20
1020.2681153933468
 40
3.4200952870701853
 50
107.60380292296452
 51
129.47616745293283
  0
ARC
  8
_0-2_決定
  6
CONTINUOUS
 62
    7
 10
835.06236594977793
 20
1014.2381892209849
 40
9.7919974909869048
 50
88.802935193533543
 51
108.42836117479806
  0
ARC
  8
_0-2_決定
  6
CONTINUOUS
 62
    7
 10
835.40265913335475
 20
1014.1622716047041
 40
9.8667116252281879
 50
74.454742143733569
 51
90.788186170935163
  0
ARC
  8
_0-2_決定
  6
CONTINUOUS
 62
    7
 10
837.13161261618347
 20
1020.0209720770516
 40
3.760184232280499
 50
51.606030152129655
 51
75.911270543573934
  0
ARC
  8
_0-2_決定
  6
CONTINUOUS
 62
    7
 10
838.84759194861772
 20
1022.1551656009156
 40
1.0219409330145022
 50
4.0897638529835501
 51
52.69603531234948
  0
ARC
  8
_0-2_決定
  6
CONTINUOUS
 62
    7
 10
725.26123068767652
 20
1089.1688507368942
 40
29.00685994012597
 50
343.45382850532371
 51
0.5119853473641236
  0
ARC
  8
_0-2_決定
  6
CONTINUOUS
 62
    7
 10
741.61094085319291
 20
1084.5726629491899
 40
12.027848976385108
 50
329.05658439443562
 51
342.26123573221759
  0
ARC
  8
_0-2_決定
  6
CONTINUOUS
 62
    7
 10
747.32108606470376
 20
1081.0820925295943
 40
5.3358878943200949
 50
310.22469996404141
 51
329.67584450446111
  0
ARC
  8
_0-2_決定
  6
CONTINUOUS
 62
    7
 10
749.17564934794143
 20
1078.8937800774963
 40
2.4674215264711412
 50
272.12016307715658
 51
310.15948654021997
  0
ARC
  8
_0-2_決定
  6
CONTINUOUS
 62
    7
 10
749.31231611830094
 20
1078.4914632025984
 40
2.0639145765672793
 50
235.62220479325487
 51
268.74001737764405
  0
ARC
  8
_0-2_決定
  6
CONTINUOUS
 62
    7
 10
750.61012151445766
 20
1080.2449500376015
 40
4.2446995108868739
 50
214.38016219219708
 51
234.52852262100589
  0
ARC
  8
_0-2_決定
  6
CONTINUOUS
 62
    7
 10
754.96953789303404
 20
1083.2759606966642
 40
9.5542034066130928
 50
201.28285967498209
 51
214.61907838079065
  0
ARC
  8
_0-2_決定
  6
CONTINUOUS
 62
    7
 10
763.27384792615499
 20
1086.7259017062554
 40
18.545474957256069
 50
192.19600257916315
 51
201.90205936506112
  0
ARC
  8
_0-2_決定
  6
CONTINUOUS
 62
    7
 10
774.7307303716741
 20
1089.1917912405122
 40
30.264719983318777
 50
179.55272564625497
 51
192.17687018049375
  0
ARC
  8
_0-2_決定
  6
CONTINUOUS
 62
    7
 10
773.04084951343521
 20
1089.6386924997996
 40
28.57469338184854
 50
163.4713399954345
 51
180.42237267720657
  0
ARC
  8
_0-2_決定
  6
CONTINUOUS
 62
    7
 10
757.51749659950838
 20
1094.0369994759924
 40
12.443111000897702
 50
149.9495149885239
 51
162.55149602572644
  0
ARC
  8
_0-2_決定
  6
CONTINUOUS
 62
    7
 10
751.47051960921317
 20
1097.5789045373631
 40
5.43541768631491
 50
131.52773738213838
 51
150.34709481684507
  0
ARC
  8
_0-2_決定
  6
CONTINUOUS
 62
    7
 10
749.37419292715333
 20
1099.9894881272749
 40
2.2411277427885374
 50
92.743224029485333
 51
132.26383297004836
  0
ARC
  8
_0-2_決定
  6
CONTINUOUS
 62
    7
 10
749.23358049108151
 20
1099.9368741269816
 40
2.2914162667454949
 50
57.435493439943819
 51
89.166018092114996
  0
ARC
  8
_0-2_決定
  6
CONTINUOUS
 62
    7
 10
748.17298134493399
 20
1098.3918137254491
 40
4.1649026980151174
 50
36.823350405088348
 51
56.579358805527228
  0
ARC
  8
_0-2_決定
  6
CONTINUOUS
 62
    7
 10
744.59436082492266
 20
1095.6936728829992
 40
8.6466859060457715
 50
23.114112935607348
 51
36.922621919637869
  0
ARC
  8
_0-2_決定
  6
CONTINUOUS
 62
    7
 10
737.09796402997517
 20
1092.3438225115533
 40
16.856903664752661
 50
13.531668606796124
 51
23.583606734711093
  0
ARC
  8
_0-2_決定
  6
CONTINUOUS
 62
    7
 10
726.22444551562035
 20
1089.7138873242679
 40
28.043943791916629
 50
359.41599903995387
 51
13.557644359367197
  0
ARC
  8
_0-2_決定
  6
CONTINUOUS
 62
    7
 10
839.03584588733736
 20
818.66147292781852
 40
5.9694271486814792
 50
325.35661847541945
 51
39.122333400478517
  0
ARC
  8
_0-2_決定
  6
CONTINUOUS
 62
    7
 10
833.38071460693891
 20
822.01830878648195
 40
12.538376715773648
 50
302.87654628758105
 51
327.42740938954921
  0
ARC
  8
_0-2_決定
  6
CONTINUOUS
 62
    7
 10
827.24876680700334
 20
830.32544867747617
 40
22.852649901713903
 50
286.62467124079512
 51
304.48260118656742
  0
ARC
  8
_0-2_決定
  6
CONTINUOUS
 62
    7
 10
824.86605029156271
 20
837.13506301532118
 40
30.061181636176197
 50
278.80375562637903
 51
287.26295702545087
  0
ARC
  8
_0-2_決定
  6
CONTINUOUS
 62
    7
 10
818.45388098120134
 20
831.4035692938478
 40
26.38394873377905
 50
268.55149047026168
 51
294.67148237751547
  0
ARC
  8
_0-2_決定
  6
CONTINUOUS
 62
    7
 10
818.49678011833907
 20
818.45957930902659
 40
13.450272064886475
 50
244.21953520582235
 51
266.97476947938412
  0
ARC
  8
_0-2_決定
  6
CONTINUOUS
 62
    7
 10
815.58162257182971
 20
811.95901420252767
 40
6.3320854544571059
 50
175.75203097410557
 51
242.38917710007394
  0
ARC
  8
_0-2_決定
  6
CONTINUOUS
 62
    7
 10
814.05985974863597
 20
816.13234664487914
 40
6.0575533411687577
 50
144.52246784043845
 51
217.69925072545627
  0
ARC
  8
_0-2_決定
  6
CONTINUOUS
 62
    7
 10
820.12174956741774
 20
812.58737782204389
 40
13.066717883736329
 50
123.30467319381739
 51
147.2921524461776
  0
ARC
  8
_0-2_決定
  6
CONTINUOUS
 62
    7
 10
826.78666445344561
 20
803.504283210587
 40
24.324656857503847
 50
97.368703021439742
 51
124.67766397647922
  0
ARC
  8
_0-2_決定
  6
CONTINUOUS
 62
    7
 10
834.23656377454677
 20
804.01280536144043
 40
25.87270689061662
 50
87.894910159490379
 51
114.11217154401216
  0
ARC
  8
_0-2_決定
  6
CONTINUOUS
 62
    7
 10
834.38238812986924
 20
816.43076454196785
 40
13.461351223179729
 50
63.983545300658307
 51
86.57356182465054
  0
ARC
  8
_0-2_決定
  6
CONTINUOUS
 62
    7
 10
837.30347962079099
 20
822.88850015901733
 40
6.3800878171431394
 50
355.86138752778652
 51
62.120142105908116
  0
ARC
  8
_0-2_決定
  6
CONTINUOUS
 62
    7
 10
869.29502784124452
 20
769.1704575571049
 40
4.3825586639466216
 50
277.76201467585759
 51
342.16324832008343
  0
ARC
  8
_0-2_決定
  6
CONTINUOUS
 62
    7
 10
868.49372934411554
 20
773.67000501304483
 40
8.9510397927820318
 50
249.8271373815283
 51
278.95431372557698
  0
ARC
  8
_0-2_決定
  6
CONTINUOUS
 62
    7
 10
871.35320603449964
 20
783.06619322375036
 40
18.765179566112678
 50
223.16855312826067
 51
251.52576639033975
  0
ARC
  8
_0-2_決定
  6
CONTINUOUS
 62
    7
 10
866.39949898838972
 20
786.47105249977335
 40
18.441604130642112
 50
211.09019538565107
 51
241.73661603787019
  0
ARC
  8
_0-2_決定
  6
CONTINUOUS
 62
    7
 10
857.19932542972288
 20
780.48873883884926
 40
7.4830565921657932
 50
176.9411147758716
 51
208.23965111520454
  0
ARC
  8
_0-2_決定
  6
CONTINUOUS
 62
    7
 10
854.00032426827329
 20
780.38381773546803
 40
4.3030391256935427
 50
116.69935146592772
 51
173.27056894334538
  0
ARC
  8
_0-2_決定
  6
CONTINUOUS
 62
    7
 10
856.25141841433992
 20
782.85913971593027
 40
4.4027103684705287
 50
97.104017729693169
 51
161.88502655434488
  0
ARC
  8
_0-2_決定
  6
CONTINUOUS
 62
    7
 10
857.10174104251018
 20
778.26179532815422
 40
9.0740976893308396
 50
69.988809607143082
 51
98.842185838892945
  0
ARC
  8
_0-2_決定
  6
CONTINUOUS
 62
    7
 10
854.50360999906309
 20
769.58522193540819
 40
18.123609346996822
 50
42.494411887682752
 51
71.657893189059749
  0
ARC
  8
_0-2_決定
  6
CONTINUOUS
 62
    7
 10
858.21363358504095
 20
764.04418118547824
 40
20.234925037426418
 50
40.732531720631755
 51
61.506362503878862
  0
ARC
  8
_0-2_決定
  6
CONTINUOUS
 62
    7
 10
865.01409049346705
 20
770.02843663725253
 40
11.177307389438367
 50
15.460700475032205
 51
40.234478369664025
  0
ARC
  8
_0-2_決定
  6
CONTINUOUS
 62
    7
 10
871.1860700891807
 20
771.95913401861105
 40
4.7189140055420697
 50
298.90405609629482
 51
12.842976699158635
  0
ARC
  8
_0-2_決定
  6
CONTINUOUS
 62
    7
 10
815.15658361512783
 20
749.78335405472058
 40
14.40455217734241
 50
342.40084489964499
 51
6.5562822710444086
  0
ARC
  8
_0-2_決定
  6
CONTINUOUS
 62
    7
 10
822.06971499701183
 20
747.75065392943247
 40
7.2020085525552568
 50
324.69157047415985
 51
341.18621725090281
  0
ARC
  8
_0-2_決定
  6
CONTINUOUS
 62
    7
 10
825.37891085061176
 20
745.27723549977281
 40
3.0737714205390039
 50
277.2521593106884
 51
326.6640596359818
  0
ARC
  8
_0-2_決定
  6
CONTINUOUS
 62
    7
 10
825.80037342257037
 20
744.50353758295307
 40
2.2757296382114349
 50
245.78435182352899
 51
269.15803275817569
  0
ARC
  8
_0-2_決定
  6
CONTINUOUS
 62
    7
 10
823.98648790298182
 20
744.4580373146573
 40
2.212694381215305
 50
231.42979779948624
 51
293.44734534517227
  0
ARC
  8
_0-2_決定
  6
CONTINUOUS
 62
    7
 10
825.11266743315991
 20
745.96211543837376
 40
4.0911933350530969
 50
212.10012322897083
 51
232.23165473842127
  0
ARC
  8
_0-2_決定
  6
CONTINUOUS
 62
    7
 10
827.81739231130723
 20
747.62314587486173
 40
7.2651569822627788
 50
196.9255129558525
 51
211.86196581645342
  0
ARC
  8
_0-2_決定
  6
CONTINUOUS
 62
    7
 10
833.10825983848508
 20
749.30868387982912
 40
12.817756584621598
 50
170.48264245330967
 51
197.24827988638728
  0
ARC
  8
_0-2_決定
  6
CONTINUOUS
 62
    7
 10
834.90912468739452
 20
753.54657896480876
 40
14.596748377714732
 50
164.7415607737282
 51
188.34520088219304
  0
ARC
  8
_0-2_決定
  6
CONTINUOUS
 62
    7
 10
826.46785291414767
 20
755.82650648372783
 40
5.853068607821573
 50
129.72759523283466
 51
164.5265868370347
  0
ARC
  8
_0-2_決定
  6
CONTINUOUS
 62
    7
 10
823.88230406836669
 20
758.55110317064305
 40
2.1195368310291793
 50
62.318969114727615
 51
123.03188419732517
  0
ARC
  8
_0-2_決定
  6
CONTINUOUS
 62
    7
 10
825.8506670950436
 20
758.53102507533117
 40
2.1369256179627452
 50
55.307909550514282
 51
117.40971993368794
  0
ARC
  8
_0-2_決定
  6
CONTINUOUS
 62
    7
 10
824.91505135261355
 20
757.1990100839372
 40
3.7646756685270653
 50
33.70428549248949
 51
55.138263376320523
  0
ARC
  8
_0-2_決定
  6
CONTINUOUS
 62
    7
 10
822.09822719090562
 20
755.29116395066944
 40
7.166744224714277
 50
18.692728123632019
 51
33.896852017510902
  0
ARC
  8
_0-2_決定
  6
CONTINUOUS
 62
    7
 10
815.86960042317378
 20
753.25509056776218
 40
13.719530051929889
 50
352.34715696752988
 51
18.410592505841713
  0
ARC
  8
_0-2_決定
  6
CONTINUOUS
 62
    7
 10
762.70354291109186
 20
758.40291495949077
 40
6.4675569007978115
 50
281.62628885229276
 51
317.43456161224134
  0
ARC
  8
_0-2_決定
  6
CONTINUOUS
 62
    7
 10
761.71702935608869
 20
762.56900721474165
 40
10.74772916698641
 50
255.83519374632942
 51
282.30169305751753
  0
ARC
  8
_0-2_決定
  6
CONTINUOUS
 62
    7
 10
763.29637519510675
 20
770.91266846485041
 40
19.230969196650406
 50
237.86435526398458
 51
257.35622817295905
  0
ARC
  8
_0-2_決定
  6
CONTINUOUS
 62
    7
 10
766.51623788625841
 20
776.72712743895443
 40
25.869922226626105
 50
227.58453725938227
 51
238.67566744892645
  0
ARC
  8
_0-2_決定
  6
CONTINUOUS
 62
    7
 10
765.11280901779969
 20
775.47826583212952
 40
24.002087956772037
 50
201.27802928008026
 51
228.04705777860002
  0
ARC
  8
_0-2_決定
  6
CONTINUOUS
 62
    7
 10
754.45482701201763
 20
770.96957454805022
 40
12.438953755021716
 50
175.95021565643003
 51
199.74114428640763
  0
ARC
  8
_0-2_決定
  6
CONTINUOUS
 62
    7
 10
748.90899767453675
 20
771.1443090891936
 40
6.8980572763021435
 50
139.45833977273179
 51
174.14445724755424
  0
ARC
  8
_0-2_決定
  6
CONTINUOUS
 62
    7
 10
748.29956780761995
 20
771.37005073159787
 40
6.2922079839924949
 50
101.85492293934628
 51
137.41290663500914
  0
ARC
  8
_0-2_決定
  6
CONTINUOUS
 62
    7
 10
749.29020495686416
 20
767.27598656078897
 40
10.503245766571943
 50
75.573659923698997
 51
102.55562368478799
  0
ARC
  8
_0-2_決定
  6
CONTINUOUS
 62
    7
 10
747.52920657664959
 20
758.49149615569161
 40
19.455474324703474
 50
57.763919054535513
 51
76.99638359610033
  0
ARC
  8
_0-2_決定
  6
CONTINUOUS
 62
    7
 10
743.99397334570517
 20
752.06410805155213
 40
26.781437607627478
 50
47.558929096413408
 51
58.701275611896044
  0
ARC
  8
_0-2_決定
  6
CONTINUOUS
 62
    7
 10
746.04309349044172
 20
753.96000903543086
 40
24.000634092402958
 50
21.017866510211643
 51
48.114642204222655
  0
ARC
  8
_0-2_決定
  6
CONTINUOUS
 62
    7
 10
757.11248469753377
 20
758.62414212391297
 40
12.001006054187508
 50
354.95144136068018
 51
19.185748873328812
  0
ARC
  8
_0-2_決定
  6
CONTINUOUS
 62
    7
 10
762.67041869898776
 20
758.32755144354928
 40
6.441445981810392
 50
318.12759415762577
 51
353.22861938693546
  0
ARC
  8
_0-2_決定
  6
CONTINUOUS
 62
    7
 10
1234.4696407749896
 20
538.11735314913756
 40
6.0339779766651542
 50
235.44200763358606
 51
308.99976046286412
  0
ARC
  8
_0-2_決定
  6
CONTINUOUS
 62
    7
 10
1237.7651857160665
 20
543.87030267988325
 40
12.653125599011211
 50
214.255508933443
 51
237.92989613786597
  0
ARC
  8
_0-2_決定
  6
CONTINUOUS
 62
    7
 10
1246.957248345577
 20
550.67207812199865
 40
24.083470436093361
 50
187.26130374356103
 51
215.32100669590108
  0
ARC
  8
_0-2_決定
  6
CONTINUOUS
 62
    7
 10
1247.5052374761835
 20
558.36964953385382
 40
26.69480998082344
 50
177.98545896377371
 51
203.72736773234914
  0
ARC
  8
_0-2_決定
  6
CONTINUOUS
 62
    7
 10
1234.4216582995884
 20
558.5085730615308
 40
13.618219551656036
 50
154.14199283216578
 51
176.63441087091974
  0
ARC
  8
_0-2_決定
  6
CONTINUOUS
 62
    7
 10
1227.8017752076412
 20
561.473092104432
 40
6.3719641818155868
 50
85.813702736283432
 51
152.16782689740381
  0
ARC
  8
_0-2_決定
  6
CONTINUOUS
 62
    7
 10
1231.9711789252162
 20
563.03732603607091
 40
6.0557886327308319
 50
54.510072193452984
 51
127.7116463724475
  0
ARC
  8
_0-2_決定
  6
CONTINUOUS
 62
    7
 10
1228.5000744552119
 20
557.21773158402448
 40
12.821293612051788
 50
32.719886143411237
 51
56.979349300442017
  0
ARC
  8
_0-2_決定
  6
CONTINUOUS
 62
    7
 10
1219.688997281447
 20
550.7731385555918
 40
23.726930671987326
 50
6.4245466009593253
 51
34.312200916409864
  0
ARC
  8
_0-2_決定
  6
CONTINUOUS
 62
    7
 10
1220.1022599189273
 20
542.59208385945362
 40
25.57381419136599
 50
358.46731491384253
 51
25.069262950205189
  0
ARC
  8
_0-2_決定
  6
CONTINUOUS
 62
    7
 10
1232.3925323179933
 20
542.62295717660083
 40
13.293629049979055
 50
334.06060647910363
 51
356.91727452054471
  0
ARC
  8
_0-2_決定
  6
CONTINUOUS
 62
    7
 10
1238.731340181648
 20
539.75105976715759
 40
6.3400363555580803
 50
265.79926784212421
 51
332.34195624004923
  0
ARC
  8
_0-2_決定
  6
CONTINUOUS
 62
    7
 10
1296.3621222655681
 20
521.87371788182236
 40
1.0499867104152276
 50
220.76967880447378
 51
264.79809808095098
  0
ARC
  8
_0-2_決定
  6
CONTINUOUS
 62
    7
 10
1297.7823543432633
 20
523.19519383845261
 40
2.9894368774823192
 50
198.47122146952665
 51
222.17599225551623
  0
ARC
  8
_0-2_決定
  6
CONTINUOUS
 62
    7
 10
1300.1154822713781
 20
523.97310968119609
 40
5.448834765382121
 50
179.42222033795412
 51
198.45690966832817
  0
ARC
  8
_0-2_決定
  6
CONTINUOUS
 62
    7
 10
1298.9800778210006
 20
524.1913415020008
 40
4.3162429731966814
 50
138.91192695083427
 51
182.16804817861436
  0
ARC
  8
_0-2_決定
  6
CONTINUOUS
 62
    7
 10
1296.280981784216
 20
526.36110112603114
 40
0.8670684896400529
 50
90.928940992268579
 51
129.71733266704157
  0
ARC
  8
_0-2_決定
  6
CONTINUOUS
 62
    7
 10
1296.2410156365879
 20
526.10159140499934
 40
1.1267621684796103
 50
42.862091985544666
 51
88.682417378609628
  0
ARC
  8
_0-2_決定
  6
CONTINUOUS
 62
    7
 10
1295.1725251714108
 20
525.18542742848081
 40
2.5337692800011151
 50
16.099455843166691
 51
41.611866596239665
  0
ARC
  8
_0-2_決定
  6
CONTINUOUS
 62
    7
 10
1291.842714768999
 20
524.13413386026991
 40
6.0251436558788427
 50
358.99120291753724
 51
16.923847536302759
  0
ARC
  8
_0-2_決定
  6
CONTINUOUS
 62
    7
 10
1292.3031114086475
 20
523.86973665195922
 40
5.5660651795130907
 50
339.80297556357266
 51
1.6299188259088691
  0
ARC
  8
_0-2_決定
  6
CONTINUOUS
 62
    7
 10
1295.9729356179103
 20
522.4275432065723
 40
1.6262810063151867
 50
280.41483237287059
 51
342.85224630024857
  0
ARC
  8
_0-2_決定
  6
CONTINUOUS
 62
    7
 10
1325.5621222655693
 20
498.87371988182309
 40
1.0499867104162055
 50
220.76967880446051
 51
264.79809808093773
  0
ARC
  8
_0-2_決定
  6
CONTINUOUS
 62
    7
 10
1326.9823543432622
 20
500.19519583845397
 40
2.9894368774819724
 50
198.47122146956124
 51
222.17599225555082
  0
ARC
  8
_0-2_決定
  6
CONTINUOUS
 62
    7
 10
1329.3154822713789
 20
500.97311168119609
 40
5.4488347653833946
 50
179.42222033795201
 51
198.45690966832606
  0
ARC
  8
_0-2_決定
  6
CONTINUOUS
 62
    7
 10
1328.1800778210006
 20
501.19134350199954
 40
4.3162429731971965
 50
138.91192695081497
 51
182.16804817859509
  0
ARC
  8
_0-2_決定
  6
CONTINUOUS
 62
    7
 10
1325.4809817842167
 20
503.36110312603131
 40
0.8670684896400529
 50
90.928940992268579
 51
129.71733266704157
  0
ARC
  8
_0-2_決定
  6
CONTINUOUS
 62
    7
 10
1325.4410156365875
 20
503.10159340500064
 40
1.1267621684785032
 50
42.862091985488803
 51
88.682417378553765
  0
ARC
  8
_0-2_決定
  6
CONTINUOUS
 62
    7
 10
1324.3725251714111
 20
502.18542942847932
 40
2.533769280001736
 50
16.099455843192189
 51
41.611866596265166
  0
ARC
  8
_0-2_決定
  6
CONTINUOUS
 62
    7
 10
1321.0427147690004
 20
501.13413586026991
 40
6.0251436558774882
 50
358.99120291753906
 51
16.92384753630456
  0
ARC
  8
_0-2_決定
  6
CONTINUOUS
 62
    7
 10
1321.5031114086466
 20
500.86973865196069
 40
5.5660651795144442
 50
339.8029755635593
 51
1.6299188258954886
  0
ARC
  8
_0-2_決定
  6
CONTINUOUS
 62
    7
 10
1325.1729356179103
 20
499.4275452065711
 40
1.6262810063143673
 50
280.41483237289623
 51
342.85224630027426
  0
ARC
  8
_0-2_決定
  6
CONTINUOUS
 62
    7
 10
1223.6412842495806
 20
503.21854756822631
 40
9.1742416776056785
 50
227.19149649848822
 51
286.6304244079725
  0
ARC
  8
_0-2_決定
  6
CONTINUOUS
 62
    7
 10
1225.5377314028792
 20
506.00950353287232
 40
12.520699625249595
 50
198.54135705546705
 51
229.5044476150415
  0
ARC
  8
_0-2_決定
  6
CONTINUOUS
 62
    7
 10
1225.5328255370832
 20
505.98190440011649
 40
12.507296383625189
 50
149.40308998862952
 51
198.42863456830852
  0
ARC
  8
_0-2_決定
  6
CONTINUOUS
 62
    7
 10
1222.0906285259125
 20
507.52723413744275
 40
8.7679490622139724
 50
108.78683501452259
 51
146.6451176766449
  0
ARC
  8
_0-2_決定
  6
CONTINUOUS
 62
    7
 10
1221.916780831672
 20
506.89897666523729
 40
9.3139776339336269
 50
47.519073740106599
 51
106.52914089663193
  0
ARC
  8
_0-2_決定
  6
CONTINUOUS
 62
    7
 10
1220.5771683468313
 20
504.74846810808202
 40
11.813812670240173
 50
17.129687679931969
 51
49.771788672943629
  0
ARC
  8
_0-2_決定
  6
CONTINUOUS
 62
    7
 10
1220.0766471957829
 20
504.24541170199183
 40
12.444763562828356
 50
329.38687305366915
 51
18.664478074487551
  0
ARC
  8
_0-2_決定
  6
CONTINUOUS
 62
    7
 10
1223.2583760750972
 20
503.01111747024947
 40
9.0950696373549782
 50
289.31668147908863
 51
325.86949426392903
  0
ARC
  8
_0-2_決定
  6
CONTINUOUS
 62
    7
 10
1148.4745234898444
 20
499.37644705466397
 40
4.0301354378251357
 50
258.44026149175784
 51
304.32266400497417
  0
ARC
  8
_0-2_決定
  6
CONTINUOUS
 62
    7
 10
1146.2551718704808
 20
503.40056733073851
 40
8.6159885443470312
 50
301.42136245859314
 51
315.56072466039291
  0
ARC
  8
_0-2_決定
  6
CONTINUOUS
 62
    7
 10
1140.9162553753786
 20
508.54090063309127
 40
16.027100305530727
 50
315.80345089821844
 51
337.34692673656747
  0
ARC
  8
_0-2_決定
  6
CONTINUOUS
 62
    7
 10
1133.1767680573078
 20
512.47573008004667
 40
24.693583853239168
 50
335.83763380197252
 51
345.34442261801911
  0
ARC
  8
_0-2_決定
  6
CONTINUOUS
 62
    7
 10
1134.6427178991487
 20
512.14843980006572
 40
23.19258627970914
 50
345.21038830382071
 51
4.4007511970586712
  0
ARC
  8
_0-2_決定
  6
CONTINUOUS
 62
    7
 10
1146.3567731172307
 20
512.97877767825184
 40
11.449573356591028
 50
4.7558215347937445
 51
29.449636403326156
  0
ARC
  8
_0-2_決定
  6
CONTINUOUS
 62
    7
 10
1152.610481380872
 20
516.30631605168344
 40
4.3714951573715997
 50
31.77155000923149
 51
70.538786677311251
  0
ARC
  8
_0-2_決定
  6
CONTINUOUS
 62
    7
 10
1153.2593296107191
 20
516.47966626064385
 40
4.0301354378250283
 50
78.440261491750235
 51
124.3226640049665
  0
ARC
  8
_0-2_決定
  6
CONTINUOUS
 62
    7
 10
1155.4786812300849
 20
512.45554598456931
 40
8.6159885443481095
 50
121.42136245860216
 51
135.56072466040192
  0
ARC
  8
_0-2_決定
  6
CONTINUOUS
 62
    7
 10
1160.8175977251856
 20
507.31521268221627
 40
16.027100305530727
 50
135.80345089821841
 51
157.34692673656744
  0
ARC
  8
_0-2_決定
  6
CONTINUOUS
 62
    7
 10
1168.5570850432564
 20
503.38038323526087
 40
24.693583853239168
 50
155.83763380197252
 51
165.34442261801914
  0
ARC
  8
_0-2_決定
  6
CONTINUOUS
 62
    7
 10
1167.9829724729129
 20
503.43922554351514
 40
24.123424625204137
 50
165.13463535292618
 51
183.59154106947389
  0
ARC
  8
_0-2_決定
  6
CONTINUOUS
 62
    7
 10
1154.876322130207
 20
502.70095118831597
 40
10.99659055337716
 50
184.03034724207717
 51
209.72722053328116
  0
ARC
  8
_0-2_決定
  6
CONTINUOUS
 62
    7
 10
1149.0257798037428
 20
499.5894404121027
 40
4.3776236240073256
 50
212.33390601615784
 51
251.91612668163611
  0
ARC
  8
_0-2_決定
  6
CONTINUOUS
 62
    7
 10
1080.076788065152
 20
499.63791717252315
 40
5.014253022605307
 50
182.39867783168751
 51
267.60132216830493
  0
ARC
  8
_0-2_決定
  6
CONTINUOUS
 62
    7
 10
1080.2254712807601
 20
499.27985663639527
 40
5.1606711428713634
 50
93.983890311373287
 51
178.35438834445293
  0
ARC
  8
_0-2_決定
  6
CONTINUOUS
 62
    7
 10
1079.7022253821578
 20
499.26335448952949
 40
5.1673287052810686
 50
1.8265520849446315
 51
88.173447915055363
  0
ARC
  8
_0-2_決定
  6
CONTINUOUS
 62
    7
 10
1079.8446652819573
 20
499.65541522882506
 40
5.0274068665195468
 50
270.25372831684911
 51
357.40799302733222
  0
ARC
  8
_0-2_決定
  6
CONTINUOUS
 62
    7
 10
978.42376670985595
 20
523.58963033052544
 40
2.56193827973404
 50
183.61589304638764
 51
270.96532703889778
  0
ARC
  8
_0-2_決定
  6
CONTINUOUS
 62
    7
 10
978.21871995830543
 20
523.28502944817114
 40
2.3561365247907977
 50
83.952922171137686
 51
176.51979444739567
  0
ARC
  8
_0-2_決定
  6
CONTINUOUS
 62
    7
 10
978.45550255834632
 20
523.20650003008791
 40
2.4215825839082288
 50
5.2494511744374286
 51
89.72965466955354
  0
ARC
  8
_0-2_決定
  6
CONTINUOUS
 62
    7
 10
978.43382323911533
 20
523.4611609688202
 40
2.4333305194431523
 50
270.77952958439926
 51
359.22047041561427
  0
ARC
  8
_0-2_決定
  6
CONTINUOUS
 62
    7
 10
923.09283946397636
 20
503.95452191030762
 40
1.1267621684792066
 50
222.86209198549983
 51
268.68241737856476
  0
ARC
  8
_0-2_決定
  6
CONTINUOUS
 62
    7
 10
924.161329929153
 20
504.87068588682826
 40
2.5337692800015956
 50
196.09945584319394
 51
221.61186659626691
  0
ARC
  8
_0-2_決定
  6
CONTINUOUS
 62
    7
 10
927.49114033156525
 20
505.9219794550379
 40
6.0251436558790683
 50
178.99120291753695
 51
196.92384753630247
  0
ARC
  8
_0-2_決定
  6
CONTINUOUS
 62
    7
 10
927.03073850555688
 20
506.18637566334701
 40
5.5660599668086004
 50
159.80296679246953
 51
181.62991005480572
  0
ARC
  8
_0-2_決定
  6
CONTINUOUS
 62
    7
 10
923.36091948265357
 20
507.62856810873581
 40
1.6262810063148225
 50
100.41483237288521
 51
162.8522463002632
  0
ARC
  8
_0-2_決定
  6
CONTINUOUS
 62
    7
 10
922.97173283499569
 20
508.18239343348523
 40
1.0499867104152714
 50
40.769678804469173
 51
84.798098080946374
  0
ARC
  8
_0-2_決定
  6
CONTINUOUS
 62
    7
 10
921.55150075730171
 20
506.8609174768539
 40
2.9894368774819724
 50
18.471221469561254
 51
42.175992255550817
  0
ARC
  8
_0-2_決定
  6
CONTINUOUS
 62
    7
 10
919.21837879385771
 20
506.08300263410848
 40
5.4488287909309916
 50
359.42223022023347
 51
18.456919550607516
  0
ARC
  8
_0-2_決定
  6
CONTINUOUS
 62
    7
 10
920.35377727956438
 20
505.86477181330849
 40
4.3162429731971965
 50
318.91192695081497
 51
2.1680481785950594
  0
ARC
  8
_0-2_決定
  6
CONTINUOUS
 62
    7
 10
923.05287331634736
 20
503.69501218927729
 40
0.8670684896411157
 50
270.92894099229534
 51
309.71733266706838
  0
ARC
  8
_0-2_決定
  6
CONTINUOUS
 62
    7
 10
793.96213026556916
 20
531.67371788182231
 40
1.0499867104154879
 50
220.76967880444616
 51
264.79809808092335
  0
ARC
  8
_0-2_決定
  6
CONTINUOUS
 62
    7
 10
795.38236234326268
 20
532.99519383845325
 40
2.9894368774816233
 50
198.47122146954982
 51
222.17599225553937
  0
ARC
  8
_0-2_決定
  6
CONTINUOUS
 62
    7
 10
797.71549027137917
 20
533.77310968119946
 40
5.4488347653841407
 50
179.42222033798737
 51
198.45690966836142
  0
ARC
  8
_0-2_決定
  6
CONTINUOUS
 62
    7
 10
796.58008582100047
 20
533.99134150199961
 40
4.3162429731971965
 50
138.91192695081497
 51
182.16804817859509
  0
ARC
  8
_0-2_決定
  6
CONTINUOUS
 62
    7
 10
793.88098978421658
 20
536.16110112603087
 40
0.8670684896404541
 50
90.928940992258759
 51
129.71733266703177
  0
ARC
  8
_0-2_決定
  6
CONTINUOUS
 62
    7
 10
793.84102363658803
 20
535.90159140499952
 40
1.1267621684795395
 50
42.862091985507419
 51
88.682417378572367
  0
ARC
  8
_0-2_決定
  6
CONTINUOUS
 62
    7
 10
792.77253317141174
 20
534.98542742847997
 40
2.5337692800012848
 50
16.099455843181197
 51
41.611866596254174
  0
ARC
  8
_0-2_決定
  6
CONTINUOUS
 62
    7
 10
789.44272276900074
 20
533.93413386026987
 40
6.0251436558774882
 50
358.99120291753906
 51
16.92384753630456
  0
ARC
  8
_0-2_決定
  6
CONTINUOUS
 62
    7
 10
789.90311940864808
 20
533.66973665196019
 40
5.5660651795132123
 50
339.80297556356504
 51
1.6299188259012429
  0
ARC
  8
_0-2_決定
  6
CONTINUOUS
 62
    7
 10
793.57294361791048
 20
532.22754320657202
 40
1.6262810063152553
 50
280.41483237288782
 51
342.85224630026579
  0
ARC
  8
_0-2_決定
  6
CONTINUOUS
 62
    7
 10
823.33299988974545
 20
508.64376085645983
 40
1.2174990857276589
 50
224.65518107338349
 51
266.88932829065067
  0
ARC
  8
_0-2_決定
  6
CONTINUOUS
 62
    7
 10
824.54292182990685
 20
509.85487225035376
 40
2.9294133059324845
 50
200.93734561328259
 51
224.87314023274189
  0
ARC
  8
_0-2_決定
  6
CONTINUOUS
 62
    7
 10
826.43349739706423
 20
510.61411722243571
 40
4.9665844055308987
 50
179.83920245904747
 51
201.32406858280351
  0
ARC
  8
_0-2_決定
  6
CONTINUOUS
 62
    7
 10
826.07870430602134
 20
510.75950291694454
 40
4.6136446665306003
 50
139.95201131560484
 51
181.63263385395567
  0
ARC
  8
_0-2_決定
  6
CONTINUOUS
 62
    7
 10
823.30770327751657
 20
512.91620591229287
 40
1.1125970108078402
 50
92.100053926274526
 51
133.13967596988343
  0
ARC
  8
_0-2_決定
  6
CONTINUOUS
 62
    7
 10
823.19449470756786
 20
513.15038838171733
 40
0.8806515135436742
 50
36.002678322879945
 51
85.281814591554436
  0
ARC
  8
_0-2_決定
  6
CONTINUOUS
 62
    7
 10
821.31062256583982
 20
511.79517741913469
 40
3.201327604546738
 50
13.234053495366124
 51
35.805231881060209
  0
ARC
  8
_0-2_決定
  6
CONTINUOUS
 62
    7
 10
817.43253284325931
 20
510.67939464203084
 40
7.2345818685181644
 50
359.59340679650342
 51
14.805060480215193
  0
ARC
  8
_0-2_決定
  6
CONTINUOUS
 62
    7
 10
818.7012158589439
 20
510.58942970038709
 40
5.9658417349012609
 50
339.99043350217516
 51
0.3709652202771094
  0
ARC
  8
_0-2_決定
  6
CONTINUOUS
 62
    7
 10
822.78161436759979
 20
508.92156539871587
 40
1.5703837381635879
 50
288.00164653603355
 51
346.24054625727933
  0
ARC
  8
_0-2_決定
  6
CONTINUOUS
 62
    7
 10
1034.0365060554293
 20
528.9865769256719
 40
11.605252349003885
 50
66.484715560040485
 51
81.624492638105792
  0
ARC
  8
_0-2_決定
  6
CONTINUOUS
 62
    7
 10
1035.0672491459486
 20
537.00627997177469
 40
3.5240697802181016
 50
79.211013617260093
 51
105.13847461195971
  0
ARC
  8
_0-2_決定
  6
CONTINUOUS
 62
    7
 10
1034.3585692431261
 20
539.64756215090392
 40
0.7893935372653642
 50
105.55155988060224
 51
151.18341088913471
  0
ARC
  8
_0-2_決定
  6
CONTINUOUS
 62
    7
 10
1034.4171442633931
 20
539.7516041029287
 40
0.7995305361948539
 50
159.77135530695818
 51
210.31354683143391
  0
ARC
  8
_0-2_決定
  6
CONTINUOUS
 62
    7
 10
1036.733578839144
 20
541.03076304221031
 40
3.4454970761201014
 50
209.23407385828435
 51
230.60671042164361
  0
ARC
  8
_0-2_決定
  6
CONTINUOUS
 62
    7
 10
1041.2990286814827
 20
546.37905128012881
 40
10.476970318039228
 50
229.87399991801172
 51
248.54538270597635
  0
ARC
  8
_0-2_決定
  6
CONTINUOUS
 62
    7
 10
1042.1800087079364
 20
547.55883620944871
 40
11.903574591019927
 50
246.67549858864635
 51
261.43370960952115
  0
ARC
  8
_0-2_決定
  6
CONTINUOUS
 62
    7
 10
1041.159710823222
 20
539.93980905772116
 40
4.2194475284593445
 50
259.7229686954542
 51
282.97280586494128
  0
ARC
  8
_0-2_決定
  6
CONTINUOUS
 62
    7
 10
1041.9378077890362
 20
536.65682472339779
 40
0.8458486839963959
 50
281.53357315667301
 51
329.54178242729773
  0
ARC
  8
_0-2_決定
  6
CONTINUOUS
 62
    7
 10
1041.4051543747714
 20
536.3878756168375
 40
1.2718555300580285
 50
352.78119234255939
 51
33.402593786107538
  0
ARC
  8
_0-2_決定
  6
CONTINUOUS
 62
    7
 10
1039.1061564510446
 20
534.85731325454037
 40
4.0337328582914411
 50
33.574572446094734
 51
54.178822125767873
  0
ARC
  8
_0-2_決定
  6
CONTINUOUS
 62
    7
 10
1034.9871406936686
 20
529.39578499197592
 40
10.873831047306815
 50
53.422710321222425
 51
70.220109458855035
  0
ARC
  8
_0-2_決定
  6
CONTINUOUS
 62
    7
 10
872.44128824958034
 20
501.41854756822562
 40
9.1742416776047282
 50
227.19149649849004
 51
286.63042440797432
  0
ARC
  8
_0-2_決定
  6
CONTINUOUS
 62
    7
 10
874.33773540287893
 20
504.20950353287367
 40
12.520699625250487
 50
198.5413570554731
 51
229.50444761504755
  0
ARC
  8
_0-2_決定
  6
CONTINUOUS
 62
    7
 10
874.33282953708294
 20
504.18190440011631
 40
12.507296383625189
 50
149.40308998862952
 51
198.42863456830852
  0
ARC
  8
_0-2_決定
  6
CONTINUOUS
 62
    7
 10
870.89063252591268
 20
505.72723413744222
 40
8.7679490622143863
 50
108.78683501452143
 51
146.64511767664374
  0
ARC
  8
_0-2_決定
  6
CONTINUOUS
 62
    7
 10
870.7167848316717
 20
505.09897666523733
 40
9.3139776339333462
 50
47.519073740106201
 51
106.52914089663153
  0
ARC
  8
_0-2_決定
  6
CONTINUOUS
 62
    7
 10
869.37717576190664
 20
502.94846910808099
 40
11.813809701191936
 50
17.129697193020277
 51
49.771798186031937
  0
ARC
  8
_0-2_決定
  6
CONTINUOUS
 62
    7
 10
868.87664901549613
 20
502.44541270199261
 40
12.44476594847715
 50
329.38687420310663
 51
18.664479223925039
  0
ARC
  8
_0-2_決定
  6
CONTINUOUS
 62
    7
 10
872.05838007509692
 20
501.21111747024975
 40
9.0950696373549782
 50
289.31668147908863
 51
325.86949426392903
  0
ARC
  8
_0-2_決定
  6
CONTINUOUS
 62
    7
 10
1045.1573601314865
 20
508.21004002230387
 40
2.9833532633536777
 50
188.51974277907701
 51
268.26298085957774
  0
ARC
  8
_0-2_決定
  6
CONTINUOUS
 62
    7
 10
1047.5096819153409
 20
508.9950282537697
 40
5.4428535716354425
 50
179.65232530343889
 51
193.02805818834122
  0
ARC
  8
_0-2_決定
  6
CONTINUOUS
 62
    7
 10
1046.47605356907
 20
509.08398097500907
 40
4.4094796827315346
 50
136.700489391936
 51
180.72670038074344
  0
ARC
  8
_0-2_決定
  6
CONTINUOUS
 62
    7
 10
1045.0810794880736
 20
510.18267831317769
 40
2.6454151930667957
 50
90.306489839637905
 51
133.29632913307739
  0
ARC
  8
_0-2_決定
  6
CONTINUOUS
 62
    7
 10
1044.9834279762981
 20
510.32840627846184
 40
2.5010436551071029
 50
29.186644746514531
 51
88.086750825558084
  0
ARC
  8
_0-2_決定
  6
CONTINUOUS
 62
    7
 10
1043.256495386386
 20
509.10460200101613
 40
4.6110685639485007
 50
359.04881399743812
 51
31.999407996068097
  0
ARC
  8
_0-2_決定
  6
CONTINUOUS
 62
    7
 10
1043.3825119359087
 20
508.91969966276849
 40
4.4857255146621817
 50
317.82606756875919
 51
1.3841562732367549
  0
ARC
  8
_0-2_決定
  6
CONTINUOUS
 62
    7
 10
1045.0246331824335
 20
507.64771119187753
 40
2.4200231659682614
 50
271.00142407399397
 51
314.03970713180723
  0
ARC
  8
_0-2_決定
  6
CONTINUOUS
 62
    7
 10
982.52975108191913
 20
500.56894466185832
 40
0.9429819855977761
 50
218.02539717202592
 51
266.18006076609583
  0
ARC
  8
_0-2_決定
  6
CONTINUOUS
 62
    7
 10
984.17700891598565
 20
501.85809784050542
 40
3.034721476511975
 50
195.08986192432886
 51
218.04024042980603
  0
ARC
  8
_0-2_決定
  6
CONTINUOUS
 62
    7
 10
991.42336033870697
 20
503.89465388537633
 40
10.561695421618506
 50
178.19102878010298
 51
195.52311588810025
  0
ARC
  8
_0-2_決定
  6
CONTINUOUS
 62
    7
 10
992.01842985270309
 20
504.48348568033219
 40
11.154426241303263
 50
165.75598204000983
 51
181.31214521387614
  0
ARC
  8
_0-2_決定
  6
CONTINUOUS
 62
    7
 10
984.15054832171131
 20
506.58642746248813
 40
3.0127369781616458
 50
139.87381184272465
 51
167.70343212160299
  0
ARC
  8
_0-2_決定
  6
CONTINUOUS
 62
    7
 10
982.50149716788678
 20
507.9659471812713
 40
0.8628012600674955
 50
92.29620223054529
 51
139.34578171785836
  0
ARC
  8
_0-2_決定
  6
CONTINUOUS
 62
    7
 10
982.38053903990726
 20
507.79226500641721
 40
1.0393870408526527
 50
39.119493328199738
 51
85.232313903281963
  0
ARC
  8
_0-2_決定
  6
CONTINUOUS
 62
    7
 10
980.68482991975111
 20
506.31305461135412
 40
3.2891833370317132
 50
18.340778005278636
 51
40.473600116201418
  0
ARC
  8
_0-2_決定
  6
CONTINUOUS
 62
    7
 10
975.14176829498092
 20
504.47658988189391
 40
9.1285441309892015
 50
358.43988185742381
 51
18.334193499559774
  0
ARC
  8
_0-2_決定
  6
CONTINUOUS
 62
    7
 10
974.40115049733413
 20
504.09233107458027
 40
9.866711625227099
 50
344.45474214373712
 51
0.7881861709387388
  0
ARC
  8
_0-2_決定
  6
CONTINUOUS
 62
    7
 10
980.25985096968134
 20
502.36337759175575
 40
3.7601842322804426
 50
321.60603015207903
 51
345.91127054352336
  0
ARC
  8
_0-2_決定
  6
CONTINUOUS
 62
    7
 10
982.394042279112
 20
500.64739725931764
 40
1.0219420884008148
 50
274.08988369171823
 51
322.69615515108416
  0
ARC
  8
_0-2_決定
  6
CONTINUOUS
 62
    7
 10
774.91193679681965
 20
518.91810497619826
 40
15.589149304096757
 50
253.27966863506185
 51
276.46394928122459
  0
ARC
  8
_0-2_決定
  6
CONTINUOUS
 62
    7
 10
771.99240332320505
 20
509.09247458596184
 40
5.3390795947305634
 50
216.61503771906033
 51
252.94977634457013
  0
ARC
  8
_0-2_決定
  6
CONTINUOUS
 62
    7
 10
769.66525774858974
 20
507.00538358340214
 40
2.2448077355633997
 50
152.89824120501871
 51
209.26360920731051
  0
ARC
  8
_0-2_決定
  6
CONTINUOUS
 62
    7
 10
769.51853319709357
 20
509.00364093721669
 40
2.092890726476472
 50
144.8668142946438
 51
207.78418666372082
  0
ARC
  8
_0-2_決定
  6
CONTINUOUS
 62
    7
 10
770.68986300369579
 20
508.07791386046495
 40
3.584521177974997
 50
121.68809338331667
 51
143.54001855591261
  0
ARC
  8
_0-2_決定
  6
CONTINUOUS
 62
    7
 10
772.67902398577121
 20
505.10611135723826
 40
7.1593927984220196
 50
107.66135597590174
 51
122.74089131504034
  0
ARC
  8
_0-2_決定
  6
CONTINUOUS
 62
    7
 10
774.72602420083206
 20
498.14444652288336
 40
14.414874787380768
 50
82.26183720055495
 51
107.01907932797202
  0
ARC
  8
_0-2_決定
  6
CONTINUOUS
 62
    7
 10
778.40882307946458
 20
497.3812634873056
 40
15.14728151297483
 50
73.278757240870448
 51
96.603446671152867
  0
ARC
  8
_0-2_決定
  6
CONTINUOUS
 62
    7
 10
780.61476957396144
 20
505.24568163887113
 40
6.9823304191398314
 50
55.327291128073988
 51
72.04741188235424
  0
ARC
  8
_0-2_決定
  6
CONTINUOUS
 62
    7
 10
783.0291712766907
 20
508.59245641969414
 40
2.8575366829516491
 50
6.7445851459658961
 51
56.965679618929755
  0
ARC
  8
_0-2_決定
  6
CONTINUOUS
 62
    7
 10
783.58857963884952
 20
508.96213408241624
 40
2.2786077609073629
 50
335.7993213226564
 51
359.14306325906551
  0
ARC
  8
_0-2_決定
  6
CONTINUOUS
 62
    7
 10
783.45972496551497
 20
507.10956631801412
 40
2.390687764909158
 50
322.91722473917747
 51
22.593749407541939
  0
ARC
  8
_0-2_決定
  6
CONTINUOUS
 62
    7
 10
782.18596876192464
 20
508.11516350729892
 40
4.0133349800643154
 50
301.90275341407443
 51
322.42902455330238
  0
ARC
  8
_0-2_決定
  6
CONTINUOUS
 62
    7
 10
780.38272422347006
 20
510.89610556029663
 40
7.327438013222757
 50
287.50660197406512
 51
302.38120855280613
  0
ARC
  8
_0-2_決定
  6
CONTINUOUS
 62
    7
 10
778.54280302081656
 20
517.03898852106352
 40
13.739589840702859
 50
262.15288033965322
 51
287.11804651415218
  0
ARC
  8
_0-2_決定
  6
CONTINUOUS
 62
    7
 10
759.84179385211917
 20
538.79144529684459
 40
6.467556900797784
 50
191.62628885229233
 51
227.43456161224091
  0
ARC
  8
_0-2_決定
  6
CONTINUOUS
 62
    7
 10
764.00788610737038
 20
539.77795885184798
 40
10.747729166986717
 50
165.83519374633065
 51
192.30169305751875
  0
ARC
  8
_0-2_決定
  6
CONTINUOUS
 62
    7
 10
772.35154735747665
 20
538.19861301283072
 40
19.230969196648214
 50
147.8643552639856
 51
167.35622817296004
  0
ARC
  8
_0-2_決定
  6
CONTINUOUS
 62
    7
 10
778.16600633158373
 20
534.97875032167701
 40
25.869922226627317
 50
137.58453725938276
 51
148.67566744892693
  0
ARC
  8
_0-2_決定
  6
CONTINUOUS
 62
    7
 10
776.9171447247586
 20
536.38217919013607
 40
24.002087956773078
 50
111.27802928008121
 51
138.04705777860099
  0
ARC
  8
_0-2_決定
  6
CONTINUOUS
 62
    7
 10
772.4084534406785
 20
547.04016119591824
 40
12.438953755022093
 50
85.950215656428171
 51
109.74114428640578
  0
ARC
  8
_0-2_決定
  6
CONTINUOUS
 62
    7
 10
772.58318898182233
 20
552.58598733124768
 40
6.8980603597254255
 50
49.458350748940191
 51
84.144468223762644
  0
ARC
  8
_0-2_決定
  6
CONTINUOUS
 62
    7
 10
772.80893162422615
 20
553.19542040031581
 40
6.2922079839930571
 50
11.854922939350971
 51
47.412906635013826
  0
ARC
  8
_0-2_決定
  6
CONTINUOUS
 62
    7
 10
768.71486745341622
 20
552.20478325107342
 40
10.503245766573183
 50
345.57365992369057
 51
12.555623684779581
  0
ARC
  8
_0-2_決定
  6
CONTINUOUS
 62
    7
 10
759.93037604832011
 20
553.96578753347103
 40
19.455476627125108
 50
327.76390278117719
 51
346.996367322742
  0
ARC
  8
_0-2_決定
  6
CONTINUOUS
 62
    7
 10
753.50298694417938
 20
557.50101486223184
 40
26.781437607628718
 50
317.5589290964125
 51
328.70127561189508
  0
ARC
  8
_0-2_決定
  6
CONTINUOUS
 62
    7
 10
755.39888792805891
 20
555.45189471749336
 40
24.00063409240229
 50
291.01786651021314
 51
318.1146422042242
  0
ARC
  8
_0-2_決定
  6
CONTINUOUS
 62
    7
 10
760.06302101654205
 20
544.3825035104021
 40
12.001006054187442
 50
264.95144136067779
 51
289.18574887332642
  0
ARC
  8
_0-2_決定
  6
CONTINUOUS
 62
    7
 10
759.76643033617825
 20
538.82456950894823
 40
6.4414459818103715
 50
228.12759415762108
 51
263.2286193869308
  0
ARC
  8
_0-2_決定
  6
CONTINUOUS
 62
    7
 10
891.56156770827329
 20
819.3591311828709
 40
11.305572918756436
 50
345.49795778237262
 51
0.3492858623314809
  0
ARC
  8
_0-2_決定
  6
CONTINUOUS
 62
    7
 10
898.29613778408748
 20
817.43532029932669
 40
4.307425229530411
 50
325.05468807578177
 51
347.84078457847284
  0
ARC
  8
_0-2_決定
  6
CONTINUOUS
 62
    7
 10
901.201109939444
 20
815.36763854609319
 40
0.7425100122978851
 50
275.0857225413701
 51
327.44174084737068
  0
ARC
  8
_0-2_決定
  6
CONTINUOUS
 62
    7
 10
901.33142976982549
 20
815.53130022681626
 40
0.9055485227285193
 50
216.86352765852601
 51
265.91555300950614
  0
ARC
  8
_0-2_決定
  6
CONTINUOUS
 62
    7
 10
903.24788857766657
 20
816.93692651273
 40
3.282190199112891
 50
194.2671636165019
 51
216.42518826737506
  0
ARC
  8
_0-2_決定
  6
CONTINUOUS
 62
    7
 10
911.07471092471974
 20
819.13657049091762
 40
11.411503596895207
 50
178.53634912713312
 51
195.28610511090304
  0
ARC
  8
_0-2_決定
  6
CONTINUOUS
 62
    7
 10
911.69292772611107
 20
819.62120582967577
 40
12.027548237574937
 50
165.91594022892281
 51
180.92017046074082
  0
ARC
  8
_0-2_決定
  6
CONTINUOUS
 62
    7
 10
903.23140716759804
 20
821.90032337136222
 40
3.2692846807499247
 50
141.66662430090619
 51
168.57264198071968
  0
ARC
  8
_0-2_決定
  6
CONTINUOUS
 62
    7
 10
901.30027868149318
 20
823.41135539523236
 40
0.8173768304204848
 50
92.338257678884034
 51
140.79184467527193
  0
ARC
  8
_0-2_決定
  6
CONTINUOUS
 62
    7
 10
901.13816368891412
 20
823.3988811850395
 40
0.839109395276731
 50
32.363872010998406
 51
81.172705853082604
  0
ARC
  8
_0-2_決定
  6
CONTINUOUS
 62
    7
 10
898.40261590798627
 20
821.46990643813137
 40
4.1855558818715046
 50
14.926937484605221
 51
34.623343653095347
  0
ARC
  8
_0-2_決定
  6
CONTINUOUS
 62
    7
 10
891.92284244637426
 20
819.54307825905175
 40
10.944692574262938
 50
359.39782135673505
 51
15.935787166884156
  0
ARC
  8
_0-2_決定
  6
CONTINUOUS
 62
    7
 10
922.80406896623367
 20
777.51956671428343
 40
12.263341437490901
 50
346.07345661475762
 51
0.5068610786662692
  0
ARC
  8
_0-2_決定
  6
CONTINUOUS
 62
    7
 10
930.42310696750042
 20
775.4441786803369
 40
4.3724980896248304
 50
325.50771382452552
 51
348.44130215840306
  0
ARC
  8
_0-2_決定
  6
CONTINUOUS
 62
    7
 10
933.40399631391074
 20
773.36288651756013
 40
0.7375229149695722
 50
274.89511105168538
 51
327.63235233698902
  0
ARC
  8
_0-2_決定
  6
CONTINUOUS
 62
    7
 10
933.52797699321081
 20
773.52497213635775
 40
0.8989935626212635
 50
216.67276504466474
 51
266.10631562343167
  0
ARC
  8
_0-2_決定
  6
CONTINUOUS
 62
    7
 10
935.53659972150876
 20
774.95078361736671
 40
3.3620533426914219
 50
193.46274570785033
 51
215.71748862450931
  0
ARC
  8
_0-2_決定
  6
CONTINUOUS
 62
    7
 10
944.09091539897395
 20
777.28810951302557
 40
12.228710735099078
 50
178.40704715126083
 51
194.78199046975519
  0
ARC
  8
_0-2_決定
  6
CONTINUOUS
 62
    7
 10
943.89292772611248
 20
777.82120582967582
 40
12.027548237576696
 50
165.91594022892377
 51
180.92017046074179
  0
ARC
  8
_0-2_決定
  6
CONTINUOUS
 62
    7
 10
935.43140716759672
 20
780.10032337136226
 40
3.2692846807489895
 50
141.6666243008986
 51
168.57264198071212
  0
ARC
  8
_0-2_決定
  6
CONTINUOUS
 62
    7
 10
933.50027868149346
 20
781.61135539523229
 40
0.8173768304207362
 50
92.338257678919334
 51
140.7918446753072
  0
ARC
  8
_0-2_決定
  6
CONTINUOUS
 62
    7
 10
933.33816368891326
 20
781.59888118503955
 40
0.8391093952770257
 50
32.363872010967704
 51
81.172705853051895
  0
ARC
  8
_0-2_決定
  6
CONTINUOUS
 62
    7
 10
930.60261590798768
 20
779.66990643813142
 40
4.1855558818702789
 50
14.926937484612962
 51
34.623343653103092
  0
ARC
  8
_0-2_決定
  6
CONTINUOUS
 62
    7
 10
924.12284244637272
 20
777.74307825904987
 40
10.944692574264792
 50
359.3978213567442
 51
15.935787166893286
  0
ARC
  8
_0-2_決定
  6
CONTINUOUS
 62
    7
 10
775.33439550913783
 20
618.75415130210069
 40
5.9912002186169246
 50
324.4178711053612
 51
37.822460489841504
  0
ARC
  8
_0-2_決定
  6
CONTINUOUS
 62
    7
 10
769.44768953465427
 20
622.32094145651695
 40
12.864855551507198
 50
302.64248587455899
 51
326.7544062256984
  0
ARC
  8
_0-2_決定
  6
CONTINUOUS
 62
    7
 10
763.38536451575408
 20
630.45806723313649
 40
22.997871869596921
 50
286.68150118287264
 51
304.4257573086735
  0
ARC
  8
_0-2_決定
  6
CONTINUOUS
 62
    7
 10
761.06182514468912
 20
637.15331964981249
 40
30.07986591759623
 50
278.80638764544187
 51
287.26032500638848
  0
ARC
  8
_0-2_決定
  6
CONTINUOUS
 62
    7
 10
754.82493911111737
 20
630.61589077763858
 40
25.597353755544571
 50
268.43742488484565
 51
295.05949643349766
  0
ARC
  8
_0-2_決定
  6
CONTINUOUS
 62
    7
 10
754.85321553153426
 20
618.52358181192176
 40
13.515055055358969
 50
244.27479560346262
 51
266.91950908174312
  0
ARC
  8
_0-2_決定
  6
CONTINUOUS
 62
    7
 10
751.99798908088496
 20
612.15024628063406
 40
6.5369624028200048
 50
177.5642968241176
 51
242.57286881960073
  0
ARC
  8
_0-2_決定
  6
CONTINUOUS
 62
    7
 10
750.25985974863625
 20
616.13235064487981
 40
6.0575533411688012
 50
144.52246784044522
 51
217.69925072546303
  0
ARC
  8
_0-2_決定
  6
CONTINUOUS
 62
    7
 10
756.32174956741756
 20
612.58738182204388
 40
13.066717883736365
 50
123.30467319381752
 51
147.29215244617774
  0
ARC
  8
_0-2_決定
  6
CONTINUOUS
 62
    7
 10
762.98666445344543
 20
603.50428721058711
 40
24.324656857503836
 50
97.368703021439671
 51
124.67766397647914
  0
ARC
  8
_0-2_決定
  6
CONTINUOUS
 62
    7
 10
770.58490875187488
 20
603.2879291118951
 40
26.595427692019786
 50
88.056354987775165
 51
113.76590178079404
  0
ARC
  8
_0-2_決定
  6
CONTINUOUS
 62
    7
 10
770.68166253132517
 20
616.42799812281783
 40
13.464160068238119
 50
63.985933946538402
 51
86.571184223505014
  0
ARC
  8
_0-2_決定
  6
CONTINUOUS
 62
    7
 10
773.52753908622299
 20
622.74004102569904
 40
6.546831428076711
 50
357.2685691294817
 51
62.14023864987093
  0
ARC
  8
_0-2_決定
  6
CONTINUOUS
 62
    7
 10
831.77585844136274
 20
680.92794928119349
 40
28.600380928377582
 50
282.70695945557316
 51
299.7940613337463
  0
ARC
  8
_0-2_決定
  6
CONTINUOUS
 62
    7
 10
841.92875410888041
 20
662.94454953660772
 40
7.9502498031509372
 50
300.69356921816831
 51
317.25137019080108
  0
ARC
  8
_0-2_決定
  6
CONTINUOUS
 62
    7
 10
846.6475912223666
 20
658.72295183262122
 40
1.622746515189468
 50
313.61275679272728
 51
3.7135246236450588
  0
ARC
  8
_0-2_決定
  6
CONTINUOUS
 62
    7
 10
847.04906584377454
 20
658.49626248073241
 40
1.2622518878732589
 50
15.23962748684006
 51
56.435678421660803
  0
ARC
  8
_0-2_決定
  6
CONTINUOUS
 62
    7
 10
845.76837989595924
 20
656.597223276357
 40
3.5527542317064547
 50
56.157894245002154
 51
77.671838409386396
  0
ARC
  8
_0-2_決定
  6
CONTINUOUS
 62
    7
 10
844.30584767542371
 20
649.91776634648545
 40
10.390454351772142
 50
77.657101358501706
 51
90.324886726520106
  0
ARC
  8
_0-2_決定
  6
CONTINUOUS
 62
    7
 10
844.08031003557676
 20
636.79340520174662
 40
23.515238769802473
 50
89.594019339889712
 51
97.854096605599864
  0
ARC
  8
_0-2_決定
  6
CONTINUOUS
 62
    7
 10
845.71534250977891
 20
623.5964325821227
 40
36.81230103170887
 50
97.568203998403064
 51
104.55039854177815
  0
ARC
  8
_0-2_決定
  6
CONTINUOUS
 62
    7
 10
843.73853905065539
 20
630.22331984349887
 40
29.902355170224581
 50
104.07420758749227
 51
120.80071136164197
  0
ARC
  8
_0-2_決定
  6
CONTINUOUS
 62
    7
 10
832.06674449748243
 20
650.31061677548655
 40
6.6767904460771419
 50
123.0345015271062
 51
140.6058382331353
  0
ARC
  8
_0-2_決定
  6
CONTINUOUS
 62
    7
 10
828.19044513880442
 20
653.38688279481391
 40
1.7308155122959401
 50
137.86491964513786
 51
185.26518270905788
  0
ARC
  8
_0-2_決定
  6
CONTINUOUS
 62
    7
 10
827.61045378468089
 20
653.59918879186409
 40
1.2022404507273126
 50
197.98107963487249
 51
240.96384006178326
  0
ARC
  8
_0-2_決定
  6
CONTINUOUS
 62
    7
 10
829.01382665704978
 20
656.23468789564299
 40
4.1879613412997427
 50
241.67776222504182
 51
261.94414637566388
  0
ARC
  8
_0-2_決定
  6
CONTINUOUS
 62
    7
 10
830.47827153732044
 20
664.63614058333758
 40
12.71465599747996
 50
260.71551596872615
 51
271.84185750175635
  0
ARC
  8
_0-2_決定
  6
CONTINUOUS
 62
    7
 10
830.09263537837091
 20
681.09555701611748
 40
29.178316609484241
 50
271.55990830237994
 51
285.86045167764831
  0
ARC
  8
_0-2_決定
  6
CONTINUOUS
 62
    7
 10
812.62127032611374
 20
720.32325137294151
 40
1.049986710415665
 50
310.76967880441043
 51
354.79809808088766
  0
ARC
  8
_0-2_決定
  6
CONTINUOUS
 62
    7
 10
811.29979436948156
 20
721.74348345063345
 40
2.9894368774816376
 50
288.47122146957656
 51
312.17599225556609
  0
ARC
  8
_0-2_決定
  6
CONTINUOUS
 62
    7
 10
810.52187852674001
 20
724.07661137874925
 40
5.4488347653819593
 50
269.42222033795781
 51
288.45690966833183
  0
ARC
  8
_0-2_決定
  6
CONTINUOUS
 62
    7
 10
810.30364670593622
 20
722.94120692837259
 40
4.3162429731971201
 50
228.91192695082549
 51
272.1680481786056
  0
ARC
  8
_0-2_決定
  6
CONTINUOUS
 62
    7
 10
808.13388708190496
 20
720.24211089158939
 40
0.8670684896407998
 50
180.92894099234078
 51
219.71733266711377
  0
ARC
  8
_0-2_決定
  6
CONTINUOUS
 62
    7
 10
808.31259477445064
 20
720.1328559423664
 40
1.049986710415665
 50
130.76967880441043
 51
174.79809808088763
  0
ARC
  8
_0-2_決定
  6
CONTINUOUS
 62
    7
 10
809.63407073108272
 20
718.71262386467436
 40
2.9894368774816376
 50
108.47122146957653
 51
132.17599225556609
  0
ARC
  8
_0-2_決定
  6
CONTINUOUS
 62
    7
 10
810.41198657382461
 20
716.37949593655605
 40
5.4488347653845057
 50
89.422220337953618
 51
108.45690966832765
  0
ARC
  8
_0-2_決定
  6
CONTINUOUS
 62
    7
 10
810.63021839462886
 20
717.51490038693532
 40
4.3162429731971201
 50
48.911926950825489
 51
92.168048178605574
  0
ARC
  8
_0-2_決定
  6
CONTINUOUS
 62
    7
 10
812.79997801865966
 20
720.21399642371966
 40
0.8670684896403537
 50
0.9289409922612119
 51
39.717332667034214
  0
ARC
  8
_0-2_決定
  6
CONTINUOUS
 62
    7
 10
916.50610955709885
 20
653.45975261827584
 40
8.968386617863958
 50
2.3536040399292628
 51
90.250301305231432
  0
ARC
  8
_0-2_決定
  6
CONTINUOUS
 62
    7
 10
916.72442897767519
 20
653.14927623363792
 40
9.2823496984619975
 50
91.589626173232801
 51
175.80646848161012
  0
ARC
  8
_0-2_決定
  6
CONTINUOUS
 62
    7
 10
916.42775154346486
 20
654.19635469703155
 40
8.9683866178636791
 50
182.35360403992732
 51
270.25030130522947
  0
ARC
  8
_0-2_決定
  6
CONTINUOUS
 62
    7
 10
916.20943212288898
 20
654.50683108167027
 40
9.2823496984623226
 50
271.58962617323112
 51
355.80646848160842
  0
ARC
  8
_0-2_決定
  6
CONTINUOUS
 62
    7
 10
884.1726507801136
 20
717.14601140445689
 40
3.4962701758078882
 50
308.45395570131654
 51
358.0665785177344
  0
ARC
  8
_0-2_決定
  6
CONTINUOUS
 62
    7
 10
881.03299831888785
 20
720.50521952180725
 40
8.0878493640055673
 50
281.07721386382889
 51
311.07349730406389
  0
ARC
  8
_0-2_決定
  6
CONTINUOUS
 62
    7
 10
879.69268738298774
 20
724.71567144735343
 40
12.487644352561126
 50
269.88182247889864
 51
283.40121579713468
  0
ARC
  8
_0-2_決定
  6
CONTINUOUS
 62
    7
 10
879.56982373554206
 20
723.92849126575106
 40
11.70084056614926
 50
243.59842639145438
 51
270.47551066827788
  0
ARC
  8
_0-2_決定
  6
CONTINUOUS
 62
    7
 10
876.98632227969006
 20
718.55143524921937
 40
5.7363504688277356
 50
208.11689917219505
 51
242.83011694529267
  0
ARC
  8
_0-2_決定
  6
CONTINUOUS
 62
    7
 10
874.61741914467302
 20
717.05951724624583
 40
2.9506563512264847
 50
180.61097084344354
 51
204.24091488731034
  0
ARC
  8
_0-2_決定
  6
CONTINUOUS
 62
    7
 10
875.16121032045112
 20
716.91009591085219
 40
3.4962701758068251
 50
128.45395570133266
 51
178.06657851775051
  0
ARC
  8
_0-2_決定
  6
CONTINUOUS
 62
    7
 10
878.30086278167619
 20
713.55088779349921
 40
8.0878493640065532
 50
101.07721386382543
 51
131.07349730406048
  0
ARC
  8
_0-2_決定
  6
CONTINUOUS
 62
    7
 10
879.64117371757743
 20
709.34043586794951
 40
12.487644352565908
 50
89.881822478895359
 51
103.40121579713143
  0
ARC
  8
_0-2_決定
  6
CONTINUOUS
 62
    7
 10
879.76403736502311
 20
710.12761604955904
 40
11.700840566146862
 50
63.598426391452058
 51
90.475510668275533
  0
ARC
  8
_0-2_決定
  6
CONTINUOUS
 62
    7
 10
882.34753882087466
 20
715.50467206608914
 40
5.7363504688270561
 50
28.116899172188333
 51
62.830116945285965
  0
ARC
  8
_0-2_決定
  6
CONTINUOUS
 62
    7
 10
884.71644195589283
 20
716.99659006905927
 40
2.9506563512260655
 50
0.6109708435005307
 51
24.240914887367317
  0
ARC
  8
_0-2_決定
  6
CONTINUOUS
 62
    7
 10
1277.7479632384857
 20
501.35249300224535
 40
8.3252853164312324
 50
270.81873627165612
 51
357.76662499125558
  0
ARC
  8
_0-2_決定
  6
CONTINUOUS
 62
    7
 10
1278.1751594659281
 20
501.33629257329966
 40
8.3139506960755778
 50
182.12469482833734
 51
267.87530517165959
  0
ARC
  8
_0-2_決定
  6
CONTINUOUS
 62
    7
 10
1278.1751583888692
 20
500.71982174200832
 40
8.3139496568317206
 50
92.124687666366469
 51
177.87529800968872
  0
ARC
  8
_0-2_決定
  6
CONTINUOUS
 62
    7
 10
1277.6091478924534
 20
500.56133446669895
 40
8.4706443987860283
 50
3.1585339778044856
 51
88.256119078865822
  0
ARC
  8
_0-2_決定
  6
CONTINUOUS
 62
    7
 10
778.86473806120364
 20
670.96289658032379
 40
8.8772742049611946
 50
319.41919356290714
 51
18.829429765385353
  0
ARC
  8
_0-2_決定
  6
CONTINUOUS
 62
    7
 10
776.38572808026743
 20
672.58486036267573
 40
11.821309627502128
 50
286.11504425005751
 51
321.26509080190522
  0
ARC
  8
_0-2_決定
  6
CONTINUOUS
 62
    7
 10
775.68428759462017
 20
673.01833519244099
 40
12.444765948478251
 50
239.38687420311109
 51
288.6644792239295
  0
ARC
  8
_0-2_決定
  6
CONTINUOUS
 62
    7
 10
774.44999236287856
 20
669.83660413283815
 40
9.0950696373552127
 50
199.31668147908121
 51
235.86949426392158
  0
ARC
  8
_0-2_決定
  6
CONTINUOUS
 62
    7
 10
774.65742246085426
 20
669.45369595835587
 40
9.1742416776050142
 50
137.19149649848728
 51
196.63042440797153
  0
ARC
  8
_0-2_決定
  6
CONTINUOUS
 62
    7
 10
777.44837842550112
 20
667.55724880505682
 40
12.520699625249813
 50
108.54135705546749
 51
139.50444761504193
  0
ARC
  8
_0-2_決定
  6
CONTINUOUS
 62
    7
 10
777.49197300935123
 20
667.45538845719011
 40
12.631138614532443
 50
59.583290711724686
 51
108.58191545883177
  0
ARC
  8
_0-2_決定
  6
CONTINUOUS
 62
    7
 10
779.07111968932759
 20
671.22308740322342
 40
8.5998370704627796
 50
17.632395944092064
 51
55.944973433656834
  0
ARC
  8
_0-2_決定
  6
CONTINUOUS
 62
    7
 10
802.93628170745762
 20
577.83922334513727
 40
4.0134784246852382
 50
348.33957478388083
 51
34.423350712833411
  0
ARC
  8
_0-2_決定
  6
CONTINUOUS
 62
    7
 10
798.94533279110215
 20
575.58483657494287
 40
8.5891134532882703
 50
31.777523177881069
 51
46.045420513723769
  0
ARC
  8
_0-2_決定
  6
CONTINUOUS
 62
    7
 10
793.76662782663493
 20
570.17879868912928
 40
16.075362092911632
 50
46.131553911332169
 51
67.852431823056421
  0
ARC
  8
_0-2_決定
  6
CONTINUOUS
 62
    7
 10
789.64367633769029
 20
561.86210374452071
 40
25.34195949972964
 50
66.307130861193698
 51
75.784405739780894
  0
ARC
  8
_0-2_決定
  6
CONTINUOUS
 62
    7
 10
789.78694566836816
 20
564.0081868385073
 40
23.229652566321064
 50
74.827031196785725
 51
93.751782528219877
  0
ARC
  8
_0-2_決定
  6
CONTINUOUS
 62
    7
 10
789.02554104391152
 20
576.26574034062014
 40
10.948628166638663
 50
93.973093040707127
 51
119.78447473463379
  0
ARC
  8
_0-2_決定
  6
CONTINUOUS
 62
    7
 10
785.7743063426858
 20
582.3581056905881
 40
4.0512174572078816
 50
122.67887294268401
 51
164.68617481984805
  0
ARC
  8
_0-2_決定
  6
CONTINUOUS
 62
    7
 10
785.43614054789168
 20
582.47430392572494
 40
3.6944401600726433
 50
165.03916827698819
 51
213.2613452790315
  0
ARC
  8
_0-2_決定
  6
CONTINUOUS
 62
    7
 10
789.2870155270848
 20
584.47474392746699
 40
8.0236506745471488
 50
210.12262901399455
 51
224.5284119522276
  0
ARC
  8
_0-2_決定
  6
CONTINUOUS
 62
    7
 10
794.45517167255218
 20
589.71607645118002
 40
15.384005562669682
 50
224.94675442484825
 51
246.68716541620017
  0
ARC
  8
_0-2_決定
  6
CONTINUOUS
 62
    7
 10
799.06024611345265
 20
598.35693278690724
 40
25.154894567207581
 50
244.84308757060137
 51
255.27631129274042
  0
ARC
  8
_0-2_決定
  6
CONTINUOUS
 62
    7
 10
798.5873156926923
 20
596.45227022416714
 40
23.192592254380653
 50
255.21038964564713
 51
274.40075253888506
  0
ARC
  8
_0-2_決定
  6
CONTINUOUS
 62
    7
 10
799.41765457088172
 20
584.73820909070685
 40
11.449573356592065
 50
274.75582153478518
 51
299.44963640331758
  0
ARC
  8
_0-2_決定
  6
CONTINUOUS
 62
    7
 10
802.74519294431229
 20
578.48450082706313
 40
4.3714951573708136
 50
301.77155000923756
 51
340.53878667731738
  0
ARC
  8
_0-2_決定
  6
CONTINUOUS
 62
    7
 10
846.64093337445388
 20
543.03490148563606
 40
12.027548237575502
 50
345.91594022890223
 51
0.9201704607202515
  0
ARC
  8
_0-2_決定
  6
CONTINUOUS
 62
    7
 10
855.10245393296657
 20
540.75578394394358
 40
3.2692846807491542
 50
321.66662430093533
 51
348.57264198074881
  0
ARC
  8
_0-2_決定
  6
CONTINUOUS
 62
    7
 10
857.03358241907176
 20
539.24475192007617
 40
0.817376830421414
 50
272.33825767885151
 51
320.79184467523936
  0
ARC
  8
_0-2_決定
  6
CONTINUOUS
 62
    7
 10
857.1956974116506
 20
539.25722613026824
 40
0.8391093952770257
 50
212.36387201096773
 51
261.17270585305192
  0
ARC
  8
_0-2_決定
  6
CONTINUOUS
 62
    7
 10
859.93124519257663
 20
541.18620087717647
 40
4.1855558818703269
 50
194.92693748461269
 51
214.62334365310281
  0
ARC
  8
_0-2_決定
  6
CONTINUOUS
 62
    7
 10
866.41101865418989
 20
543.11302905625678
 40
10.944692574263131
 50
179.39782135674014
 51
195.93578716688924
  0
ARC
  8
_0-2_決定
  6
CONTINUOUS
 62
    7
 10
866.77212050065407
 20
543.29699759484674
 40
11.305400161192997
 50
165.4978436713393
 51
180.34939997336474
  0
ARC
  8
_0-2_決定
  6
CONTINUOUS
 62
    7
 10
860.03772331647667
 20
545.22078701598025
 40
4.3074252295307813
 50
145.0546880757735
 51
167.84078457846454
  0
ARC
  8
_0-2_決定
  6
CONTINUOUS
 62
    7
 10
857.13275116112015
 20
547.28846876921443
 40
0.7425100122978747
 50
95.085722541368824
 51
147.44174084736935
  0
ARC
  8
_0-2_決定
  6
CONTINUOUS
 62
    7
 10
857.00243133073877
 20
547.12480708849137
 40
0.9055485227285295
 50
36.863527658524845
 51
85.915553009504976
  0
ARC
  8
_0-2_決定
  6
CONTINUOUS
 62
    7
 10
855.08597252289837
 20
545.71918080257683
 40
3.2821901991131246
 50
14.267163616514251
 51
36.425188267387412
  0
ARC
  8
_0-2_決定
  6
CONTINUOUS
 62
    7
 10
847.25915017584521
 20
543.51953682438705
 40
11.411503596895617
 50
358.53634912714767
 51
15.286105110917605
  0
ARC
  8
_0-2_決定
  6
CONTINUOUS
 62
    7
 10
909.41475213855574
 20
610.75294119722594
 40
4.0528745431636235
 50
1.0619593429340322
 51
47.229124577875737
  0
ARC
  8
_0-2_決定
  6
CONTINUOUS
 62
    7
 10
907.39109297907726
 20
608.70343901915555
 40
6.9322000021933476
 50
46.454109151576198
 51
92.680233489627582
  0
ARC
  8
_0-2_決定
  6
CONTINUOUS
 62
    7
 10
907.02416875786048
 20
607.80371035136272
 40
7.8244621567856001
 50
89.686868901962711
 51
136.51674548675609
  0
ARC
  8
_0-2_決定
  6
CONTINUOUS
 62
    7
 10
904.37123288882708
 20
610.71628190429828
 40
3.9059019602017546
 50
140.74074079816035
 51
178.36016398026422
  0
ARC
  8
_0-2_決定
  6
CONTINUOUS
 62
    7
 10
904.37146354694369
 20
610.92041359898542
 40
3.9056251626784544
 50
181.3550234175259
 51
227.77931922368882
  0
ARC
  8
_0-2_決定
  6
CONTINUOUS
 62
    7
 10
906.76427188140246
 20
613.29858359843354
 40
7.2768247750997102
 50
226.40977652008732
 51
272.38374133307622
  0
ARC
  8
_0-2_決定
  6
CONTINUOUS
 62
    7
 10
907.13790754346496
 20
613.45478128691025
 40
7.4270647840055437
 50
269.45244263076086
 51
317.1950472143028
  0
ARC
  8
_0-2_決定
  6
CONTINUOUS
 62
    7
 10
909.42279836401917
 20
610.92864917993086
 40
4.0453830716867216
 50
321.45866521934562
 51
358.57512173686956
  0
ARC
  8
_0-2_決定
  6
CONTINUOUS
 62
    7
 10
855.35108856761121
 20
591.71239245072286
 40
1.5181862899834719
 50
319.58165914682291
 51
356.81552188041417
  0
ARC
  8
_0-2_決定
  6
CONTINUOUS
 62
    7
 10
853.70600476752338
 20
593.06282820922218
 40
3.6464157892482243
 50
298.16094722463015
 51
320.18636871623414
  0
ARC
  8
_0-2_決定
  6
CONTINUOUS
 62
    7
 10
851.86091380969424
 20
596.50232871121193
 40
7.5495579516591436
 50
283.06026021840222
 51
298.18680254826808
  0
ARC
  8
_0-2_決定
  6
CONTINUOUS
 62
    7
 10
850.90319709639743
 20
600.07268167481652
 40
11.244684501052769
 50
269.81520836514642
 51
283.70295388878208
  0
ARC
  8
_0-2_決定
  6
CONTINUOUS
 62
    7
 10
850.75394320624787
 20
598.08069205200206
 40
9.2533262336268098
 50
240.99354977432586
 51
270.69962504997687
  0
ARC
  8
_0-2_決定
  6
CONTINUOUS
 62
    7
 10
847.42826288806418
 20
592.09683541700645
 40
2.407414561772363
 50
191.22856125368645
 51
241.15785335743632
  0
ARC
  8
_0-2_決定
  6
CONTINUOUS
 62
    7
 10
846.72658182340513
 20
591.57451029201707
 40
1.6605148161218151
 50
141.50658719335033
 51
178.15210598297634
  0
ARC
  8
_0-2_決定
  6
CONTINUOUS
 62
    7
 10
847.95194939574367
 20
590.62388725321102
 40
3.2113306318605579
 50
119.16608031351197
 51
141.83961645716064
  0
ARC
  8
_0-2_決定
  6
CONTINUOUS
 62
    7
 10
849.70031416438223
 20
587.42449266780091
 40
6.8572063952691362
 50
102.92152917941885
 51
118.89443176257966
  0
ARC
  8
_0-2_決定
  6
CONTINUOUS
 62
    7
 10
850.83195224295935
 20
583.17256012570044
 40
11.255549882249484
 50
89.821944495747928
 51
103.69621775820143
  0
ARC
  8
_0-2_決定
  6
CONTINUOUS
 62
    7
 10
851.13596543399353
 20
584.40885050810709
 40
10.022816550119888
 50
62.609869734562359
 51
91.538132016029905
  0
ARC
  8
_0-2_決定
  6
CONTINUOUS
 62
    7
 10
854.59419017345283
 20
591.32622873976754
 40
2.292694552013705
 50
7.5647905928585377
 51
59.815344459089829
  0
ARC
  8
_0-2_決定
  6
CONTINUOUS
 62
    7
 10
889.45792184266202
 20
596.18144362832879
 40
3.2093472181834191
 50
310.14184468232088
 51
0.8321837043281104
  0
ARC
  8
_0-2_決定
  6
CONTINUOUS
 62
    7
 10
890.62302002699562
 20
594.93659915774299
 40
1.5091824361939319
 50
271.66728866385279
 51
306.79405608745566
  0
ARC
  8
_0-2_決定
  6
CONTINUOUS
 62
    7
 10
890.72661456822425
 20
595.29520310160774
 40
1.868101110609669
 50
199.61595354185056
 51
268.1691438746775
  0
ARC
  8
_0-2_決定
  6
CONTINUOUS
 62
    7
 10
892.49793525262339
 20
596.15594117733269
 40
3.8316833803995571
 50
178.92159687540206
 51
202.84945723385695
  0
ARC
  8
_0-2_決定
  6
CONTINUOUS
 62
    7
 10
891.55355744149938
 20
596.30389374317826
 40
2.8876229366576052
 50
127.71924650382201
 51
181.50494091400159
  0
ARC
  8
_0-2_決定
  6
CONTINUOUS
 62
    7
 10
890.65095540551306
 20
597.15329785514234
 40
1.674833992467315
 50
89.453484789414091
 51
121.05675261672964
  0
ARC
  8
_0-2_決定
  6
CONTINUOUS
 62
    7
 10
890.60749942386019
 20
597.20957265386255
 40
1.6195737995996509
 50
50.990880964979816
 51
87.897028595816082
  0
ARC
  8
_0-2_決定
  6
CONTINUOUS
 62
    7
 10
889.8000210522448
 20
596.25841910499321
 40
2.8670702832112562
 50
359.39320290972353
 51
50.41633470647951
  0
ARC
  8
_0-2_決定
  6
CONTINUOUS
 62
    7
 10
929.33754019699359
 20
572.23774822897076
 40
2.9294063883110972
 50
306.66837745326541
 51
359.81042424001004
  0
ARC
  8
_0-2_決定
  6
CONTINUOUS
 62
    7
 10
930.24029138879678
 20
571.13514839771972
 40
1.507328156734435
 50
271.01264676940497
 51
304.17220235501497
  0
ARC
  8
_0-2_決定
  6
CONTINUOUS
 62
    7
 10
930.32636167670466
 20
571.24653866144604
 40
1.6195737996004913
 50
230.99088096499099
 51
267.89702859582724
  0
ARC
  8
_0-2_決定
  6
CONTINUOUS
 62
    7
 10
931.13384004831892
 20
572.19769221031436
 40
2.8670702832107327
 50
179.39320290972842
 51
230.41633470648438
  0
ARC
  8
_0-2_決定
  6
CONTINUOUS
 62
    7
 10
931.47593925790238
 20
572.27466768697843
 40
3.2093472181834191
 50
130.14184468232091
 51
180.83218370432812
  0
ARC
  8
_0-2_決定
  6
CONTINUOUS
 62
    7
 10
930.31084107356969
 20
573.51951215756367
 40
1.5091824361950537
 50
91.667288663866316
 51
126.7940560874692
  0
ARC
  8
_0-2_決定
  6
CONTINUOUS
 62
    7
 10
930.20082019085203
 20
573.44821194136262
 40
1.5812263429150553
 50
50.484655666548427
 51
87.603790872198942
  0
ARC
  8
_0-2_決定
  6
CONTINUOUS
 62
    7
 10
929.26595447205364
 20
572.37459883678434
 40
3.0045519342240476
 50
357.20436244912941
 51
49.758418916060165
  0
ARC
  8
_0-2_決定
  6
CONTINUOUS
 62
    7
 10
894.15265475467413
 20
524.7414602588666
 40
2.3170526670127538
 50
296.51138347820978
 51
357.19462485728536
  0
ARC
  8
_0-2_決定
  6
CONTINUOUS
 62
    7
 10
892.80401295910087
 20
526.76954367292967
 40
4.7434692141736106
 50
268.34396792947524
 51
300.15609746613103
  0
ARC
  8
_0-2_決定
  6
CONTINUOUS
 62
    7
 10
892.58325018042092
 20
527.11959115080981
 40
5.0922230982517247
 50
230.53983427531622
 51
270.94158243715941
  0
ARC
  8
_0-2_決定
  6
CONTINUOUS
 62
    7
 10
890.76691620363613
 20
524.73915999395876
 40
2.1029227084787911
 50
183.02853490415177
 51
227.52690956690486
  0
ARC
  8
_0-2_決定
  6
CONTINUOUS
 62
    7
 10
891.11341234350698
 20
524.53558153370841
 40
2.4482288757750506
 50
118.45441753049174
 51
177.8353177046144
  0
ARC
  8
_0-2_決定
  6
CONTINUOUS
 62
    7
 10
892.54985968923188
 20
522.48945125502985
 40
4.939991804864083
 50
88.642043442670641
 51
121.7968862196855
  0
ARC
  8
_0-2_決定
  6
CONTINUOUS
 62
    7
 10
892.77528754516788
 20
522.94363654044832
 40
4.4857280409204145
 50
47.826079565715879
 51
91.384168270193442
  0
ARC
  8
_0-2_決定
  6
CONTINUOUS
 62
    7
 10
894.04727701605702
 20
524.58576028980553
 40
2.4200231659692166
 50
1.0014240739647429
 51
44.03970713177798
  0
ARC
  8
_0-2_決定
  6
CONTINUOUS
 62
    7
 10
932.16233189143372
 20
534.87141820133911
 40
8.1047146606898952
 50
299.93668549641205
 51
359.69344971419679
  0
ARC
  8
_0-2_決定
  6
CONTINUOUS
 62
    7
 10
934.24977216110369
 20
532.19778726481331
 40
4.7697624694166514
 50
270.2061120254574
 51
294.22532624280024
  0
ARC
  8
_0-2_決定
  6
CONTINUOUS
 62
    7
 10
934.36816385199813
 20
532.94598718168675
 40
5.5188600711824716
 50
211.18802058864429
 51
268.94895573034063
  0
ARC
  8
_0-2_決定
  6
CONTINUOUS
 62
    7
 10
936.6498283625092
 20
534.69776008399901
 40
8.3839103446280774
 50
179.10952208443121
 51
213.35517923788754
  0
ARC
  8
_0-2_決定
  6
CONTINUOUS
 62
    7
 10
936.32799073547994
 20
534.89114591967848
 40
8.0613070708506598
 50
133.81459102638718
 51
180.44841892430321
  0
ARC
  8
_0-2_決定
  6
CONTINUOUS
 62
    7
 10
934.32076898427658
 20
536.53115316700382
 40
5.4971661398114424
 50
90.561155381011531
 51
130.55093505816347
  0
ARC
  8
_0-2_決定
  6
CONTINUOUS
 62
    7
 10
934.12184549669428
 20
536.41345782889789
 40
5.6164720645120605
 50
30.784839527693428
 51
88.519767224963587
  0
ARC
  8
_0-2_決定
  6
CONTINUOUS
 62
    7
 10
932.28568348607632
 20
534.89122917228349
 40
7.9814970771684415
 50
359.54649941933951
 51
33.427228213475452
  0
ARC
  8
_0-2_決定
  6
CONTINUOUS
 62
    7
 10
843.086418236496
 20
550.71185629436411
 40
0.9840868580566506
 50
309.09043806082639
 51
355.11501987730253
  0
ARC
  8
_0-2_決定
  6
CONTINUOUS
 62
    7
 10
841.53258033636178
 20
552.58798992196091
 40
3.4200952870702079
 50
287.6038029229652
 51
309.47616745293351
  0
ARC
  8
_0-2_決定
  6
CONTINUOUS
 62
    7
 10
839.4714981507866
 20
558.6179103125919
 40
9.7919916896267907
 50
268.80294033678149
 51
288.42836631804602
  0
ARC
  8
_0-2_決定
  6
CONTINUOUS
 62
    7
 10
839.20216843017579
 20
558.64732475686537
 40
9.8194826764947347
 50
254.4328178307037
 51
270.37789543212671
  0
ARC
  8
_0-2_決定
  6
CONTINUOUS
 62
    7
 10
837.54216689343502
 20
553.14229387255477
 40
4.0727241355448633
 50
232.57236730013116
 51
256.14562105124503
  0
ARC
  8
_0-2_決定
  6
CONTINUOUS
 62
    7
 10
835.6474485289408
 20
550.7016756457972
 40
0.9832758956969904
 50
184.2938768401954
 51
233.81533135792716
  0
ARC
  8
_0-2_決定
  6
CONTINUOUS
 62
    7
 10
835.50177128250334
 20
550.49557510895715
 40
0.8452850434020376
 50
122.5536552527216
 51
170.98292261129799
  0
ARC
  8
_0-2_決定
  6
CONTINUOUS
 62
    7
 10
837.41965173980611
 20
547.84834535965797
 40
4.1130827415446092
 50
105.69590742895208
 51
125.2307826948476
  0
ARC
  8
_0-2_決定
  6
CONTINUOUS
 62
    7
 10
839.19690637819656
 20
542.08109725138718
 40
10.147200035639258
 50
89.604596741079192
 51
106.54719592858071
  0
ARC
  8
_0-2_決定
  6
CONTINUOUS
 62
    7
 10
839.3358520250689
 20
540.92270048830721
 40
11.305565240140453
 50
75.497952951604816
 51
90.349281031563663
  0
ARC
  8
_0-2_決定
  6
CONTINUOUS
 62
    7
 10
841.25966190860709
 20
547.6572628914605
 40
4.3074252295304181
 50
55.054688075742682
 51
77.840784578433713
  0
ARC
  8
_0-2_決定
  6
CONTINUOUS
 62
    7
 10
843.32734366184332
 20
550.56223504681554
 40
0.7425100122974347
 50
5.0857225413966898
 51
57.441740847397234
  0
ARC
  8
_0-2_決定
  6
CONTINUOUS
 62
    7
 10
1046.191176918803
 20
579.18567066356945
 40
6.2078076979429797
 50
326.152907243237
 51
38.240231887683692
  0
ARC
  8
_0-2_決定
  6
CONTINUOUS
 62
    7
 10
1040.824934276076
 20
582.36432035688313
 40
12.439950669703979
 50
303.80944649693981
 51
327.76020270903012
  0
ARC
  8
_0-2_決定
  6
CONTINUOUS
 62
    7
 10
1034.7063473941498
 20
590.43724702772522
 40
22.560032885383407
 50
286.69395028911083
 51
305.31274139991257
  0
ARC
  8
_0-2_決定
  6
CONTINUOUS
 62
    7
 10
1032.2807016070615
 20
597.47175605237021
 40
29.99637395863731
 50
278.79460081225318
 51
287.27211183957058
  0
ARC
  8
_0-2_決定
  6
CONTINUOUS
 62
    7
 10
1026.0532617152112
 20
592.40267009730849
 40
26.848595219816971
 50
268.15089574698345
 51
293.75112840261562
  0
ARC
  8
_0-2_決定
  6
CONTINUOUS
 62
    7
 10
1025.9901695896699
 20
579.36325182617793
 40
13.818561194835654
 50
244.52665435934057
 51
266.66765032586824
  0
ARC
  8
_0-2_決定
  6
CONTINUOUS
 62
    7
 10
1022.8916359187313
 20
572.43841102892668
 40
6.2368906323203577
 50
176.41816056859622
 51
242.86363209205547
  0
ARC
  8
_0-2_決定
  6
CONTINUOUS
 62
    7
 10
1021.5169058144729
 20
576.57517414142637
 40
6.1288805172396499
 50
145.48360285323093
 51
217.68986702032566
  0
ARC
  8
_0-2_決定
  6
CONTINUOUS
 62
    7
 10
1027.300871374159
 20
573.29278463141031
 40
12.76745878195948
 50
123.75390107028994
 51
148.05528899717328
  0
ARC
  8
_0-2_決定
  6
CONTINUOUS
 62
    7
 10
1033.8789661302851
 20
564.38404580259737
 40
23.835091197840214
 50
97.259871418210281
 51
125.00232099857905
  0
ARC
  8
_0-2_決定
  6
CONTINUOUS
 62
    7
 10
1041.6805953853529
 20
563.4534412179969
 40
26.848595219819487
 50
88.150895746982428
 51
113.7511284026146
  0
ARC
  8
_0-2_決定
  6
CONTINUOUS
 62
    7
 10
1041.7436875108947
 20
576.49285948912984
 40
13.818561194835704
 50
64.526654359339773
 51
86.667650325867484
  0
ARC
  8
_0-2_決定
  6
CONTINUOUS
 62
    7
 10
1044.8422211818333
 20
583.41770028638155
 40
6.2368906323200459
 50
356.41816056859238
 51
62.863632092051617
  0
ARC
  8
_0-2_決定
  6
CONTINUOUS
 62
    7
 10
1101.5258130570103
 20
643.96787843836478
 40
31.505644154546854
 50
284.22353686848021
 51
300.52277737641623
  0
ARC
  8
_0-2_決定
  6
CONTINUOUS
 62
    7
 10
1114.5894237317382
 20
621.67839976963603
 40
5.6705168030429487
 50
301.20025937711688
 51
321.49529506226594
  0
ARC
  8
_0-2_決定
  6
CONTINUOUS
 62
    7
 10
1118.0914776623658
 20
618.92259985496912
 40
1.2144889194629274
 50
320.37551526281129
 51
14.5668693188258
  0
ARC
  8
_0-2_決定
  6
CONTINUOUS
 62
    7
 10
1118.046945876865
 20
618.89473628240796
 40
1.2646954769533161
 50
15.281228504836903
 51
56.394077403720708
  0
ARC
  8
_0-2_決定
  6
CONTINUOUS
 62
    7
 10
1116.767517203124
 20
616.99521065085912
 40
3.5549057649634785
 50
56.164482195575019
 51
77.665250458816359
  0
ARC
  8
_0-2_決定
  6
CONTINUOUS
 62
    7
 10
1115.3224287130249
 20
610.4698676901404
 40
10.238338407583729
 50
77.565819751677353
 51
90.310602670872541
  0
ARC
  8
_0-2_決定
  6
CONTINUOUS
 62
    7
 10
1115.1003630022192
 20
598.06074192840242
 40
22.647926231041019
 50
89.578615973030722
 51
98.003715401691906
  0
ARC
  8
_0-2_決定
  6
CONTINUOUS
 62
    7
 10
1116.5598201286728
 20
586.45065248355729
 40
34.348560406537516
 50
97.717945465957229
 51
105.00488717195286
  0
ARC
  8
_0-2_決定
  6
CONTINUOUS
 62
    7
 10
1115.6263144163277
 20
588.36690780818799
 40
32.258505672624779
 50
104.28454303001681
 51
120.26725266650037
  0
ARC
  8
_0-2_決定
  6
CONTINUOUS
 62
    7
 10
1102.636653475744
 20
610.7820171093806
 40
6.3521993795431122
 50
120.98001275803162
 51
139.49270386052135
  0
ARC
  8
_0-2_決定
  6
CONTINUOUS
 62
    7
 10
1098.8161960897262
 20
613.99680476560684
 40
1.35977908295145
 50
137.92164434836059
 51
187.1288071391329
  0
ARC
  8
_0-2_決定
  6
CONTINUOUS
 62
    7
 10
1098.6816298738811
 20
614.17658165035243
 40
1.263712654498172
 50
196.00941360079119
 51
237.73038169084617
  0
ARC
  8
_0-2_決定
  6
CONTINUOUS
 62
    7
 10
1100.0256152116324
 20
616.1833853885671
 40
3.6786884606545471
 50
236.71858140506538
 51
257.77946590937302
  0
ARC
  8
_0-2_決定
  6
CONTINUOUS
 62
    7
 10
1101.5118154121981
 20
623.14862865618693
 40
10.800713613212201
 50
257.89535154328479
 51
270.29236622918557
  0
ARC
  8
_0-2_決定
  6
CONTINUOUS
 62
    7
 10
1101.669856968871
 20
639.60327416018072
 40
27.255412854694047
 50
269.78362543887511
 51
286.1847902826579
  0
ARC
  8
_0-2_決定
  6
CONTINUOUS
 62
    7
 10
973.66021752061692
 20
672.2847793237222
 40
11.972928205709133
 50
156.66124781364559
 51
171.24074260128739
  0
ARC
  8
_0-2_決定
  6
CONTINUOUS
 62
    7
 10
965.60193625978945
 20
673.37963916276419
 40
3.8446398769162164
 50
169.07859093831112
 51
193.71577111629441
  0
ARC
  8
_0-2_決定
  6
CONTINUOUS
 62
    7
 10
962.44880947193087
 20
672.59521631369785
 40
0.5956118035688683
 50
192.32749478084119
 51
252.21988323134445
  0
ARC
  8
_0-2_決定
  6
CONTINUOUS
 62
    7
 10
962.56589861037105
 20
672.95561507179036
 40
0.9745522448526589
 50
252.13502857753713
 51
299.57699859331296
  0
ARC
  8
_0-2_決定
  6
CONTINUOUS
 62
    7
 10
961.53087281646071
 20
674.84167149489622
 40
3.1258754825436448
 50
299.01264270177677
 51
321.78716596564726
  0
ARC
  8
_0-2_決定
  6
CONTINUOUS
 62
    7
 10
955.53647084949966
 20
679.71324964988514
 40
10.849929107936001
 50
321.15533888845158
 51
339.01736912847826
  0
ARC
  8
_0-2_決定
  6
CONTINUOUS
 62
    7
 10
954.67364357994802
 20
680.57132799158353
 40
11.972928205708513
 50
336.6612478136559
 51
351.24074260129771
  0
ARC
  8
_0-2_決定
  6
CONTINUOUS
 62
    7
 10
962.73192484077617
 20
679.47646815254348
 40
3.8446398769151346
 50
349.07859093831155
 51
13.715771116294798
  0
ARC
  8
_0-2_決定
  6
CONTINUOUS
 62
    7
 10
965.88505162863362
 20
680.26089100160993
 40
0.5956118035692105
 50
12.327494780811259
 51
72.219883231314498
  0
ARC
  8
_0-2_決定
  6
CONTINUOUS
 62
    7
 10
965.79047930903107
 20
680.07783439183186
 40
0.7995337613883271
 50
69.771464415190351
 51
120.3134377231399
  0
ARC
  8
_0-2_決定
  6
CONTINUOUS
 62
    7
 10
967.06963793484056
 20
677.76140336879291
 40
3.4454970761205734
 50
119.23407385832348
 51
140.60671042168275
  0
ARC
  8
_0-2_決定
  6
CONTINUOUS
 62
    7
 10
972.41792617275541
 20
673.19595352645422
 40
10.476970318036772
 50
139.87399991801206
 51
158.54538270597669
  0
ARC
  8
_0-2_決定
  6
CONTINUOUS
 62
    7
 10
1188.1061055570988
 20
599.85975461827582
 40
8.9683866178642226
 50
2.35360403992749
 51
90.250301305229655
  0
ARC
  8
_0-2_決定
  6
CONTINUOUS
 62
    7
 10
1188.3244249776751
 20
599.54927823363778
 40
9.2823496984622729
 50
91.589626173234578
 51
175.80646848161192
  0
ARC
  8
_0-2_決定
  6
CONTINUOUS
 62
    7
 10
1188.0277475434648
 20
600.5963566970313
 40
8.9683866178636453
 50
182.35360403992757
 51
270.25030130522975
  0
ARC
  8
_0-2_決定
  6
CONTINUOUS
 62
    7
 10
1187.8094281228889
 20
600.90683308167002
 40
9.2823496984622871
 50
271.58962617323084
 51
355.80646848160819
  0
ARC
  8
_0-2_決定
  6
CONTINUOUS
 62
    7
 10
1034.8506111414529
 20
692.70346100143001
 40
22.243215388464041
 50
140.17822119782832
 51
159.1286937976065
  0
ARC
  8
_0-2_決定
  6
CONTINUOUS
 62
    7
 10
1018.71528271794
 20
706.25363959329593
 40
1.1754090862722313
 50
92.357708303978995
 51
143.78726556774191
  0
ARC
  8
_0-2_決定
  6
CONTINUOUS
 62
    7
 10
1018.2003988085719
 20
706.81915896366615
 40
0.7670741478280972
 50
2.1587688596112877
 51
52.54098270049181
  0
ARC
  8
_0-2_決定
  6
CONTINUOUS
 62
    7
 10
1013.4041788851127
 20
706.51273572748369
 40
5.5728468444445936
 50
346.67200095963949
 51
3.4495679561003474
  0
ARC
  8
_0-2_決定
  6
CONTINUOUS
 62
    7
 10
991.66749111638205
 20
710.78000321939555
 40
27.721096400792575
 50
335.37228768882846
 51
348.44673357378269
  0
ARC
  8
_0-2_決定
  6
CONTINUOUS
 62
    7
 10
992.01223540149363
 20
708.97230550705274
 40
26.696558123191274
 50
328.96366790050331
 51
338.59239854440534
  0
ARC
  8
_0-2_決定
  6
CONTINUOUS
 62
    7
 10
1005.777785240987
 20
700.49072860831643
 40
10.530106669148044
 50
315.02488679490074
 51
329.88922348556667
  0
ARC
  8
_0-2_決定
  6
CONTINUOUS
 62
    7
 10
1012.3861159708858
 20
693.66276812484568
 40
1.0415563690198923
 50
263.42913289119235
 51
323.82962257012838
  0
ARC
  8
_0-2_決定
  6
CONTINUOUS
 62
    7
 10
1012.7049967845253
 20
693.22309021171327
 40
0.7388993696840375
 50
182.71782569530802
 51
233.63935452466262
  0
ARC
  8
_0-2_決定
  6
CONTINUOUS
 62
    7
 10
1017.1228223909905
 20
693.51162728733175
 40
5.166037281174038
 50
166.15255849839775
 51
183.59105941784753
  0
ARC
  8
_0-2_決定
  6
CONTINUOUS
 62
    7
 10
1039.3305315685345
 20
688.94018598490493
 40
27.836233369468641
 50
155.17301104525274
 51
167.95709130890927
  0
ARC
  8
_0-2_決定
  6
CONTINUOUS
 62
    7
 10
1147.1374700606677
 20
603.75751214726836
 40
8.5358168669893182
 50
272.21199173038332
 51
357.78800826961918
  0
ARC
  8
_0-2_決定
  6
CONTINUOUS
 62
    7
 10
1147.827405711042
 20
603.58218166815107
 40
8.3618997018985421
 50
181.05613201881926
 51
267.52922924409108
  0
ARC
  8
_0-2_決定
  6
CONTINUOUS
 62
    7
 10
1147.7751614659282
 20
603.11982074200807
 40
8.3139506960759118
 50
92.124694828338605
 51
177.87530517166087
  0
ARC
  8
_0-2_決定
  6
CONTINUOUS
 62
    7
 10
1147.2091488030092
 20
602.96133346669899
 40
8.4706454314767825
 50
3.1585268180131871
 51
88.256111919074527
  0
ARC
  8
_0-2_決定
  6
CONTINUOUS
 62
    7
 10
1049.6764386397113
 20
631.60241335695116
 40
9.1742416776043676
 50
317.1914964984918
 51
16.630424407976093
  0
ARC
  8
_0-2_決定
  6
CONTINUOUS
 62
    7
 10
1046.8854826750633
 20
633.49886051025237
 40
12.520699625251623
 50
288.54135705546668
 51
319.5044476150411
  0
ARC
  8
_0-2_決定
  6
CONTINUOUS
 62
    7
 10
1046.8418880912131
 20
633.60072085811748
 40
12.631138614532446
 50
239.58329071172449
 51
288.58191545883159
  0
ARC
  8
_0-2_決定
  6
CONTINUOUS
 62
    7
 10
1045.2627414112371
 20
629.83302191208452
 40
8.5998370704630407
 50
197.63239594409438
 51
235.94497343365913
  0
ARC
  8
_0-2_決定
  6
CONTINUOUS
 62
    7
 10
1045.4691230393612
 20
630.09321273498369
 40
8.8772742049616742
 50
139.41919356290589
 51
198.82942976538408
  0
ARC
  8
_0-2_決定
  6
CONTINUOUS
 62
    7
 10
1047.9481330202973
 20
628.47124895263266
 40
11.821309627501769
 50
106.11504425005904
 51
141.26509080190672
  0
ARC
  8
_0-2_決定
  6
CONTINUOUS
 62
    7
 10
1048.6495735059443
 20
628.03777412286661
 40
12.444765948478594
 50
59.386874203111063
 51
108.66447922392948
  0
ARC
  8
_0-2_決定
  6
CONTINUOUS
 62
    7
 10
1049.8838687376851
 20
631.21950518246945
 40
9.0950696373557953
 50
19.31668147907839
 51
55.869494263918767
  0
ARC
  8
_0-2_決定
  6
CONTINUOUS
 62
    7
 10
1074.2977205526724
 20
538.38180738958317
 40
3.6944401600725882
 50
345.03916827698288
 51
33.261345279026159
  0
ARC
  8
_0-2_決定
  6
CONTINUOUS
 62
    7
 10
1070.4468455734789
 20
536.38136738784078
 40
8.0236506745473726
 50
30.122629013993333
 51
44.528411952226385
  0
ARC
  8
_0-2_決定
  6
CONTINUOUS
 62
    7
 10
1065.2786894280118
 20
531.14003486412776
 40
15.384005562669682
 50
44.946754424848272
 51
66.687165416200187
  0
ARC
  8
_0-2_決定
  6
CONTINUOUS
 62
    7
 10
1060.6736149871117
 20
522.49917852840372
 40
25.154894567204643
 50
64.843087570598925
 51
75.276311292737986
  0
ARC
  8
_0-2_決定
  6
CONTINUOUS
 62
    7
 10
1060.9778350335821
 20
524.35714434546867
 40
23.281299685696673
 50
74.838278978277515
 51
93.770314257237374
  0
ARC
  8
_0-2_決定
  6
CONTINUOUS
 62
    7
 10
1060.2440849679213
 20
536.30599831990185
 40
11.310184619470311
 50
94.041631461864384
 51
119.31249326113512
  0
ARC
  8
_0-2_決定
  6
CONTINUOUS
 62
    7
 10
1057.0194357055154
 20
542.45625515952088
 40
4.3732313317435318
 50
121.92352275745361
 51
161.71878197209918
  0
ARC
  8
_0-2_決定
  6
CONTINUOUS
 62
    7
 10
1056.7975793931068
 20
543.01688797017152
 40
4.0134784246854514
 50
168.33957478389607
 51
214.42335071284867
  0
ARC
  8
_0-2_決定
  6
CONTINUOUS
 62
    7
 10
1060.788528309462
 20
545.27127474036274
 40
8.5891134532868314
 50
211.77752317786917
 51
226.04542051371186
  0
ARC
  8
_0-2_決定
  6
CONTINUOUS
 62
    7
 10
1065.9672332739299
 20
550.67731262618008
 40
16.075362092912997
 50
226.13155391133452
 51
247.85243182305879
  0
ARC
  8
_0-2_決定
  6
CONTINUOUS
 62
    7
 10
1070.0901847628736
 20
558.99400757078365
 40
25.341959499726251
 50
246.30713086119209
 51
255.78440573977929
  0
ARC
  8
_0-2_決定
  6
CONTINUOUS
 62
    7
 10
1069.3851143690531
 20
554.55427346995305
 40
20.868996577664994
 50
254.66749168841758
 51
282.85158272588041
  0
ARC
  8
_0-2_決定
  6
CONTINUOUS
 62
    7
 10
1072.1990377758593
 20
540.84005874307252
 40
6.879291359451754
 50
285.40909584692247
 51
317.45003538276166
  0
ARC
  8
_0-2_決定
  6
CONTINUOUS
 62
    7
 10
1074.7060484046413
 20
538.19235250231714
 40
3.251970627460572
 50
321.9511568668251
 51
346.40685918484576
  0
ARC
  8
_0-2_決定
  6
CONTINUOUS
 62
    7
 10
1180.4147481385551
 20
571.15294119722432
 40
4.0528745431647941
 50
1.0619593429490688
 51
47.229124577890772
  0
ARC
  8
_0-2_決定
  6
CONTINUOUS
 62
    7
 10
1178.3910889790766
 20
569.10343901915553
 40
6.9322000021933148
 50
46.454109151576894
 51
92.680233489628293
  0
ARC
  8
_0-2_決定
  6
CONTINUOUS
 62
    7
 10
1177.9959495570993
 20
568.60133002839734
 40
7.4270647840055091
 50
89.452442630760245
 51
137.19504721430221
  0
ARC
  8
_0-2_決定
  6
CONTINUOUS
 62
    7
 10
1175.7110587365455
 20
571.12746213537685
 40
4.0453830716868264
 50
141.45866521934619
 51
178.5751217368701
  0
ARC
  8
_0-2_決定
  6
CONTINUOUS
 62
    7
 10
1175.7191049620089
 20
571.30317011808313
 40
4.0528745431642168
 50
181.06195934295272
 51
227.22912457789442
  0
ARC
  8
_0-2_決定
  6
CONTINUOUS
 62
    7
 10
1177.7427641214874
 20
573.35267229615079
 40
6.9322000021919585
 50
226.45410915157271
 51
272.68023348962413
  0
ARC
  8
_0-2_決定
  6
CONTINUOUS
 62
    7
 10
1178.1379035434647
 20
573.85478128691159
 40
7.4270647840067996
 50
269.45244263075597
 51
317.19504721429792
  0
ARC
  8
_0-2_決定
  6
CONTINUOUS
 62
    7
 10
1180.4227943640203
 20
571.32864917993072
 40
4.0453830716860919
 50
321.45866521934238
 51
358.57512173686632
  0
ARC
  8
_0-2_決定
  6
CONTINUOUS
 62
    7
 10
1126.6760427540314
 20
530.9066191151245
 40
1.3931008403994671
 50
316.52176183858199
 51
356.76710844296258
  0
ARC
  8
_0-2_決定
  6
CONTINUOUS
 62
    7
 10
1125.0860803254748
 20
532.41153504585088
 40
3.5823360787577929
 50
295.12157275052868
 51
316.5537331579855
  0
ARC
  8
_0-2_決定
  6
CONTINUOUS
 62
    7
 10
1122.9984490799959
 20
536.54271738939292
 40
8.2101611014119786
 50
281.86796452919492
 51
296.07285108778763
  0
ARC
  8
_0-2_決定
  6
CONTINUOUS
 62
    7
 10
1122.0789463928693
 20
540.51344141629852
 40
12.285391638662947
 50
269.94394266126892
 51
282.25617725938037
  0
ARC
  8
_0-2_決定
  6
CONTINUOUS
 62
    7
 10
1121.8546535346993
 20
538.66199919634153
 40
10.436102605938295
 50
243.18571250441505
 51
271.16549129110894
  0
ARC
  8
_0-2_決定
  6
CONTINUOUS
 62
    7
 10
1118.1292564368621
 20
531.19894503434762
 40
2.0954148731995752
 50
190.19509303893
 51
242.04358866003034
  0
ARC
  8
_0-2_決定
  6
CONTINUOUS
 62
    7
 10
1117.7145111965317
 20
530.77894293045949
 40
1.6483164825149244
 50
141.36611316997215
 51
178.29258000626939
  0
ARC
  8
_0-2_決定
  6
CONTINUOUS
 62
    7
 10
1118.9398013010973
 20
529.80047363838719
 40
3.2163527600942139
 50
118.46278733016104
 51
141.37799694981106
  0
ARC
  8
_0-2_決定
  6
CONTINUOUS
 62
    7
 10
1120.7826265825715
 20
526.5085967505529
 40
6.9887858762231501
 50
103.3668272030656
 51
118.88261108908854
  0
ARC
  8
_0-2_決定
  6
CONTINUOUS
 62
    7
 10
1121.9354983253018
 20
521.51849894653049
 40
12.110269902782161
 50
89.378178150663814
 51
103.21545928729411
  0
ARC
  8
_0-2_決定
  6
CONTINUOUS
 62
    7
 10
1122.2373039056085
 20
523.58101595669189
 40
10.04848422379769
 50
62.179733143279421
 51
90.971526746661738
  0
ARC
  8
_0-2_決定
  6
CONTINUOUS
 62
    7
 10
1125.8249737323079
 20
530.4858445524776
 40
2.2679199453521486
 50
8.6786260817603385
 51
60.929397423632096
  0
ARC
  8
_0-2_決定
  6
CONTINUOUS
 62
    7
 10
1160.5006401838737
 20
556.49109306042976
 40
3.1692472461366021
 50
310.69106530535606
 51
2.4768731781559614
  0
ARC
  8
_0-2_決定
  6
CONTINUOUS
 62
    7
 10
1161.6804999110027
 20
555.46876325515814
 40
1.6407637418681693
 50
269.52601027564737
 51
302.70082619052948
  0
ARC
  8
_0-2_決定
  6
CONTINUOUS
 62
    7
 10
1161.7330369097122
 20
555.40789937394402
 40
1.5812263429139817
 50
230.48465566655952
 51
267.60379087221003
  0
ARC
  8
_0-2_決定
  6
CONTINUOUS
 62
    7
 10
1162.6679026285112
 20
556.48151247852411
 40
3.0045519342245601
 50
177.20436244915183
 51
229.7584189160826
  0
ARC
  8
_0-2_決定
  6
CONTINUOUS
 62
    7
 10
1162.5963169035706
 20
556.6183630863369
 40
2.9294063883115218
 50
126.66837745326958
 51
179.81042424001424
  0
ARC
  8
_0-2_決定
  6
CONTINUOUS
 62
    7
 10
1161.6935657117667
 20
557.7209629175868
 40
1.5073281567351584
 50
91.012646769366469
 51
124.17220235497648
  0
ARC
  8
_0-2_決定
  6
CONTINUOUS
 62
    7
 10
1161.596619884758
 20
557.33566112372648
 40
1.8937001080568452
 50
20.797683978023606
 51
87.872312948246162
  0
ARC
  8
_0-2_決定
  6
CONTINUOUS
 62
    7
 10
1160.3623433520372
 20
556.63227670151298
 40
3.3045858940774142
 50
359.92681441130998
 51
24.602733044497331
  0
ARC
  8
_0-2_決定
  6
CONTINUOUS
 62
    7
 10
1199.9633510580659
 20
532.69490121253546
 40
3.3062578754581118
 50
312.2630517639526
 51
2.3081235297106839
  0
ARC
  8
_0-2_決定
  6
CONTINUOUS
 62
    7
 10
1201.4644507362927
 20
531.32434013980048
 40
1.2962868464616342
 50
270.10943085559927
 51
303.87221572841099
  0
ARC
  8
_0-2_決定
  6
CONTINUOUS
 62
    7
 10
1201.5266105682249
 20
531.89520310160742
 40
1.8681011106094845
 50
199.61595354183203
 51
268.16914387465897
  0
ARC
  8
_0-2_決定
  6
CONTINUOUS
 62
    7
 10
1203.297931252624
 20
532.75594117733579
 40
3.8316833804002419
 50
178.92159687544188
 51
202.84945723389674
  0
ARC
  8
_0-2_決定
  6
CONTINUOUS
 62
    7
 10
1202.3535534414984
 20
532.90389374317795
 40
2.8876229366574484
 50
127.71924650380674
 51
181.50494091398633
  0
ARC
  8
_0-2_決定
  6
CONTINUOUS
 62
    7
 10
1201.4509514055133
 20
533.75329785514236
 40
1.6748339924672808
 50
89.453484789409799
 51
121.05675261672533
  0
ARC
  8
_0-2_決定
  6
CONTINUOUS
 62
    7
 10
1201.4177267277412
 20
534.0000561013029
 40
1.428846862150337
 50
48.370450243111435
 51
88.026730784131914
  0
ARC
  8
_0-2_決定
  6
CONTINUOUS
 62
    7
 10
1200.438892847644
 20
532.99259568784282
 40
2.8328162744510483
 50
356.67018354290644
 51
47.10892999694638
  0
ARC
  8
_0-2_決定
  6
CONTINUOUS
 62
    7
 10
975.3204192255314
 20
557.88702993849404
 40
11.347385694956669
 50
345.51139109738148
 51
0.7120923486502507
  0
ARC
  8
_0-2_決定
  6
CONTINUOUS
 62
    7
 10
982.5177525591173
 20
555.8616821069827
 40
3.8755441799916879
 50
323.34601383464803
 51
347.88124396172316
  0
ARC
  8
_0-2_決定
  6
CONTINUOUS
 62
    7
 10
985.0079132078381
 20
553.9813325069299
 40
0.7555850860753554
 50
274.47967744760683
 51
325.01008514636999
  0
ARC
  8
_0-2_決定
  6
CONTINUOUS
 62
    7
 10
985.12570907192162
 20
554.16130775408396
 40
0.9351013983604465
 50
217.80944968641893
 51
266.39600825170288
  0
ARC
  8
_0-2_決定
  6
CONTINUOUS
 62
    7
 10
986.86336797385616
 20
555.47223180830474
 40
3.1117313485120377
 50
194.21605867768801
 51
217.2653580347579
  0
ARC
  8
_0-2_決定
  6
CONTINUOUS
 62
    7
 10
994.83570223798984
 20
557.64755385082537
 40
11.375139418367839
 50
178.08308148962885
 51
194.97599050806875
  0
ARC
  8
_0-2_決定
  6
CONTINUOUS
 62
    7
 10
995.49292572611057
 20
558.22120982967567
 40
12.027548237575003
 50
165.91594022892284
 51
180.92017046074085
  0
ARC
  8
_0-2_決定
  6
CONTINUOUS
 62
    7
 10
987.03140516759754
 20
560.50032737136212
 40
3.2692846807497866
 50
141.66662430090508
 51
168.57264198071857
  0
ARC
  8
_0-2_決定
  6
CONTINUOUS
 62
    7
 10
985.10027668149382
 20
562.01135939523124
 40
0.8173768304219947
 50
92.33825767887862
 51
140.7918446752665
  0
ARC
  8
_0-2_決定
  6
CONTINUOUS
 62
    7
 10
984.93816168891408
 20
561.99888518503963
 40
0.8391093952770257
 50
32.363872010967704
 51
81.172705853051895
  0
ARC
  8
_0-2_決定
  6
CONTINUOUS
 62
    7
 10
982.20261390798646
 20
560.06991043813446
 40
4.1855558818700649
 50
14.926937484564212
 51
34.623343653054341
  0
ARC
  8
_0-2_決定
  6
CONTINUOUS
 62
    7
 10
975.72284044637377
 20
558.14308225905165
 40
10.944692574263
 50
359.39782135673505
 51
15.93578716688411
  0
ARC
  8
_0-2_決定
  6
CONTINUOUS
 62
    7
 10
1004.1479672384858
 20
657.95248900224533
 40
8.3252853164312519
 50
270.81873627165623
 51
357.76662499125575
  0
ARC
  8
_0-2_決定
  6
CONTINUOUS
 62
    7
 10
1004.5751634659282
 20
657.93628857329986
 40
8.3139506960758922
 50
182.12469482833927
 51
267.87530517166152
  0
ARC
  8
_0-2_決定
  6
CONTINUOUS
 62
    7
 10
1004.7336507412367
 20
657.37027591038077
 40
8.4706454314767612
 50
93.158526818012547
 51
178.2561119190739
  0
ARC
  8
_0-2_決定
  6
CONTINUOUS
 62
    7
 10
1003.9934666650813
 20
657.35459177245298
 40
8.4778734198269028
 50
1.848450592018986
 51
88.151549407981733
  0
ARC
  8
_0-2_決定
  6
CONTINUOUS
 62
    7
 10
1253.1906713539663
 20
526.96241556096834
 40
13.078951116780036
 50
346.85502434852839
 51
1.1637862156439025
  0
ARC
  8
_0-2_決定
  6
CONTINUOUS
 62
    7
 10
1262.5227642307605
 20
524.63879357744179
 40
3.4657996654824141
 50
322.89710065829911
 51
349.17792139253191
  0
ARC
  8
_0-2_決定
  6
CONTINUOUS
 62
    7
 10
1264.63211132059
 20
523.05613129018161
 40
0.8288071030995635
 50
272.40736129190293
 51
322.19178313082256
  0
ARC
  8
_0-2_決定
  6
CONTINUOUS
 62
    7
 10
1264.7902607311082
 20
523.03546749449379
 40
0.8167776244304374
 50
213.21462573670186
 51
261.31492171909764
  0
ARC
  8
_0-2_決定
  6
CONTINUOUS
 62
    7
 10
1267.3969414076239
 20
524.92758749448137
 40
4.0370311043046483
 50
195.51004783540617
 51
215.41664228828992
  0
ARC
  8
_0-2_決定
  6
CONTINUOUS
 62
    7
 10
1274.6770805242832
 20
527.02079785545618
 40
11.612005749964641
 50
178.97729744630834
 51
195.85652999200207
  0
ARC
  8
_0-2_決定
  6
CONTINUOUS
 62
    7
 10
1274.3721145006541
 20
527.29699759484663
 40
11.305400161192997
 50
165.4978436713393
 51
180.34939997336474
  0
ARC
  8
_0-2_決定
  6
CONTINUOUS
 62
    7
 10
1267.6377173164767
 20
529.22078701597957
 40
4.3074252295310682
 50
145.05468807576472
 51
167.84078457845575
  0
ARC
  8
_0-2_決定
  6
CONTINUOUS
 62
    7
 10
1264.7327451611206
 20
531.28846876921432
 40
0.7425100122978747
 50
95.085722541368824
 51
147.44174084736935
  0
ARC
  8
_0-2_決定
  6
CONTINUOUS
 62
    7
 10
1264.6024253307392
 20
531.12480708849137
 40
0.9055485227285295
 50
36.863527658524845
 51
85.915553009504976
  0
ARC
  8
_0-2_決定
  6
CONTINUOUS
 62
    7
 10
1262.6859665228985
 20
529.71918080257763
 40
3.2821901991128084
 50
14.267163616502584
 51
36.425188267375745
  0
ARC
  8
_0-2_決定
  6
CONTINUOUS
 62
    7
 10
1254.8591441758449
 20
527.51953682438989
 40
11.411503596895265
 50
358.53634912713306
 51
15.286105110903016
  0
LINE
  8
_0-2_決定
  6
CONTINUOUS
 62
    7
 10
1401.4669225502817
 20
491.42805765765365
 11
941.86693055028263
 21
756.62805365765394
  0
LINE
  8
_0-2_決定
  6
CONTINUOUS
 62
    7
 10
941.86693055028263
 20
756.62805365765394
 11
1112.6669265502821
 21
855.22805165765362
  0
LINE
  8
_0-2_決定
  6
CONTINUOUS
 62
    7
 10
1112.6669265502821
 20
855.22805165765362
 11
1112.4669265502823
 21
848.02805165765392
  0
LINE
  8
_0-2_決定
  6
CONTINUOUS
 62
    7
 10
1112.4669265502823
 20
848.02805165765392
 11
1726.8669185502822
 21
493.42805765765371
  0
LINE
  8
_0-2_決定
  6
CONTINUOUS
 62
    7
 10
941.86693055028263
 20
1538.4280416576541
 11
941.86693055028263
 21
758.62805365765416
  0
LINE
  8
_0-2_決定
  6
CONTINUOUS
 62
    7
 10
941.86693055028263
 20
758.62805365765416
 11
1399.2669225502821
 21
493.42805765765371
  0
LINE
  8
_0-2_決定
  6
CONTINUOUS
 62
    7
 10
1112.6669265502821
 20
848.02805165765392
 11
1726.8669185502822
 21
493.42805765765371
  0
LINE
  8
_0-2_決定
  6
CONTINUOUS
 62
    7
 10
1828.0669165502823
 20
491.22805765765384
 11
1112.6669265502821
 21
904.22805165765362
  0
LINE
  8
_0-2_決定
  6
CONTINUOUS
 62
    7
 10
1112.6669265502821
 20
904.22805165765362
 11
1112.6669265502821
 21
848.02805165765392
  0
LINE
  8
_0-2_決定
  6
CONTINUOUS
 62
    7
 10
1112.6669265502821
 20
848.02805165765392
 11
1728.6669185502822
 21
492.42805765765365
  0
LINE
  8
_0-2_決定
  6
CONTINUOUS
 62
    7
 10
1402.0669225502822
 20
1084.2280476576536
 11
1108.8669265502822
 21
914.82804965765376
  0
LINE
  8
_0-2_決定
  6
CONTINUOUS
 62
    7
 10
1108.8669265502822
 20
914.82804965765376
 11
1108.8669265502822
 21
872.62805165765371
  0
LINE
  8
_0-2_決定
  6
CONTINUOUS
 62
    7
 10
1108.8669265502822
 20
872.62805165765371
 11
1111.0669265502818
 21
871.4280516576539
  0
LINE
  8
_0-2_決定
  6
CONTINUOUS
 62
    7
 10
1111.0669265502818
 20
871.4280516576539
 11
1111.0669265502818
 21
910.42804965765367
  0
LINE
  8
_0-2_決定
  6
CONTINUOUS
 62
    7
 10
1111.0669265502818
 20
910.42804965765367
 11
1186.8669265502822
 21
866.82805165765399
  0
LINE
  8
_0-2_決定
  6
CONTINUOUS
 62
    7
 10
1186.8669265502822
 20
866.82805165765399
 11
1223.0669265502818
 21
846.02805165765392
  0
ARC
  8
_0-2_決定
  6
CONTINUOUS
 62
    7
 10
1221.4011424432979
 20
844.49088261753423
 40
2.2666551014615766
 50
358.4115757165797
 51
42.700514722626409
  0
ARC
  8
_0-2_決定
  6
CONTINUOUS
 62
    7
 10
1222.9195752661703
 20
844.22139140197964
 40
0.7753982222954493
 50
305.23497487971855
 51
15.45737700414502
  0
ARC
  8
_0-2_決定
  6
CONTINUOUS
 62
    7
 10
1223.2647252820223
 20
843.96654214570958
 40
0.3920461054297144
 50
239.69989137327366
 51
285.11082188957323
  0
LINE
  8
_0-2_決定
  6
CONTINUOUS
 62
    7
 10
1223.0669265502818
 20
843.62805165765383
 11
1209.8669265502817
 21
851.02805165765392
  0
LINE
  8
_0-2_決定
  6
CONTINUOUS
 62
    7
 10
1209.8669265502817
 20
851.02805165765392
 11
1209.8669265502817
 21
848.02805165765392
  0
LINE
  8
_0-2_決定
  6
CONTINUOUS
 62
    7
 10
1209.8669265502817
 20
848.02805165765392
 11
1223.0669265502818
 21
840.62805165765383
  0
LINE
  8
_0-2_決定
  6
CONTINUOUS
 62
    7
 10
1223.0669265502818
 20
840.62805165765383
 11
1223.6669265502824
 21
840.0280516576538
  0
LINE
  8
_0-2_決定
  6
CONTINUOUS
 62
    7
 10
1223.6669265502824
 20
840.0280516576538
 11
1520.0669205502825
 21
1011.2280496576534
  0
ARC
  8
_0-2_決定
  6
CONTINUOUS
 62
    7
 10
1495.5373866767686
 20
998.13775915945916
 40
27.803843931711803
 50
28.086801201352465
 51
34.805670603194088
  0
ARC
  8
_0-2_決定
  6
CONTINUOUS
 62
    7
 10
1340.4344602617798
 20
900.42639019236367
 40
211.09418227703131
 50
32.551776291235846
 51
33.986673044182027
  0
LINE
  8
_0-2_決定
  6
CONTINUOUS
 62
    7
 10
1515.4669205502821
 20
1018.4280496576542
 11
1402.0669225502822
 21
1084.2280476576536
  0
LINE
  8
_0-2_決定
  6
CONTINUOUS
 62
    7
 10
1108.8669265502822
 20
914.82804965765376
 11
1186.8669265502822
 21
869.82805165765399
  0
LINE
  8
_0-2_決定
  6
CONTINUOUS
 62
    7
 10
1186.8669265502822
 20
869.82805165765399
 11
1223.0669265502818
 21
849.0280516576538
  0
ARC
  8
_0-2_決定
  6
CONTINUOUS
 62
    7
 10
1220.38345429933
 20
844.95875489079685
 40
4.8744435065328116
 50
35.192951931281897
 51
56.597395489174048
  0
ARC
  8
_0-2_決定
  6
CONTINUOUS
 62
    7
 10
1217.5488831475948
 20
843.00310121376606
 40
8.3180808227400842
 50
0.1718614312481658
 51
34.948682672346472
  0
ARC
  8
_0-2_決定
  6
CONTINUOUS
 62
    7
 10
1221.8869572172614
 20
842.88406846062367
 40
3.9825729187061985
 50
336.06048278284248
 51
2.0718836456480703
  0
ARC
  8
_0-2_決定
  6
CONTINUOUS
 62
    7
 10
1224.027948718631
 20
841.98193519806182
 40
1.6602904110566263
 50
234.63186478225083
 51
334.53401987672777
  0
LINE
  8
_0-2_決定
  6
CONTINUOUS
 62
    7
 10
1223.0669265502818
 20
840.62805165765383
 11
1209.8669265502817
 21
848.02805165765392
  0
LINE
  8
_0-2_決定
  6
CONTINUOUS
 62
    7
 10
1209.8669265502817
 20
848.02805165765392
 11
1209.8669265502817
 21
851.02805165765392
  0
LINE
  8
_0-2_決定
  6
CONTINUOUS
 62
    7
 10
1209.8669265502817
 20
851.02805165765392
 11
1223.0669265502818
 21
843.62805165765383
  0
ARC
  8
_0-2_決定
  6
CONTINUOUS
 62
    7
 10
1223.2472271765337
 20
843.90666877689341
 40
0.3318671646312348
 50
237.09200871830862
 51
327.43753873745851
  0
ARC
  8
_0-2_決定
  6
CONTINUOUS
 62
    7
 10
1222.2893464432254
 20
844.33956767906625
 40
1.3804189095435224
 50
333.70499221097884
 51
3.6751428408839923
  0
ARC
  8
_0-2_決定
  6
CONTINUOUS
 62
    7
 10
1221.3639091566974
 20
844.476920135059
 40
2.3035358133176715
 50
358.78440458516565
 51
42.327685854040475
  0
LINE
  8
_0-2_決定
  6
CONTINUOUS
 62
    7
 10
1223.0669265502818
 20
846.02805165765392
 11
1186.8669265502822
 21
866.82805165765399
  0
LINE
  8
_0-2_決定
  6
CONTINUOUS
 62
    7
 10
1186.8669265502822
 20
866.82805165765399
 11
1111.0669265502818
 21
910.42804965765367
  0
LINE
  8
_0-2_決定
  6
CONTINUOUS
 62
    7
 10
1111.0669265502818
 20
910.42804965765367
 11
1111.0669265502818
 21
871.4280516576539
  0
LINE
  8
_0-2_決定
  6
CONTINUOUS
 62
    7
 10
1111.0669265502818
 20
871.4280516576539
 11
1108.8669265502822
 21
872.62805165765371
  0
LINE
  8
_0-2_決定
  6
CONTINUOUS
 62
    7
 10
1108.8669265502822
 20
872.62805165765371
 11
1108.8669265502822
 21
914.82804965765376
  0
ARC
  8
_0-2_決定
  6
CONTINUOUS
 62
    7
 10
1231.4113105091301
 20
895.02036033728984
 40
13.194010835956744
 50
300.2943323020246
 51
326.13445221786873
  0
ARC
  8
_0-2_決定
  6
CONTINUOUS
 62
    7
 10
1236.0422649534823
 20
891.38538859277537
 40
7.3362056203883972
 50
329.55499394561241
 51
47.19850465947134
  0
ARC
  8
_0-2_決定
  6
CONTINUOUS
 62
    7
 10
1231.2728387955158
 20
887.06119335937558
 40
13.761007446787165
 50
44.860950068644954
 51
60.414603823406743
  0
ARC
  8
_0-2_決定
  6
CONTINUOUS
 62
    7
 10
1226.7024791519189
 20
879.43611390415356
 40
22.649386075723569
 50
59.883808341411573
 51
79.250534299790004
  0
ARC
  8
_0-2_決定
  6
CONTINUOUS
 62
    7
 10
1224.9080368005693
 20
872.19022176267617
 40
30.105630741312041
 50
78.467384920278988
 51
116.94328287595538
  0
ARC
  8
_0-2_決定
  6
CONTINUOUS
 62
    7
 10
1217.4577418083268
 20
887.5791205471503
 40
13.015537527597187
 50
118.40155395446224
 51
144.00767131334339
  0
ARC
  8
_0-2_決定
  6
CONTINUOUS
 62
    7
 10
1212.9859876911328
 20
891.36412300844154
 40
7.1862484311889121
 50
147.47390292053004
 51
227.23881188887034
  0
ARC
  8
_0-2_決定
  6
CONTINUOUS
 62
    7
 10
1218.4717903036128
 20
896.14267338957711
 40
14.440423082346976
 50
224.12954756452194
 51
240.07029172475583
  0
ARC
  8
_0-2_決定
  6
CONTINUOUS
 62
    7
 10
1222.6011045512334
 20
904.14234100919521
 40
23.43714271313803
 50
241.07927875774283
 51
260.18771040025547
  0
ARC
  8
_0-2_決定
  6
CONTINUOUS
 62
    7
 10
1224.6010532225259
 20
912.79985324325992
 40
32.312636204658453
 50
259.30947574764554
 51
288.56157104082081
  0
ARC
  8
_0-2_決定
  6
CONTINUOUS
 62
    7
 10
1227.6877551013079
 20
902.04158947116809
 40
21.137302921066205
 50
289.91287442603647
 51
299.40868134867014
  0
LINE
  8
_0-2_決定
  6
CONTINUOUS
 62
    7
 10
1221.6669265502824
 20
891.4280516576539
 11
1216.6669265502824
 21
888.62805165765383
  0
ARC
  8
_0-2_決定
  6
CONTINUOUS
 62
    7
 10
1216.9012128454253
 20
887.4944273409144
 40
1.1575811676053822
 50
101.67692863295227
 51
164.28034148630073
  0
ARC
  8
_0-2_決定
  6
CONTINUOUS
 62
    7
 10
1216.2057825490742
 20
887.86769777430607
 40
0.4230815606426851
 50
188.10456928258824
 51
250.84035041400077
  0
ARC
  8
_0-2_決定
  6
CONTINUOUS
 62
    7
 10
1217.2635426686898
 20
890.25061881768477
 40
3.0289552877049992
 50
246.73034473909462
 51
266.27818869929365
  0
ARC
  8
_0-2_決定
  6
CONTINUOUS
 62
    7
 10
1218.3612990716686
 20
887.80859584363827
 40
1.4186020499069663
 50
204.15690178495225
 51
279.15171096892533
  0
ARC
  8
_0-2_決定
  6
CONTINUOUS
 62
    7
 10
1218.0579279833157
 20
889.36690511556606
 40
3.0057699960661219
 50
280.13652890420462
 51
302.36448211008712
  0
LINE
  8
_0-2_決定
  6
CONTINUOUS
 62
    7
 10
1219.6669265502819
 20
886.82805165765399
 11
1224.6669265502819
 21
889.82805165765399
  0
LINE
  8
_0-2_決定
  6
CONTINUOUS
 62
    7
 10
1224.6669265502819
 20
889.82805165765399
 11
1229.6669265502819
 21
886.82805165765399
  0
ARC
  8
_0-2_決定
  6
CONTINUOUS
 62
    7
 10
1231.0720830429298
 20
888.85173140698839
 40
2.4636851456094169
 50
235.22554329909448
 51
269.88007985433421
  0
ARC
  8
_0-2_決定
  6
CONTINUOUS
 62
    7
 10
1231.0046701370047
 20
887.75413224805084
 40
1.3674984608594885
 50
272.60933606091652
 51
337.37470433615306
  0
ARC
  8
_0-2_決定
  6
CONTINUOUS
 62
    7
 10
1232.3895345540168
 20
888.90654231329347
 40
1.6829627457700405
 50
265.82215936540871
 51
311.60131638480664
  0
ARC
  8
_0-2_決定
  6
CONTINUOUS
 62
    7
 10
1233.2359951039903
 20
887.81163782120211
 40
0.3164874112730621
 50
328.87676839836803
 51
43.141243516505028
  0
ARC
  8
_0-2_決定
  6
CONTINUOUS
 62
    7
 10
1231.6455266428293
 20
886.43285178104804
 40
2.4211898457565497
 50
41.212192989862494
 51
65.048011718486109
  0
LINE
  8
_0-2_決定
  6
CONTINUOUS
 62
    7
 10
1232.6669265502821
 20
888.62805165765383
 11
1227.6669265502821
 21
891.4280516576539
  0
LINE
  8
_0-2_決定
  6
CONTINUOUS
 62
    7
 10
1227.6669265502821
 20
891.4280516576539
 11
1232.6669265502821
 21
894.22805165765362
  0
ARC
  8
_0-2_決定
  6
CONTINUOUS
 62
    7
 10
1232.2204978424033
 20
895.52789980971056
 40
1.3743739700764719
 50
288.95487087862671
 51
344.82150513484413
  0
ARC
  8
_0-2_決定
  6
CONTINUOUS
 62
    7
 10
1233.1087084071626
 20
895.14716555972973
 40
0.4387155912956379
 50
2.7287331183987997
 51
66.031956329297103
  0
ARC
  8
_0-2_決定
  6
CONTINUOUS
 62
    7
 10
1232.1076712862284
 20
893.25005033860225
 40
2.5829156084088329
 50
62.834664730302727
 51
86.46506228482049
  0
ARC
  8
_0-2_決定
  6
CONTINUOUS
 62
    7
 10
1231.0970242879259
 20
895.18578683885789
 40
1.3346068338392874
 50
28.766352437683508
 51
106.09962940657448
  0
ARC
  8
_0-2_決定
  6
CONTINUOUS
 62
    7
 10
1231.5486789034937
 20
892.9915573521879
 40
3.5722947227161845
 50
103.29912471544682
 51
121.78699728465419
  0
LINE
  8
_0-2_決定
  6
CONTINUOUS
 62
    7
 10
1229.6669265502819
 20
896.02805165765392
 11
1224.6669265502819
 21
893.22805165765374
  0
LINE
  8
_0-2_決定
  6
CONTINUOUS
 62
    7
 10
1224.6669265502819
 20
893.22805165765374
 11
1219.6669265502819
 21
896.02805165765392
  0
ARC
  8
_0-2_決定
  6
CONTINUOUS
 62
    7
 10
1218.120299855975
 20
893.7841454624695
 40
2.7252833145070197
 50
55.423198001671892
 51
88.178471892226298
  0
ARC
  8
_0-2_決定
  6
CONTINUOUS
 62
    7
 10
1218.2016634586344
 20
895.22128684070992
 40
1.2867755803784653
 50
89.76565161477042
 51
151.86575988866133
  0
ARC
  8
_0-2_決定
  6
CONTINUOUS
 62
    7
 10
1217.0012126725189
 20
894.09151987983432
 40
1.7377747060848392
 50
87.832845792205902
 51
130.74724664617608
  0
ARC
  8
_0-2_決定
  6
CONTINUOUS
 62
    7
 10
1216.1692392739851
 20
895.17385562475863
 40
0.3824143887676405
 50
142.23572334017956
 51
212.55915225494448
  0
ARC
  8
_0-2_決定
  6
CONTINUOUS
 62
    7
 10
1217.7313654625968
 20
896.23188937129862
 40
2.2690076643049788
 50
213.84859411503487
 51
242.02275277778466
  0
LINE
  8
_0-2_決定
  6
CONTINUOUS
 62
    7
 10
1216.6669265502824
 20
894.22805165765362
 11
1221.6669265502824
 21
891.4280516576539
  0
LINE
  8
_0-2_決定
  6
CONTINUOUS
 62
    7
 10
1221.6669265502824
 20
890.8280516576541
 11
1216.8669265502822
 21
887.8280516576541
  0
ARC
  8
_0-2_決定
  6
CONTINUOUS
 62
    7
 10
1217.1012128454256
 20
886.69442734091444
 40
1.1575811676056853
 50
101.67692863296834
 51
164.28034148631679
  0
ARC
  8
_0-2_決定
  6
CONTINUOUS
 62
    7
 10
1216.4057825490747
 20
887.06769777430679
 40
0.4230815606433727
 50
188.10456928270315
 51
250.84035041411568
  0
ARC
  8
_0-2_決定
  6
CONTINUOUS
 62
    7
 10
1217.4635426686891
 20
889.45061881768311
 40
3.0289552877030594
 50
246.73034473911179
 51
266.27818869931082
  0
ARC
  8
_0-2_決定
  6
CONTINUOUS
 62
    7
 10
1218.3413037820903
 20
886.79030232065713
 40
1.1338042066748064
 50
198.63270138426887
 51
283.54893131340452
  0
ARC
  8
_0-2_決定
  6
CONTINUOUS
 62
    7
 10
1217.8872113283112
 20
889.10738717558525
 40
3.4942589178429326
 50
281.88633326906461
 51
304.51084775823705
  0
LINE
  8
_0-2_決定
  6
CONTINUOUS
 62
    7
 10
1219.8669265502817
 20
886.22805165765374
 11
1224.6669265502819
 21
889.0280516576538
  0
LINE
  8
_0-2_決定
  6
CONTINUOUS
 62
    7
 10
1224.6669265502819
 20
889.0280516576538
 11
1229.6669265502819
 21
886.22805165765374
  0
ARC
  8
_0-2_決定
  6
CONTINUOUS
 62
    7
 10
1231.414785614518
 20
888.52692368806606
 40
2.8878753298305537
 50
232.75385104590788
 51
265.47454603272183
  0
ARC
  8
_0-2_決定
  6
CONTINUOUS
 62
    7
 10
1231.2162651471269
 20
886.74512129279219
 40
1.0974618615731417
 50
268.46812165349814
 51
343.20718425507022
  0
ARC
  8
_0-2_決定
  6
CONTINUOUS
 62
    7
 10
1232.3895345540168
 20
888.10654231329386
 40
1.6829627457700405
 50
265.82215936540871
 51
311.60131638480664
  0
ARC
  8
_0-2_決定
  6
CONTINUOUS
 62
    7
 10
1233.2359951039907
 20
887.01163782120238
 40
0.3164874112726816
 50
328.8767683983753
 51
43.141243516512276
  0
ARC
  8
_0-2_決定
  6
CONTINUOUS
 62
    7
 10
1231.6455266428281
 20
885.6328517810482
 40
2.4211898457572203
 50
41.212192989841327
 51
65.048011718464949
  0
LINE
  8
_0-2_決定
  6
CONTINUOUS
 62
    7
 10
1232.6669265502821
 20
887.8280516576541
 11
1227.866926550282
 21
890.8280516576541
  0
LINE
  8
_0-2_決定
  6
CONTINUOUS
 62
    7
 10
1227.866926550282
 20
890.8280516576541
 11
1232.6669265502821
 21
893.62805165765383
  0
ARC
  8
_0-2_決定
  6
CONTINUOUS
 62
    7
 10
1232.4326402551387
 20
894.76167597439326
 40
1.1575811676056853
 50
281.67692863296838
 51
344.28034148631679
  0
ARC
  8
_0-2_決定
  6
CONTINUOUS
 62
    7
 10
1233.1280705514903
 20
894.38840554100182
 40
0.4230815606426786
 50
8.1045692825889883
 51
70.84035041400152
  0
ARC
  8
_0-2_決定
  6
CONTINUOUS
 62
    7
 10
1232.0703104318759
 20
892.005484497623
 40
3.0289552877046875
 50
66.730344739119175
 51
86.278188699318193
  0
ARC
  8
_0-2_決定
  6
CONTINUOUS
 62
    7
 10
1231.1925493184744
 20
894.66580099465034
 40
1.1338042066751717
 50
18.632701384279454
 51
103.54893131341512
  0
ARC
  8
_0-2_決定
  6
CONTINUOUS
 62
    7
 10
1231.6466417722543
 20
892.34871613972086
 40
3.4942589178447103
 50
101.88633326907234
 51
124.51084775824472
  0
LINE
  8
_0-2_決定
  6
CONTINUOUS
 62
    7
 10
1229.6669265502819
 20
895.22805165765362
 11
1224.6669265502819
 21
892.4280516576539
  0
LINE
  8
_0-2_決定
  6
CONTINUOUS
 62
    7
 10
1224.6669265502819
 20
892.4280516576539
 11
1219.8669265502817
 21
895.22805165765362
  0
ARC
  8
_0-2_決定
  6
CONTINUOUS
 62
    7
 10
1218.1190674860457
 20
892.92917962724357
 40
2.8878753298289546
 50
52.753851045878676
 51
85.474546032692658
  0
ARC
  8
_0-2_決定
  6
CONTINUOUS
 62
    7
 10
1218.3175879534381
 20
894.71098202251574
 40
1.0974618615731417
 50
88.468121653498102
 51
163.20718425507022
  0
ARC
  8
_0-2_決定
  6
CONTINUOUS
 62
    7
 10
1217.1443185465475
 20
893.34956100201271
 40
1.6829627457714247
 50
85.822159365392778
 51
131.60131638479066
  0
ARC
  8
_0-2_決定
  6
CONTINUOUS
 62
    7
 10
1216.2978579965736
 20
894.44446549410577
 40
0.3164874112731114
 50
148.87676839845281
 51
223.14124351658978
  0
ARC
  8
_0-2_決定
  6
CONTINUOUS
 62
    7
 10
1217.888326457735
 20
895.82325153425938
 40
2.4211898457565497
 50
221.21219298986247
 51
245.04801171848612
  0
LINE
  8
_0-2_決定
  6
CONTINUOUS
 62
    7
 10
1216.8669265502822
 20
893.62805165765383
 11
1221.6669265502824
 21
890.8280516576541
  0
LINE
  8
_0-2_決定
  6
CONTINUOUS
 62
    7
 10
1111.0669265502818
 20
910.42804965765367
 11
1117.4669265502823
 21
906.82805165765399
  0
LINE
  8
_0-2_決定
  6
CONTINUOUS
 62
    7
 10
1117.4669265502823
 20
906.82805165765399
 11
1112.6669265502821
 21
904.22805165765362
  0
LINE
  8
_0-2_決定
  6
CONTINUOUS
 62
    7
 10
1112.6669265502821
 20
904.22805165765362
 11
1112.6669265502821
 21
870.62805165765383
  0
LINE
  8
_0-2_決定
  6
CONTINUOUS
 62
    7
 10
1112.6669265502821
 20
870.62805165765383
 11
1111.0669265502818
 21
871.4280516576539
  0
LINE
  8
_0-2_決定
  6
CONTINUOUS
 62
    7
 10
1111.0669265502818
 20
871.4280516576539
 11
1111.0669265502818
 21
910.42804965765367
  0
LINE
  8
_0-2_決定
  6
CONTINUOUS
 62
    7
 10
1108.8669265502822
 20
914.82804965765376
 11
1402.0669225502822
 21
1084.2280476576536
  0
LINE
  8
_0-2_決定
  6
CONTINUOUS
 62
    7
 10
1511.2669205502825
 20
1015.8280496576538
 11
1229.8669265502817
 21
853.22805165765374
  0
LINE
  8
_0-2_決定
  6
CONTINUOUS
 62
    7
 10
1223.6669265502824
 20
840.0280516576538
 11
1520.0669205502825
 21
1011.2280496576534
  0
LINE
  8
_0-2_決定
  6
CONTINUOUS
 62
    7
 10
1211.8669265502822
 20
852.22805165765362
 11
1209.8669265502817
 21
851.02805165765392
  0
LINE
  8
_0-2_決定
  6
CONTINUOUS
 62
    7
 10
1717.8669185502818
 20
645.22805365765396
 11
1641.0669205502827
 21
600.82805565765409
  0
LINE
  8
_0-2_決定
  6
CONTINUOUS
 62
    7
 10
1641.0669205502827
 20
600.82805565765409
 11
1641.0669205502827
 21
544.22805565765361
  0
LINE
  8
_0-2_決定
  6
CONTINUOUS
 62
    7
 10
1401.8669225502824
 20
1090.0280476576538
 11
1502.0669225502822
 21
1147.828047657654
  0
LINE
  8
_0-2_決定
  6
CONTINUOUS
 62
    7
 10
1586.0669205502827
 20
1097.4280476576537
 11
1659.2669185502828
 21
1139.4280476576535
  0
LINE
  8
_0-2_決定
  6
CONTINUOUS
 62
    7
 10
1586.0669205502827
 20
1103.0280476576538
 11
1586.0669205502827
 21
1097.4280476576537
  0
LINE
  8
_0-2_決定
  6
CONTINUOUS
 62
    7
 10
1586.0669205502827
 20
1097.4280476576537
 11
1659.2669185502828
 21
1139.4280476576535
  0
LINE
  8
_0-2_決定
  6
CONTINUOUS
 62
    7
 10
1659.2669185502828
 20
1139.4280476576535
 11
1658.866918550282
 21
1145.4280476576535
  0
LINE
  8
_0-2_決定
  6
CONTINUOUS
 62
    7
 10
1658.866918550282
 20
1145.4280476576535
 11
1586.0669205502827
 21
1103.0280476576538
  0
LINE
  8
_0-2_決定
  6
CONTINUOUS
 62
    7
 10
1659.4669185502826
 20
1138.4280476576535
 11
1667.8669185502818
 21
1133.6280476576542
  0
LINE
  8
_0-2_決定
  6
CONTINUOUS
 62
    7
 10
1667.8669185502818
 20
1133.6280476576542
 11
2324.0669085502823
 21
1512.4280416576541
  0
LINE
  8
_0-2_決定
  6
CONTINUOUS
 62
    7
 10
1655.4669185502823
 20
1147.4280476576537
 11
1659.2669185502828
 21
1145.2280476576536
  0
LINE
  8
_0-2_決定
  6
CONTINUOUS
 62
    7
 10
1659.2669185502828
 20
1145.2280476576536
 11
1659.4669185502826
 21
1138.4280476576535
  0
LINE
  8
_0-2_決定
  6
CONTINUOUS
 62
    7
 10
1659.4669185502826
 20
1138.4280476576535
 11
1667.8669185502818
 21
1133.6280476576542
  0
ARC
  8
_0-2_決定
  6
CONTINUOUS
 62
    7
 10
1692.5166577795128
 20
1156.4742110337127
 40
33.608880152046659
 50
205.83509898083273
 51
222.82533541016986
  0
ARC
  8
_0-2_決定
  6
CONTINUOUS
 62
    7
 10
1676.9968080093518
 20
1148.9280074609562
 40
16.351729960004523
 50
194.23166312954186
 51
205.73454991428528
  0
ARC
  8
_0-2_決定
  6
CONTINUOUS
 62
    7
 10
1656.4199930120506
 20
1144.3838530771052
 40
4.7559021228635032
 50
6.3279862236247109
 51
39.173966461951508
  0
ARC
  8
_0-2_決定
  6
CONTINUOUS
 62
    7
 10
1658.1874463970407
 20
1145.6679260250432
 40
2.5774389959882971
 50
41.864885886042657
 51
68.623289006829978
  0
ARC
  8
_0-2_決定
  6
CONTINUOUS
 62
    7
 10
1657.0162899231841
 20
1142.2304187058119
 40
6.2074684840851146
 50
70.122249044017309
 51
93.226450295141689
  0
LINE
  8
_0-2_決定
  6
CONTINUOUS
 62
    7
 10
1656.6669185502824
 20
1148.4280476576535
 11
1655.4669185502823
 21
1147.4280476576537
  0
LINE
  8
_0-2_決定
  6
CONTINUOUS
 62
    7
 10
1659.4669185502826
 20
1138.4280476576535
 11
1659.2669185502828
 21
1145.2280476576536
  0
LINE
  8
_0-2_決定
  6
CONTINUOUS
 62
    7
 10
1655.4669185502823
 20
1147.4280476576537
 11
1659.2669185502828
 21
1145.2280476576536
  0
LINE
  8
_0-2_決定
  6
CONTINUOUS
 62
    7
 10
1499.4669225502819
 20
1539.628041657654
 11
1499.4669225502819
 21
1160.0280476576538
  0
ARC
  8
_0-2_決定
  6
CONTINUOUS
 62
    7
 10
1537.3341717619949
 20
1158.5874256679865
 40
37.894642821632601
 50
177.82128952956595
 51
187.76411520187702
  0
ARC
  8
_0-2_決定
  6
CONTINUOUS
 62
    7
 10
1512.412609037124
 20
1155.2558968754688
 40
12.751641623322591
 50
188.05973295305176
 51
224.94332781342598
  0
ARC
  8
_0-2_決定
  6
CONTINUOUS
 62
    7
 10
1519.1669941258831
 20
1161.9038308707284
 40
22.228679829128009
 50
224.7734700851058
 51
233.18529482025122
  0
ARC
  8
_0-2_決定
  6
CONTINUOUS
 62
    7
 10
1532.2260961738996
 20
1179.3218080930799
 40
43.998519578146542
 50
233.16255025899261
 51
239.45731468904782
  0
LINE
  8
_0-2_決定
  6
CONTINUOUS
 62
    7
 10
1509.8669225502827
 20
1141.4280476576535
 11
1586.0669205502827
 21
1097.4280476576537
  0
LINE
  8
_0-2_決定
  6
CONTINUOUS
 62
    7
 10
1586.0669205502827
 20
1097.4280476576537
 11
1586.0669205502827
 21
1103.0280476576538
  0
LINE
  8
_0-2_決定
  6
CONTINUOUS
 62
    7
 10
1586.0669205502827
 20
1103.0280476576538
 11
1508.6669225502826
 21
1148.2280476576536
  0
ARC
  8
_0-2_決定
  6
CONTINUOUS
 62
    7
 10
1513.0817618108451
 20
1155.1914999795922
 40
8.245027224728533
 50
189.37763916259132
 51
237.62524109091771
  0
ARC
  8
_0-2_決定
  6
CONTINUOUS
 62
    7
 10
1526.4147844075908
 20
1158.4495869803411
 40
21.955483526051136
 50
178.49025456137394
 51
192.0980314534383
  0
LINE
  8
_0-2_決定
  6
CONTINUOUS
 62
    7
 10
1504.4669225502819
 20
1159.0280476576538
 11
1504.8669225502827
 21
1538.4280416576541
  0
ARC
  8
_0-2_決定
  6
CONTINUOUS
 62
    7
 10
2325.5917301228719
 20
596.62496468105348
 40
44.268967586742804
 50
246.36923271819859
 51
266.73043737233297
  0
ARC
  8
_0-2_決定
  6
CONTINUOUS
 62
    7
 10
2333.7872505118212
 20
618.51376355225273
 40
67.619284762394059
 50
241.25364987445383
 51
247.44169416164644
  0
LINE
  8
_0-2_決定
  6
CONTINUOUS
 62
    7
 10
2301.2669105502828
 20
559.22805565765361
 11
1556.4669205502823
 21
992.62804965765395
  0
LINE
  8
_0-2_決定
  6
CONTINUOUS
 62
    7
 10
1556.4669205502823
 20
992.62804965765395
 11
1526.4669205502823
 21
1010.0280496576536
  0
ARC
  8
_0-2_決定
  6
CONTINUOUS
 62
    7
 10
1529.7636384104235
 20
1015.2420284425152
 40
6.1687862192136498
 50
218.66419250052812
 51
237.69546773917085
  0
ARC
  8
_0-2_決定
  6
CONTINUOUS
 62
    7
 10
1533.2406673302594
 20
1017.9603961259274
 40
10.582153549698862
 50
205.71982731849343
 51
218.39492414996235
  0
ARC
  8
_0-2_決定
  6
CONTINUOUS
 62
    7
 10
1360.0703974261082
 20
941.0005373645381
 40
178.92447718426465
 50
23.857193738797218
 51
26.232591694292164
  0
ARC
  8
_0-2_決定
  6
CONTINUOUS
 62
    7
 10
1512.7983618639846
 20
1015.0010660088345
 40
9.2858982713473139
 50
33.217457599271555
 51
59.817370650771501
  0
LINE
  8
_0-2_決定
  6
CONTINUOUS
 62
    7
 10
1517.4669205502821
 20
1023.0280496576536
 11
1401.8669225502824
 21
1090.0280476576538
  0
LINE
  8
_0-2_決定
  6
CONTINUOUS
 62
    7
 10
1401.8669225502824
 20
1090.0280476576538
 11
1401.8669225502824
 21
1084.4280476576535
  0
LINE
  8
_0-2_決定
  6
CONTINUOUS
 62
    7
 10
1401.8669225502824
 20
1084.4280476576535
 11
1513.866920550282
 21
1019.6280496576539
  0
ARC
  8
_0-2_決定
  6
CONTINUOUS
 62
    7
 10
1508.4603068118245
 20
1011.0863081457928
 40
10.10904645217985
 50
28.230255518434316
 51
57.667667647374905
  0
ARC
  8
_0-2_決定
  6
CONTINUOUS
 62
    7
 10
1488.0906387680468
 20
999.19725533851602
 40
33.689999379990979
 50
22.717735367063749
 51
29.658486027915803
  0
ARC
  8
_0-2_決定
  6
CONTINUOUS
 62
    7
 10
1535.4748065274455
 20
1018.1999513135429
 40
17.373831773618949
 50
200.17452182813622
 51
216.48995209260423
  0
ARC
  8
_0-2_決定
  6
CONTINUOUS
 62
    7
 10
1526.8917888921558
 20
1011.8825425123475
 40
6.7166181921932742
 50
216.70503177693772
 51
237.33769810377743
  0
LINE
  8
_0-2_決定
  6
CONTINUOUS
 62
    7
 10
1523.2669205502825
 20
1006.2280496576534
 11
1556.4669205502823
 21
986.82804965765388
  0
LINE
  8
_0-2_決定
  6
CONTINUOUS
 62
    7
 10
1556.4669205502823
 20
986.82804965765388
 11
2297.2669105502832
 21
554.82805565765398
  0
ARC
  8
_0-2_決定
  6
CONTINUOUS
 62
    7
 10
2327.513535154324
 20
608.41680324891047
 40
61.535454563504793
 50
240.55869654762415
 51
266.0428125583129
  0
LINE
  8
_0-2_決定
  6
CONTINUOUS
 62
    7
 10
2323.2669085502816
 20
1533.0280416576536
 11
1655.4669185502823
 21
1147.6280476576542
  0
LINE
  8
_0-2_決定
  6
CONTINUOUS
 62
    7
 10
2178.866912550282
 20
1539.4280416576541
 11
1511.0669205502827
 21
1154.0280476576538
  0
LINE
  8
_0-2_決定
  6
CONTINUOUS
 62
    7
 10
2322.0669085502818
 20
1483.2280416576534
 11
1526.6669205502822
 21
1024.2280496576536
  0
LINE
  8
_0-2_決定
  6
CONTINUOUS
 62
    7
 10
2322.0669085502818
 20
1471.6280416576542
 11
1531.2669205502825
 21
1015.0280496576536
  0
LINE
  8
_0-2_決定
  6
CONTINUOUS
 62
    7
 10
1698.6669185502822
 20
508.02805565765379
 11
1757.6669185502819
 21
527.02805565765379
  0
LINE
  8
_0-2_決定
  6
CONTINUOUS
 62
    7
 10
1661.4669185502826
 20
529.82805565765398
 11
1719.6669185502824
 21
549.42805565765389
  0
LINE
  8
_0-2_決定
  6
CONTINUOUS
 62
    7
 10
1623.6669205502822
 20
551.82805565765398
 11
1681.4669185502826
 21
572.02805565765379
  0
LINE
  8
_0-2_決定
  6
CONTINUOUS
 62
    7
 10
1585.8669205502817
 20
574.02805565765379
 11
1643.0669205502827
 21
594.6280556576537
  0
LINE
  8
_0-2_決定
  6
CONTINUOUS
 62
    7
 10
1547.8669205502817
 20
596.22805565765361
 11
1604.4669205502819
 21
617.42805565765389
  0
LINE
  8
_0-2_決定
  6
CONTINUOUS
 62
    7
 10
1509.6669225502828
 20
618.62805565765382
 11
1565.6669205502819
 21
640.22805565765361
  0
LINE
  8
_0-2_決定
  6
CONTINUOUS
 62
    7
 10
1471.066922550282
 20
641.22805365765407
 11
1526.4669205502823
 21
663.42805365765366
  0
LINE
  8
_0-2_決定
  6
CONTINUOUS
 62
    7
 10
1432.4669225502819
 20
663.82805365765398
 11
1487.2669225502821
 21
686.42805365765389
  0
LINE
  8
_0-2_決定
  6
CONTINUOUS
 62
    7
 10
1393.4669225502821
 20
686.62805365765394
 11
1447.6669225502828
 21
709.82805365765387
  0
LINE
  8
_0-2_決定
  6
CONTINUOUS
 62
    7
 10
1354.4669245502828
 20
709.62805365765405
 11
1407.8669225502827
 21
733.22805365765385
  0
LINE
  8
_0-2_決定
  6
CONTINUOUS
 62
    7
 10
1314.8669245502824
 20
732.62805365765405
 11
1367.866924550282
 21
756.82805365765375
  0
LINE
  8
_0-2_決定
  6
CONTINUOUS
 62
    7
 10
1275.2669245502821
 20
755.82805365765375
 11
1327.6669245502821
 21
780.62805165765383
  0
LINE
  8
_0-2_決定
  6
CONTINUOUS
 62
    7
 10
1235.4669265502823
 20
779.22805165765362
 11
1287.0669245502822
 21
804.4280516576539
  0
LINE
  8
_0-2_決定
  6
CONTINUOUS
 62
    7
 10
1195.4669265502823
 20
802.62805165765371
 11
1246.2669245502818
 21
828.62805165765383
  0
LINE
  8
_0-2_決定
  6
CONTINUOUS
 62
    7
 10
1155.0669265502816
 20
826.22805165765374
 11
1205.2669265502825
 21
852.8280516576541
  0
LINE
  8
_0-2_決定
  6
CONTINUOUS
 62
    7
 10
1161.6669265502824
 20
875.62805165765383
 11
1114.4669265502821
 21
850.0280516576538
  0
LINE
  8
_0-2_決定
  6
CONTINUOUS
 62
    7
 10
1117.066926550282
 20
896.02805165765392
 11
1148.8669265502822
 21
829.82805165765399
  0
LINE
  8
_0-2_決定
  6
CONTINUOUS
 62
    7
 10
1155.0669265502816
 20
879.0280516576538
 11
1189.2669265502823
 21
806.22805165765374
  0
LINE
  8
_0-2_決定
  6
CONTINUOUS
 62
    7
 10
1194.066926550282
 20
859.4280516576539
 11
1229.4669265502821
 21
782.8280516576541
  0
LINE
  8
_0-2_決定
  6
CONTINUOUS
 62
    7
 10
1235.2669265502825
 20
835.22805165765362
 11
1269.2669245502818
 21
759.42805365765366
  0
LINE
  8
_0-2_決定
  6
CONTINUOUS
 62
    7
 10
1276.066924550282
 20
811.02805165765392
 11
1309.066924550282
 21
736.22805365765407
  0
LINE
  8
_0-2_決定
  6
CONTINUOUS
 62
    7
 10
1316.6669245502826
 20
787.0280516576538
 11
1348.4669245502826
 21
713.02805365765403
  0
LINE
  8
_0-2_決定
  6
CONTINUOUS
 62
    7
 10
1356.8669245502824
 20
763.42805365765366
 11
1387.6669225502828
 21
690.02805365765414
  0
LINE
  8
_0-2_決定
  6
CONTINUOUS
 62
    7
 10
1397.0669225502822
 20
739.62805365765405
 11
1426.6669225502826
 21
667.22805365765396
  0
LINE
  8
_0-2_決定
  6
CONTINUOUS
 62
    7
 10
1436.8669225502824
 20
716.22805365765407
 11
1465.2669225502823
 21
644.62805365765405
  0
LINE
  8
_0-2_決定
  6
CONTINUOUS
 62
    7
 10
1476.4669225502817
 20
692.82805365765387
 11
1503.8669225502824
 21
622.02805565765391
  0
LINE
  8
_0-2_決定
  6
CONTINUOUS
 62
    7
 10
1515.8669205502817
 20
669.62805365765405
 11
1542.0669205502825
 21
599.6280556576537
  0
LINE
  8
_0-2_決定
  6
CONTINUOUS
 62
    7
 10
1555.0669205502825
 20
646.62805365765394
 11
1580.2669205502823
 21
577.42805565765389
  0
LINE
  8
_0-2_決定
  6
CONTINUOUS
 62
    7
 10
1593.866920550282
 20
623.62805565765382
 11
1618.0669205502827
 21
555.22805565765361
  0
LINE
  8
_0-2_決定
  6
CONTINUOUS
 62
    7
 10
1632.6669205502819
 20
600.82805565765409
 11
1655.6669185502822
 21
533.22805565765361
  0
LINE
  8
_0-2_決定
  6
CONTINUOUS
 62
    7
 10
1671.0669185502818
 20
578.02805565765379
 11
1693.0669185502816
 21
511.22805565765361
  0
LINE
  8
_0-2_決定
  6
CONTINUOUS
 62
    7
 10
1709.2669185502828
 20
555.6280556576537
 11
1730.2669185502825
 21
489.42805765765365
  0
LINE
  8
_0-2_決定
  6
CONTINUOUS
 62
    7
 10
1747.2669185502823
 20
533.22805565765361
 11
1760.066918550282
 21
491.62805765765393
  0
ARC
  8
_0-2_決定
  6
CONTINUOUS
 62
    7
 10
1671.9560695504854
 20
2368.3796257258477
 40
1546.5665589896296
 50
261.59393248740537
 51
263.28321065726061
  0
ARC
  8
_0-2_決定
  6
CONTINUOUS
 62
    7
 10
1661.1206925544197
 20
2116.6756202473362
 40
1259.0465068046396
 50
256.83321266933194
 51
261.75966160480596
  0
ARC
  8
_0-2_決定
  6
CONTINUOUS
 62
    7
 10
1601.5437270465654
 20
1846.6430276929505
 40
982.54817527956209
 50
254.06976164102014
 51
256.6291723001313
  0
ARC
  8
_0-2_決定
  6
CONTINUOUS
 62
    7
 10
1658.4678564768344
 20
1976.2258668925654
 40
1084.3852415274196
 50
254.99226616775354
 51
260.27354364871866
  0
ARC
  8
_0-2_決定
  6
CONTINUOUS
 62
    7
 10
1669.2121451314201
 20
1907.5906808425827
 40
984.73278640506783
 50
255.45264802978011
 51
258.55811838638692
  0
LINE
  8
_0-2_決定
  6
CONTINUOUS
 62
    7
 10
1475.8669225502822
 20
976.02804965765358
 11
1464.0669225502822
 21
979.0280496576537
  0
ARC
  8
_0-2_決定
  6
CONTINUOUS
 62
    7
 10
1813.211298451429
 20
940.34822479584113
 40
339.28806596941575
 50
172.19434949256564
 51
213.18759014557719
  0
ARC
  8
_0-2_決定
  6
CONTINUOUS
 62
    7
 10
2227.3870981790478
 20
1820.0266827937287
 40
1334.8471550849283
 50
256.00037922097141
 51
264.02629803235777
  0
ARC
  8
_0-2_決定
  6
CONTINUOUS
 62
    7
 10
2282.0116811925077
 20
2190.8662649373405
 40
1673.5272555684141
 50
264.96057064284253
 51
271.38518186037595
  0
ARC
  8
_0-2_決定
  6
CONTINUOUS
 62
    7
 10
2255.0540080686033
 20
1836.880628237986
 40
1318.5487802903294
 50
257.77576762381716
 51
264.77627975992135
  0
ARC
  8
_0-2_決定
  6
CONTINUOUS
 62
    7
 10
2195.9513155502841
 20
1539.6479521002261
 40
1015.5543090478866
 50
251.06847071801536
 51
257.48392180263511
  0
ARC
  8
_0-2_決定
  6
CONTINUOUS
 62
    7
 10
1894.8982472280213
 20
979.79168959338551
 40
371.62523547314379
 50
209.97704071906574
 51
223.57522579092179
  0
ARC
  8
_0-2_決定
  6
CONTINUOUS
 62
    7
 10
1848.6088908091481
 20
949.54748710177807
 40
316.4314911328625
 50
174.47599735561127
 51
209.42120731919579
  0
ARC
  8
_0-2_決定
  6
CONTINUOUS
 62
    7
 10
1890.8913048723978
 20
947.40857392997941
 40
358.72869406754495
 50
171.75894814603404
 51
174.78605190656307
  0
ARC
  8
_0-2_決定
  6
CONTINUOUS
 62
    7
 10
2050.403747397987
 20
1174.7764197304143
 40
621.91921679122561
 50
239.91728516205816
 51
243.74291277364244
  0
ARC
  8
_0-2_決定
  6
CONTINUOUS
 62
    7
 10
2059.0659735555123
 20
1193.159480442396
 40
642.17036775390011
 50
237.3558869081362
 51
240.07066314321949
  0
ARC
  8
_0-2_決定
  6
CONTINUOUS
 62
    7
 10
2297.5221242200628
 20
2079.3224553396117
 40
1529.9474839865652
 50
264.01008592384176
 51
270.47729148924554
  0
ARC
  8
_0-2_決定
  6
CONTINUOUS
 62
    7
 10
2269.5715720571325
 20
1771.8526373910197
 40
1221.2471565187107
 50
257.6451623003361
 51
263.80893081382715
  0
ARC
  8
_0-2_決定
  6
CONTINUOUS
 62
    7
 10
2212.7633007357022
 20
1498.3082090074799
 40
941.88756778540949
 50
249.03947648334497
 51
257.46045618558401
  0
ARC
  8
_0-2_決定
  6
CONTINUOUS
 62
    7
 10
2131.6942350017048
 20
1273.2742139549487
 40
702.7606822716657
 50
240.33392960046268
 51
248.64848115734651
  0
ARC
  8
_0-2_決定
  6
CONTINUOUS
 62
    7
 10
2045.6687319343505
 20
1118.2116453135106
 40
525.4489504456584
 50
229.57882067047655
 51
240.11610459548186
  0
ARC
  8
_0-2_決定
  6
CONTINUOUS
 62
    7
 10
1959.9840112571846
 20
1012.8030547761608
 40
389.65589493390019
 50
214.7557993115484
 51
229.12071988566956
  0
ARC
  8
_0-2_決定
  6
CONTINUOUS
 62
    7
 10
1893.4047711629412
 20
961.64414533601291
 40
305.81760612630285
 50
178.69143233340111
 51
213.9921040143534
  0
ARC
  8
_0-2_決定
  6
CONTINUOUS
 62
    7
 10
2307.2608927415827
 20
1896.4649914883239
 40
1316.5859904407457
 50
260.5972957162341
 51
267.60605073989166
  0
ARC
  8
_0-2_決定
  6
CONTINUOUS
 62
    7
 10
2261.0908924455139
 20
1590.2959293363069
 40
1006.997488657337
 50
253.01389774924624
 51
260.34296628553659
  0
ARC
  8
_0-2_決定
  6
CONTINUOUS
 62
    7
 10
2191.6648535624886
 20
1350.474338673368
 40
757.36471864291445
 50
243.95023683354097
 51
252.73670632321745
  0
ARC
  8
_0-2_決定
  6
CONTINUOUS
 62
    7
 10
2126.1390535005453
 20
1206.8172963037173
 40
599.54044582997778
 50
240.03288842743223
 51
243.54713608727116
  0
ARC
  8
_0-2_決定
  6
CONTINUOUS
 62
    7
 10
2078.7967993293873
 20
1124.9736473081985
 40
504.99071705647503
 50
230.22651433632876
 51
240.04786989655133
  0
ARC
  8
_0-2_決定
  6
CONTINUOUS
 62
    7
 10
2002.5681577699922
 20
1029.2716422948711
 40
382.67760918427194
 50
218.22144539183623
 51
229.83154598679749
  0
ARC
  8
_0-2_決定
  6
CONTINUOUS
 62
    7
 10
1942.5710466215364
 20
979.20903644073564
 40
304.57651599252802
 50
199.18325388609043
 51
217.80568777387157
  0
ARC
  8
_0-2_決定
  6
CONTINUOUS
 62
    7
 10
1918.1829364349519
 20
967.99358683508967
 40
277.86929469731115
 50
186.43978642680852
 51
198.6514688413518
  0
ARC
  8
_0-2_決定
  6
CONTINUOUS
 62
    7
 10
2305.7177402419579
 20
1707.2331055717932
 40
1097.4022937957961
 50
256.68102250977245
 51
264.10807979520143
  0
ARC
  8
_0-2_決定
  6
CONTINUOUS
 62
    7
 10
2248.4883587378131
 20
1447.3123667454424
 40
831.29924220124906
 50
249.10402703414485
 51
256.3923424489131
  0
ARC
  8
_0-2_決定
  6
CONTINUOUS
 62
    7
 10
2180.7995736055814
 20
1261.536840819798
 40
633.60675677815595
 50
240.36174622295215
 51
248.83056019033791
  0
ARC
  8
_0-2_決定
  6
CONTINUOUS
 62
    7
 10
2108.009946919341
 20
1127.9457227302416
 40
481.50607401327613
 50
230.24547023504502
 51
240.02885095184303
  0
ARC
  8
_0-2_決定
  6
CONTINUOUS
 62
    7
 10
2030.2862731100502
 20
1030.8708738867322
 40
357.17907858328908
 50
215.58435218447789
 51
229.8723394594316
  0
ARC
  8
_0-2_決定
  6
CONTINUOUS
 62
    7
 10
1970.0778668689227
 20
983.85283941836337
 40
280.8724301134647
 50
196.85194161298787
 51
214.93104322845358
  0
ARC
  8
_0-2_決定
  6
CONTINUOUS
 62
    7
 10
2290.2003928095014
 20
1514.1319813884165
 40
873.95606448792421
 50
251.68909871681899
 51
259.00168290009907
  0
ARC
  8
_0-2_決定
  6
CONTINUOUS
 62
    7
 10
2224.8287766940362
 20
1306.1812185488643
 40
656.00489112250614
 50
243.55718439104265
 51
251.40341010168595
  0
ARC
  8
_0-2_決定
  6
CONTINUOUS
 62
    7
 10
2170.4671755279828
 20
1189.8722577939602
 40
527.66601758949355
 50
239.92885189463874
 51
243.21854960171893
  0
ARC
  8
_0-2_決定
  6
CONTINUOUS
 62
    7
 10
2130.3042204892295
 20
1123.3375547466217
 40
449.9642111520551
 50
229.74255254297955
 51
240.10944993076271
  0
ARC
  8
_0-2_決定
  6
CONTINUOUS
 62
    7
 10
2057.970241634413
 20
1034.0429825053357
 40
335.08464625568786
 50
215.27982946651449
 51
229.31462187727291
  0
ARC
  8
_0-2_決定
  6
CONTINUOUS
 62
    7
 10
2011.387065339708
 20
997.57667769829538
 40
276.00989551973197
 50
209.4606183750613
 51
214.68531736000432
  0
ARC
  8
_0-2_決定
  6
CONTINUOUS
 62
    7
 10
2220.2866162419568
 20
1238.9653183368832
 40
558.33507121577736
 50
240.20689296675988
 51
248.23624530886156
  0
ARC
  8
_0-2_決定
  6
CONTINUOUS
 62
    7
 10
2163.1403396185824
 20
1136.9168393332766
 40
441.38198078187605
 50
230.27758776054483
 51
240.06256983703236
  0
ARC
  8
_0-1_レイヤ___3
  6
CONTINUOUS
 62
    7
 10
1372.3151324629989
 20
1629.2340269562187
 40
390.63471106354211
 50
212.98229427419324
 51
215.01560039685683
  0
ARC
  8
_0-1_レイヤ___3
  6
CONTINUOUS
 62
    7
 10
1296.2610392013178
 20
1555.6045932427633
 40
329.03224431489014
 50
216.44125351423543
 51
234.17333553991358
  0
ARC
  8
_0-1_レイヤ___3
  6
CONTINUOUS
 62
    7
 10
1282.42734753895
 20
1528.8384990330517
 40
347.45666054375454
 50
226.23510126105026
 51
234.82518661245541
  0
ARC
  8
_0-1_レイヤ___3
  6
CONTINUOUS
 62
    7
 10
2253.1116706916459
 20
696.89872026231171
 40
1292.5541717098345
 50
154.95732696694401
 51
157.41039114857759
  0
ARC
  8
_0-1_レイヤ___3
  6
CONTINUOUS
 62
    7
 10
2015.6992351643462
 20
773.41106583434464
 40
1019.4674048053326
 50
163.40662667634021
 51
165.59307164431763
  0
ARC
  8
_0-1_レイヤ___3
  6
CONTINUOUS
 62
    7
 10
1996.7157528300245
 20
790.51837512410827
 40
970.01469137842946
 50
162.73515639989623
 51
170.25104432460688
  0
LINE
  8
_0-0_文字
  6
CONTINUOUS
 62
    7
 10
1417.2669225502827
 20
1038.6280496576539
 11
1562.6669205502819
 21
1290.0280456576538
  0
LINE
  8
_0-0_文字
  6
CONTINUOUS
 62
    7
 10
1562.6669205502819
 20
1290.0280456576538
 11
1581.8669205502815
 21
1290.0280456576538
  0
LINE
  8
_0-0_文字
  6
CONTINUOUS
 62
    7
 10
1882.2669165502825
 20
910.02804965765438
 11
1983.0669145502825
 21
1084.6280476576542
  0
LINE
  8
_0-0_文字
  6
CONTINUOUS
 62
    7
 10
1983.0669145502825
 20
1084.6280476576542
 11
2001.8669145502824
 21
1084.6280476576542
  0
LINE
  8
_0-0_文字
  6
CONTINUOUS
 62
    7
 10
1876.2669165502823
 20
669.42805365765355
 11
1977.2669145502821
 21
844.22805165765385
  0
LINE
  8
_0-0_文字
  6
CONTINUOUS
 62
    7
 10
1977.2669145502821
 20
844.22805165765385
 11
1996.066914550282
 21
844.22805165765385
  0
LINE
  8
_0-0_文字
  6
CONTINUOUS
 62
    7
 10
1461.4669225502823
 20
1289.2280456576541
 11
1547.0669205502825
 21
1438.6280436576535
  0
LINE
  8
_0-0_文字
  6
CONTINUOUS
 62
    7
 10
1547.0669205502825
 20
1438.6280436576535
 11
1565.8669205502824
 21
1438.6280436576535
  0
LINE
  8
_0-0_文字
  6
CONTINUOUS
 62
    7
 10
1454.0669225502822
 20
763.42805365765389
 11
1607.8669205502817
 21
1030.2280496576536
  0
LINE
  8
_0-0_文字
  6
CONTINUOUS
 62
    7
 10
1607.8669205502817
 20
1030.2280496576536
 11
1647.066918550282
 21
1030.2280496576536
  0
TEXT
  8
_0-0_文字
 62
    7
 10
1565.8669205502824
 20
1415.6280436576537
 40
46.000000000000014
 41
0.9999999999999996
 50
0
  1
AYボンド580NF
  0
TEXT
  8
_0-0_文字
 62
    7
 10
1581.8669205502815
 20
1267.028045657654
 40
46.000000000000014
 41
0.9999999999999996
 50
0
  1
FL鋼板
  0
TEXT
  8
_0-0_文字
 62
    7
 10
1647.066918550282
 20
1007.2280496576536
 40
46
 41
1
 50
0
  1
断熱材
  0
TEXT
  8
_0-0_文字
 62
    7
 10
2001.8669145502824
 20
1061.6280476576542
 40
46.000000000000028
 41
1.0000000000000002
 50
0
  1
リベットルーフ
  0
TEXT
  8
_0-0_文字
 62
    7
 10
1996.066914550282
 20
821.22805165765385
 40
46
 41
1.0000000000000007
 50
0
  1
クイックフォーム
  0
ENDSEC
  0
EOF
