  0
SECTION
  2
HEADER
  9
$ACADVER
  1
AC1009
  9
$INSBASE
 10
0
 20
0
 30
0
  9
$EXTMIN
 10
0
 20
0
  9
$EXTMAX
 10
2970
 20
2100
  9
$LIMMIN
 10
0
 20
0
  9
$LIMMAX
 10
2970
 20
2100
  9
$LTSCALE
 40
10
  0
ENDSEC
  0
SECTION
  2
TABLES
  0
TABLE
  2
LTYPE
 70
     9
  0
LTYPE
  2
CONTINUOUS
 70
    64
  3
実線
 72
    65
 73
     0
 40
0.0
  0
LTYPE
  2
DASHED1
 70
    64
  3
--  --  --  --  --  --  --  --  
 72
    65
 73
     2
 40
2.5
 49
1.25
 49
-1.25
  0
LTYPE
  2
DASHED2
 70
    64
  3
----    ----    ----    ----    
 72
    65
 73
     2
 40
5.0
 49
2.5
 49
-2.5
  0
LTYPE
  2
DASHED3
 70
    64
  3
------  ------  ------  ------  
 72
    65
 73
     2
 40
5.0
 49
3.75
 49
-1.25
  0
LTYPE
  2
CENTER1
 70
    64
  3
----- - ----- - ----- - ----- - 
 72
    65
 73
     4
 40
10.0
 49
6.25
 49
-1.25
 49
1.25
 49
-1.25
  0
LTYPE
  2
CENTER2
 70
    64
  3
----------  --  ----------  --  
 72
    65
 73
     4
 40
20.0
 49
12.5
 49
-2.5
 49
2.5
 49
-2.5
  0
LTYPE
  2
PHANTOM1
 70
    64
  3
--- - - --- - - --- - - --- - - 
 72
    65
 73
     6
 40
10.0
 49
3.25
 49
-1.25
 49
1.25
 49
-1.25
 49
1.25
 49
-1.25
  0
LTYPE
  2
PHANTOM2
 70
    64
  3
--------  -  -  --------  -  -  
 72
    65
 73
     6
 40
20.0
 49
10.0
 49
-2.5
 49
1.25
 49
-2.5
 49
1.25
 49
-2.5
  0
LTYPE
  2
DOT
 70
    64
  3
-   -   -   -   -   -   -   -   
 72
    65
 73
     2
 40
2.5
 49
0.625
 49
-1.875
  0
LTYPE
  2
DUMMY
 70
    64
  3
ダミー
 72
    65
 73
     0
 40
0.0
  0
LTYPE
  2
RAND1
 70
    64
  3
ランダム線1
 72
    65
 73
     4
 40
10.0
 49
1.0
 49
-2.0
 49
3.0
 49
-4.0
  0
LTYPE
  2
RAND2
 70
    64
  3
ランダム線2
 72
    65
 73
     4
 40
14.0
 49
2.0
 49
-3.0
 49
4.0
 49
-5.0
  0
LTYPE
  2
RAND3
 70
    64
  3
ランダム線3
 72
    65
 73
     4
 40
18.0
 49
3.0
 49
-4.0
 49
5.0
 49
-6.0
  0
LTYPE
  2
RAND4
 70
    64
  3
ランダム線4
 72
    65
 73
     4
 40
22.0
 49
4.0
 49
-5.0
 49
6.0
 49
-7.0
  0
LTYPE
  2
RAND5
 70
    64
  3
ランダム線5
 72
    65
 73
     4
 40
26.0
 49
5.0
 49
-6.0
 49
7.0
 49
-8.0
  0
LTYPE
  2
LONG1
 70
    64
  3
----------  --  ----------  --  
 72
    65
 73
     4
 40
40.0
 49
32.5
 49
-2.5
 49
2.5
 49
-2.5
  0
LTYPE
  2
LONG2
 70
    64
  3
--------  -  -  --------  -  -  
 72
    65
 73
     6
 40
40.0
 49
30.0
 49
-2.5
 49
1.25
 49
-2.5
 49
1.25
 49
-2.5
  0
LTYPE
  2
LONG3
 70
    64
  3
+++++++++++++++..+++++++++++++++
 72
    65
 73
     2
 40
40.0
 49
37.5
 49
-2.5
  0
LTYPE
  2
LONG4
 70
    64
  3
+++++++++++++++..+++++++++++++++
 72
    65
 73
     2
 40
80.0
 49
75.0
 49
-5.0
  0
LTYPE
  2
LONG5
 70
    64
  3
----------  --  ----------  --  
 72
    65
 73
     4
 40
60.0
 49
37.5
 49
-7.5
 49
7.5
 49
-7.5
  0
LTYPE
  2
dashed
 70
   64
  3
-------   -------------   ------
 72
   65
 73
    2
 40
7.5
 49
6
 49
-1.5
  0
LTYPE
  2
dashed_spaced
 70
   64
  3
----        --------        ----
 72
   65
 73
    2
 40
12
 49
6
 49
-6
  0
LTYPE
  2
long_dashed_dotted
 70
   64
  3
------------- --- --------------
 72
   65
 73
    4
 40
15.25
 49
12
 49
-1.5
 49
0.25
 49
-1.5
  0
LTYPE
  2
long_dashed_double-dotted
 70
   64
  3
----------- --- --- ------------
 72
   65
 73
    6
 40
17
 49
12
 49
-1.5
 49
0.25
 49
-1.5
 49
0.25
 49
-1.5
  0
LTYPE
  2
long_dashed_triplicate-dotted
 70
   64
  3
--------- --- --- --- ----------
 72
   65
 73
    8
 40
18.75
 49
12
 49
-1.5
 49
0.25
 49
-1.5
 49
0.25
 49
-1.5
 49
0.25
 49
-1.5
  0
LTYPE
  2
dotted
 70
   64
  3
   -       -       -       -    
 72
   65
 73
    2
 40
1.75
 49
0.25
 49
-1.5
  0
LTYPE
  2
chain
 70
   64
  3
-------------- -- --------------
 72
   65
 73
    4
 40
18.5
 49
12
 49
-1.5
 49
3.5
 49
-1.5
  0
LTYPE
  2
chain_double_dash
 70
   64
  3
------------ -- -- -------------
 72
   65
 73
    6
 40
23.5
 49
12
 49
-1.5
 49
3.5
 49
-1.5
 49
3.5
 49
-1.5
  0
LTYPE
  2
dashed_dotted
 70
   64
  3
-----------     -     ----------
 72
   65
 73
    4
 40
9.25
 49
6
 49
-1.5
 49
0.25
 49
-1.5
  0
LTYPE
  2
double-dashed_dotted
 70
   64
  3
------   -----------   -   -----
 72
   65
 73
    6
 40
16.75
 49
6
 49
-1.5
 49
6
 49
-1.5
 49
0.25
 49
-1.5
  0
LTYPE
  2
dashed_double-dotted
 70
   64
  3
---------    -    -    ---------
 72
   65
 73
    6
 40
11
 49
6
 49
-1.5
 49
0.25
 49
-1.5
 49
0.25
 49
-1.5
  0
LTYPE
  2
double-dashed_double-dotted
 70
   64
  3
-----   ---------   -   -   ----
 72
   65
 73
    8
 40
18.5
 49
6
 49
-1.5
 49
6
 49
-1.5
 49
0.25
 49
-1.5
 49
0.25
 49
-1.5
  0
LTYPE
  2
dashed_triplicate-dotted
 70
   64
  3
-------    -    -    -    ------
 72
   65
 73
    8
 40
12.75
 49
6
 49
-1.5
 49
0.25
 49
-1.5
 49
0.25
 49
-1.5
 49
0.25
 49
-1.5
  0
LTYPE
  2
double-dashed_triplicate-dotted
 70
   64
  3
-----  ---------  -  -  -  -----
 72
   65
 73
   10
 40
20.25
 49
6
 49
-1.5
 49
6
 49
-1.5
 49
0.25
 49
-1.5
 49
0.25
 49
-1.5
 49
0.25
 49
-1.5
  0
LTYPE
  2
undefined
 70
   64
  3
--------------------------------
 72
   65
 73
    0
 40
0
  0
LTYPE
  2
AIGENLINE001
 70
   64
  3
----        --------        ----
 72
   65
 73
    2
 40
4.5800000000000001
 49
2.29
 49
-2.29
  0
LTYPE
  2
AIGENLINE002
 70
   64
  3
------     -----------     -----
 72
   65
 73
    2
 40
6.8700000000000001
 49
4.5800000000000001
 49
-2.29
  0
ENDTAB
  0
TABLE
  2
STYLE
  5
3
100
AcDbSymbolTable
 70
     1
  0
STYLE
  5
10
100
AcDbSymbolTableRecord
100
AcDbTextStyleTableRecord
  2
STANDARD
 70
     0
 40
0.0
 41
1.0
 50
0.0
 71
     0
 42
0.2
  3
txt
  4
bigfont.shx
  0
STYLE
  5
26
100
AcDbSymbolTableRecord
100
AcDbTextStyleTableRecord
  2
TATEGAKI
 70
    68
 40
0.0
 41
1.0
 50
0.0
 71
     0
 42
1.0
  3
txt
  4
bigfont.shx
  0
ENDTAB
  0
TABLE
  2
LAYER
 70
    4
  0
LAYER
  2
_0-0_文字
 70
   64
 62
    7
  6
CONTINUOUS
  0
LAYER
  2
_0-1_レイヤ___3
 70
   64
 62
    7
  6
CONTINUOUS
  0
LAYER
  2
_0-2_決定
 70
   64
 62
    7
  6
CONTINUOUS
  0
LAYER
  2
ADD_LINE
 70
   64
 62
    7
  6
CONTINUOUS
  0
ENDTAB
  0
ENDSEC
  0
SECTION
  2
BLOCKS
  0
ENDSEC
  0
SECTION
  2
ENTITIES
  0
ARC
  8
_0-1_レイヤ___3
  6
CONTINUOUS
 62
    7
 10
-7457.1225270732621
 20
10245.265671888299
 40
100.75331131322194
 50
212.54457606520913
 51
215.40440375223901
  0
ARC
  8
_0-1_レイヤ___3
  6
CONTINUOUS
 62
    7
 10
-7368.9514147695209
 20
10307.718363524889
 40
208.80176608438552
 50
215.35576722286694
 51
221.36723647424384
  0
ARC
  8
_0-1_レイヤ___3
  6
CONTINUOUS
 62
    7
 10
-7295.4624294196119
 20
10370.285434729602
 40
305.30820552446175
 50
221.06477429997616
 51
231.22765018658944
  0
ARC
  8
_0-1_レイヤ___3
  6
CONTINUOUS
 62
    7
 10
-7258.362933726452
 20
10413.75814627555
 40
362.43800051855288
 50
230.95883511048854
 51
251.35346403312775
  0
ARC
  8
_0-1_レイヤ___3
  6
CONTINUOUS
 62
    7
 10
-7236.372632740311
 20
10469.15351598549
 40
421.96811857702386
 50
250.92920805381576
 51
264.01576111916944
  0
ARC
  8
_0-1_レイヤ___3
  6
CONTINUOUS
 62
    7
 10
-7225.624236278828
 20
10543.900922169672
 40
497.43720610569824
 50
263.68207230856342
 51
270.12317171358148
  0
ARC
  8
_0-1_レイヤ___3
  6
CONTINUOUS
 62
    7
 10
-6992.0793464044109
 20
10245.524901377814
 40
100.97057184263099
 50
324.50269853745323
 51
327.35954730735853
  0
ARC
  8
_0-1_レイヤ___3
  6
CONTINUOUS
 62
    7
 10
-7080.3419905560786
 20
10307.947173220191
 40
209.07582118488784
 50
318.61534655888227
 51
324.62063211809948
  0
ARC
  8
_0-1_レイヤ___3
  6
CONTINUOUS
 62
    7
 10
-7153.8774882642865
 20
10370.555279866292
 40
305.64394410371006
 50
308.76992808749981
 51
318.92296844706647
  0
ARC
  8
_0-1_レイヤ___3
  6
CONTINUOUS
 62
    7
 10
-7190.9073149430596
 20
10414.013847156648
 40
362.71881065871321
 50
288.65165821912348
 51
309.03173518611686
  0
ARC
  8
_0-1_レイヤ___3
  6
CONTINUOUS
 62
    7
 10
-7212.7783179116759
 20
10469.116770693032
 40
421.93378546990601
 50
275.98762352174964
 51
289.07257752973072
  0
ARC
  8
_0-1_レイヤ___3
  6
CONTINUOUS
 62
    7
 10
-7223.4878580387031
 20
10543.581941679005
 40
497.11822129585721
 50
269.87702048518202
 51
276.31995190691799
  0
ARC
  8
_0-1_レイヤ___3
  6
CONTINUOUS
 62
    7
 10
-5185.0304285955899
 20
10245.524901377814
 40
100.97057184263099
 50
212.64045269264147
 51
215.49730146254677
  0
ARC
  8
_0-1_レイヤ___3
  6
CONTINUOUS
 62
    7
 10
-5096.767783943922
 20
10307.947182752343
 40
209.07582711155425
 50
215.37936993240487
 51
221.38465549162211
  0
ARC
  8
_0-1_レイヤ___3
  6
CONTINUOUS
 62
    7
 10
-5023.232286235715
 20
10370.555274237853
 40
305.6439400285019
 50
221.07703081915608
 51
231.23007117872271
  0
ARC
  8
_0-1_レイヤ___3
  6
CONTINUOUS
 62
    7
 10
-4986.2024600569393
 20
10414.01384715665
 40
362.71881065871611
 50
230.96826481388334
 51
251.34834178087678
  0
ARC
  8
_0-1_レイヤ___3
  6
CONTINUOUS
 62
    7
 10
-4964.331457088324
 20
10469.116770693026
 40
421.93378546990107
 50
250.92742247026916
 51
264.01237647825019
  0
ARC
  8
_0-1_レイヤ___3
  6
CONTINUOUS
 62
    7
 10
-4953.6219169612968
 20
10543.581941679005
 40
497.11822129585721
 50
263.68004809308201
 51
270.12297951481798
  0
ARC
  8
_0-1_レイヤ___3
  6
CONTINUOUS
 62
    7
 10
-4719.9458454184714
 20
10245.502223718258
 40
100.93010227782503
 50
324.50212566871829
 51
327.36012017609352
  0
ARC
  8
_0-1_レイヤ___3
  6
CONTINUOUS
 62
    7
 10
-4808.1795151263923
 20
10307.897670728831
 40
208.99619450303933
 50
318.61419937969004
 51
324.6217751962829
  0
ARC
  8
_0-1_レイヤ___3
  6
CONTINUOUS
 62
    7
 10
-4881.720450069015
 20
10370.546924357084
 40
305.59543296261558
 50
308.76110452106741
 51
318.91711841601511
  0
ARC
  8
_0-1_レイヤ___3
  6
CONTINUOUS
 62
    7
 10
-4918.8186128357247
 20
10414.07234736759
 40
362.76505117262622
 50
288.64440299195792
 51
309.02607158712721
  0
ARC
  8
_0-1_レイヤ___3
  6
CONTINUOUS
 62
    7
 10
-4940.7607794280339
 20
10469.392114969156
 40
422.20788163462777
 50
275.98405340598731
 51
289.06580929539717
  0
ARC
  8
_0-1_レイヤ___3
  6
CONTINUOUS
 62
    7
 10
-4951.4884073483645
 20
10543.953934779165
 40
497.49021243480115
 50
269.87717178965931
 51
276.31758418819595
  0
ARC
  8
_0-1_レイヤ___3
  6
CONTINUOUS
 62
    7
 10
-5820.122552073216
 20
10136.864055111702
 40
100.75331131325974
 50
144.59559624777546
 51
147.45542393480537
  0
ARC
  8
_0-1_レイヤ___3
  6
CONTINUOUS
 62
    7
 10
-5731.9514397695193
 20
10074.411363475112
 40
208.80176608438552
 50
138.63276352575616
 51
144.64423277713306
  0
ARC
  8
_0-1_レイヤ___3
  6
CONTINUOUS
 62
    7
 10
-5658.4624539196111
 20
10011.84428664744
 40
305.30820959523527
 50
128.77234907943739
 51
138.93522496605067
  0
ARC
  8
_0-1_レイヤ___3
  6
CONTINUOUS
 62
    7
 10
-5621.3629577264519
 20
9968.3715807244553
 40
362.43800051855004
 50
108.64653596687252
 51
129.04116488951172
  0
ARC
  8
_0-1_レイヤ___3
  6
CONTINUOUS
 62
    7
 10
-5599.37265674031
 20
9912.9762110145002
 40
421.96811857703369
 50
95.984238880830276
 51
109.07079194618395
  0
ARC
  8
_0-1_レイヤ___3
  6
CONTINUOUS
 62
    7
 10
-5588.6242602788279
 20
9838.228804830349
 40
497.437206105678
 50
89.876828286418629
 51
96.317927691436736
  0
ARC
  8
_0-1_レイヤ___3
  6
CONTINUOUS
 62
    7
 10
-5354.9872379267836
 20
10136.864055111679
 40
100.75331131327245
 50
32.544576065205391
 51
35.404403752235282
  0
ARC
  8
_0-1_レイヤ___3
  6
CONTINUOUS
 62
    7
 10
-5443.1583502304802
 20
10074.411363475123
 40
208.80176608437881
 50
35.3557672228646
 51
41.367236474241516
  0
ARC
  8
_0-1_レイヤ___3
  6
CONTINUOUS
 62
    7
 10
-5516.6473355803882
 20
10011.8442922704
 40
305.30820552446175
 50
41.064774299976172
 51
51.227650186589457
  0
ARC
  8
_0-1_レイヤ___3
  6
CONTINUOUS
 62
    7
 10
-5553.7468312735482
 20
9968.3715807244516
 40
362.43800051855288
 50
50.958835110488543
 51
71.35346403312775
  0
ARC
  8
_0-1_レイヤ___3
  6
CONTINUOUS
 62
    7
 10
-5575.737132259691
 20
9912.9762110145057
 40
421.96811857702875
 50
70.929208053815913
 51
84.015761119169582
  0
ARC
  8
_0-1_レイヤ___3
  6
CONTINUOUS
 62
    7
 10
-5586.4855287211731
 20
9838.2288048303399
 40
497.43720610568812
 50
83.682072308563349
 51
90.123171713581442
  0
ARC
  8
_0-1_レイヤ___3
  6
CONTINUOUS
 62
    7
 10
-2913.022595073262
 20
10245.265671888321
 40
100.75331131323469
 50
212.54457606521987
 51
215.40440375224975
  0
ARC
  8
_0-1_レイヤ___3
  6
CONTINUOUS
 62
    7
 10
-2824.851482769519
 20
10307.718363524882
 40
208.80176608438217
 50
215.35576722286575
 51
221.36723647424267
  0
ARC
  8
_0-1_レイヤ___3
  6
CONTINUOUS
 62
    7
 10
-2751.3624974196114
 20
10370.285434729598
 40
305.30820552445948
 50
221.06477429997577
 51
231.22765018658905
  0
ARC
  8
_0-1_レイヤ___3
  6
CONTINUOUS
 62
    7
 10
-2714.2630012264522
 20
10413.758149055178
 40
362.43800299241127
 50
230.95883532587561
 51
251.3534642485148
  0
ARC
  8
_0-1_レイヤ___3
  6
CONTINUOUS
 62
    7
 10
-2692.2727002403099
 20
10469.153511626333
 40
421.96811429374725
 50
250.92920792458665
 51
264.0157609899403
  0
ARC
  8
_0-1_レイヤ___3
  6
CONTINUOUS
 62
    7
 10
-2681.5243042788275
 20
10543.900922169658
 40
497.43720610568312
 50
263.68207230856331
 51
270.12317171358143
  0
ARC
  8
_0-1_レイヤ___3
  6
CONTINUOUS
 62
    7
 10
-2447.8872809267382
 20
10245.26567188831
 40
100.75331131322829
 50
324.59559624775562
 51
327.45542393478553
  0
ARC
  8
_0-1_レイヤ___3
  6
CONTINUOUS
 62
    7
 10
-2536.0583932304803
 20
10307.718363524889
 40
208.80176608438552
 50
318.63276352575616
 51
324.64423277713308
  0
ARC
  8
_0-1_レイヤ___3
  6
CONTINUOUS
 62
    7
 10
-2609.5473785803892
 20
10370.285434729598
 40
305.30820552445948
 50
308.77234981341098
 51
318.93522570002426
  0
ARC
  8
_0-1_レイヤ___3
  6
CONTINUOUS
 62
    7
 10
-2646.646874773548
 20
10413.758149055178
 40
362.43800299241127
 50
288.6465357514852
 51
309.04116467412439
  0
ARC
  8
_0-1_レイヤ___3
  6
CONTINUOUS
 62
    7
 10
-2668.6371757596903
 20
10469.153511626329
 40
421.96811429374492
 50
275.98423901005975
 51
289.07079207541341
  0
ARC
  8
_0-1_レイヤ___3
  6
CONTINUOUS
 62
    7
 10
-2679.3855722211724
 20
10543.900931055636
 40
497.43721499271589
 50
269.87682823102801
 51
276.31792763604608
  0
ARC
  8
_0-1_レイヤ___3
  6
CONTINUOUS
 62
    7
 10
-3548.0304525955444
 20
10136.604825622173
 40
100.97057184267514
 50
144.50269853746238
 51
147.35954730736768
  0
ARC
  8
_0-1_レイヤ___3
  6
CONTINUOUS
 62
    7
 10
-3459.7678084439217
 20
10074.182553779816
 40
209.07582118488446
 50
138.6153465588834
 51
144.62063211810062
  0
ARC
  8
_0-1_レイヤ___3
  6
CONTINUOUS
 62
    7
 10
-3386.2323107357138
 20
10011.574447133704
 40
305.6439441037146
 50
128.76992808749898
 51
138.92296844706561
  0
ARC
  8
_0-1_レイヤ___3
  6
CONTINUOUS
 62
    7
 10
-3349.2024840569402
 20
9968.1158798433553
 40
362.71881065871321
 50
108.65165821912348
 51
129.03173518611692
  0
ARC
  8
_0-1_レイヤ___3
  6
CONTINUOUS
 62
    7
 10
-3327.3314810883239
 20
9913.0129563069768
 40
421.93378546990107
 50
95.987623521749811
 51
109.07257752973085
  0
ARC
  8
_0-1_レイヤ___3
  6
CONTINUOUS
 62
    7
 10
-3316.6219409612968
 20
9838.547785320985
 40
497.11822129586727
 50
89.877020485181959
 51
96.319951906917922
  0
ARC
  8
_0-1_レイヤ___3
  6
CONTINUOUS
 62
    7
 10
-3082.9458704185172
 20
10136.627503281728
 40
100.93010227786918
 50
32.639879823897374
 51
35.497874331272577
  0
ARC
  8
_0-1_レイヤ___3
  6
CONTINUOUS
 62
    7
 10
-3171.1795401263917
 20
10074.232056271177
 40
208.99619450303595
 50
35.378224803715909
 51
41.385800620308785
  0
ARC
  8
_0-1_レイヤ___3
  6
CONTINUOUS
 62
    7
 10
-3244.7204745690146
 20
10011.582808269704
 40
305.59542888809187
 50
41.082880850402226
 51
51.23889474534996
  0
ARC
  8
_0-1_レイヤ___3
  6
CONTINUOUS
 62
    7
 10
-3281.8186368357237
 20
9968.0573796324115
 40
362.76505117262764
 50
50.973928412872894
 51
71.355597008042196
  0
ARC
  8
_0-1_レイヤ___3
  6
CONTINUOUS
 62
    7
 10
-3303.7608034280352
 20
9912.73761203084
 40
422.20788163463277
 50
70.934190704602969
 51
84.015946594012817
  0
ARC
  8
_0-1_レイヤ___3
  6
CONTINUOUS
 62
    7
 10
-3314.4884313483644
 20
9838.1757922208526
 40
497.49021243478586
 50
83.682415811803978
 51
90.1228282103406
  0
ARC
  8
_0-1_レイヤ___3
  6
CONTINUOUS
 62
    7
 10
-6834.9576104027974
 20
10144.758611797955
 40
85.687131946339932
 50
144.22233369227075
 51
147.28839169837414
  0
ARC
  8
_0-1_レイヤ___3
  6
CONTINUOUS
 62
    7
 10
-6772.3665018165402
 20
10100.105046321711
 40
162.57352260626021
 50
139.79746805851795
 51
144.35142471935831
  0
ARC
  8
_0-1_レイヤ___3
  6
CONTINUOUS
 62
    7
 10
-6716.1446876625705
 20
10053.353651080004
 40
235.69226502681684
 50
128.64561282955955
 51
139.93931535075046
  0
ARC
  8
_0-1_レイヤ___3
  6
CONTINUOUS
 62
    7
 10
-6684.3717736842755
 20
10016.65063554152
 40
284.20673230090733
 50
110.99190648966825
 51
129.02750531113131
  0
ARC
  8
_0-1_レイヤ___3
  6
CONTINUOUS
 62
    7
 10
-6666.7549979676569
 20
9975.7474653034878
 40
328.71106488204566
 50
95.239897903240603
 51
111.30471079897622
  0
ARC
  8
_0-1_レイヤ___3
  6
CONTINUOUS
 62
    7
 10
-6657.2413299848804
 20
9909.5217699453515
 40
395.54368721071808
 50
89.900565237320635
 51
95.736139417888069
  0
ARC
  8
_0-1_レイヤ___3
  6
CONTINUOUS
 62
    7
 10
-6478.1521475972031
 20
10144.758611797977
 40
85.68713194632798
 50
32.711608301614113
 51
35.777666307717489
  0
ARC
  8
_0-1_レイヤ___3
  6
CONTINUOUS
 62
    7
 10
-6540.7432561834594
 20
10100.105046321711
 40
162.57352260626021
 50
35.648575280641708
 51
40.202531941482064
  0
ARC
  8
_0-1_レイヤ___3
  6
CONTINUOUS
 62
    7
 10
-6596.9650698374298
 20
10053.353656136811
 40
235.69226138958246
 50
40.060683786625717
 51
51.354386307816618
  0
ARC
  8
_0-1_レイヤ___3
  6
CONTINUOUS
 62
    7
 10
-6628.7379833157238
 20
10016.650635541526
 40
284.20673230090097
 50
50.972494688867947
 51
69.008093510331008
  0
ARC
  8
_0-1_レイヤ___3
  6
CONTINUOUS
 62
    7
 10
-6646.3547595323425
 20
9975.7474617603402
 40
328.71106836472558
 50
68.695289344213663
 51
84.760102239949276
  0
ARC
  8
_0-1_レイヤ___3
  6
CONTINUOUS
 62
    7
 10
-6655.8684275151199
 20
9909.5217797552341
 40
395.54367739998446
 50
84.263860512151453
 51
90.099434692718887
  0
ARC
  8
_0-1_レイヤ___3
  6
CONTINUOUS
 62
    7
 10
-6333.9576174028389
 20
10237.371115202044
 40
85.687131946304817
 50
212.71160830164183
 51
215.77766630774522
  0
ARC
  8
_0-1_レイヤ___3
  6
CONTINUOUS
 62
    7
 10
-6271.3665088165408
 20
10282.024680678278
 40
162.57352260625143
 50
215.64857528063774
 51
220.20253194147807
  0
ARC
  8
_0-1_レイヤ___3
  6
CONTINUOUS
 62
    7
 10
-6215.1446951625703
 20
10328.77607086319
 40
235.69226138958246
 50
220.0606837866257
 51
231.35438630781661
  0
ARC
  8
_0-1_レイヤ___3
  6
CONTINUOUS
 62
    7
 10
-6183.3717816842764
 20
10365.479091458477
 40
284.20673230090415
 50
230.9724946888683
 51
249.00809351033138
  0
ARC
  8
_0-1_レイヤ___3
  6
CONTINUOUS
 62
    7
 10
-6165.7550054676576
 20
10406.382265239659
 40
328.71106836472171
 50
248.69528934421351
 51
264.76010223994911
  0
ARC
  8
_0-1_レイヤ___3
  6
CONTINUOUS
 62
    7
 10
-6156.2413374848802
 20
10472.607947244769
 40
395.54367739998446
 50
264.26386051215144
 51
270.09943469271889
  0
ARC
  8
_0-1_レイヤ___3
  6
CONTINUOUS
 62
    7
 10
-5977.1521550971602
 20
10237.371096519395
 40
85.687121429300191
 50
324.22234402269203
 51
327.28840202879542
  0
ARC
  8
_0-1_レイヤ___3
  6
CONTINUOUS
 62
    7
 10
-6039.743263183459
 20
10282.024680678278
 40
162.57352260625143
 50
319.79746805852193
 51
324.35142471936229
  0
ARC
  8
_0-1_レイヤ___3
  6
CONTINUOUS
 62
    7
 10
-6095.9650773374287
 20
10328.776075920003
 40
235.69226502682088
 50
308.64561282955856
 51
319.9393153507495
  0
ARC
  8
_0-1_レイヤ___3
  6
CONTINUOUS
 62
    7
 10
-6127.7379913157238
 20
10365.479091458477
 40
284.20673230090415
 50
290.99190648966862
 51
309.02750531113168
  0
ARC
  8
_0-1_レイヤ___3
  6
CONTINUOUS
 62
    7
 10
-6145.3547670323424
 20
10406.382261696517
 40
328.71106488204964
 50
275.23989790324043
 51
291.30471079897609
  0
ARC
  8
_0-1_レイヤ___3
  6
CONTINUOUS
 62
    7
 10
-6154.8684350151198
 20
10472.60795705465
 40
395.54368721071808
 50
269.90056523732062
 51
275.73613941788807
  0
ARC
  8
_0-1_レイヤ___3
  6
CONTINUOUS
 62
    7
 10
-4562.8576439027975
 20
10144.758630480626
 40
85.687121429323383
 50
144.22234402271977
 51
147.28840202882316
  0
ARC
  8
_0-1_レイヤ___3
  6
CONTINUOUS
 62
    7
 10
-4500.2665358165405
 20
10100.105046321711
 40
162.57352260626021
 50
139.79746805851795
 51
144.35142471935831
  0
ARC
  8
_0-1_レイヤ___3
  6
CONTINUOUS
 62
    7
 10
-4444.0447216625707
 20
10053.353651079999
 40
235.69226502682088
 50
128.64561282955856
 51
139.93931535074947
  0
ARC
  8
_0-1_レイヤ___3
  6
CONTINUOUS
 62
    7
 10
-4412.2718076842757
 20
10016.650635541522
 40
284.20673230090415
 50
110.99190648966862
 51
129.0275053111317
  0
ARC
  8
_0-1_レイヤ___3
  6
CONTINUOUS
 62
    7
 10
-4394.6550319676571
 20
9975.747465303486
 40
328.71106488204964
 50
95.239897903240447
 51
111.30471079897607
  0
ARC
  8
_0-1_レイヤ___3
  6
CONTINUOUS
 62
    7
 10
-4385.1413639848806
 20
9909.5217699453642
 40
395.54368721070705
 50
89.90056523732072
 51
95.73613941788814
  0
ARC
  8
_0-1_レイヤ___3
  6
CONTINUOUS
 62
    7
 10
-4206.1892611875182
 20
10144.733370282671
 40
85.731971558135825
 50
32.712410299046745
 51
35.776864310284864
  0
ARC
  8
_0-1_レイヤ___3
  6
CONTINUOUS
 62
    7
 10
-4268.8078522340775
 20
10100.054739876003
 40
162.65530541513274
 50
35.649720744070684
 51
40.201386478045109
  0
ARC
  8
_0-1_レイヤ___3
  6
CONTINUOUS
 62
    7
 10
-4325.0235368896301
 20
10053.33922448892
 40
235.74627358302268
 50
40.05422816298821
 51
51.343586766425858
  0
ARC
  8
_0-1_レイヤ___3
  6
CONTINUOUS
 62
    7
 10
-4357.5478157618109
 20
10015.621078401622
 40
285.52275923749096
 50
50.974792361685537
 51
70.765150450440316
  0
ARC
  8
_0-1_レイヤ___3
  6
CONTINUOUS
 62
    7
 10
-4375.8269770371544
 20
9970.1725065434257
 40
334.4639357459223
 50
70.373519651520297
 51
85.910519893971738
  0
ARC
  8
_0-1_レイヤ___3
  6
CONTINUOUS
 62
    7
 10
-4383.9992004674614
 20
9903.8985793447791
 40
401.16654099226736
 50
85.421325868018101
 51
90.065086140256781
  0
ARC
  8
_0-1_レイヤ___3
  6
CONTINUOUS
 62
    7
 10
-4061.8622254001116
 20
10237.436075383321
 40
85.802528749285102
 50
212.71367058105758
 51
215.7756040283295
  0
ARC
  8
_0-1_レイヤ___3
  6
CONTINUOUS
 62
    7
 10
-3999.1870760191214
 20
10282.286544738772
 40
162.87201205520844
 50
215.68663731110288
 51
220.23440846731762
  0
ARC
  8
_0-1_レイヤ___3
  6
CONTINUOUS
 62
    7
 10
-3942.9175568337532
 20
10329.089688295313
 40
236.06034213028335
 50
220.0850184249372
 51
231.36454602664637
  0
ARC
  8
_0-1_レイヤ___3
  6
CONTINUOUS
 62
    7
 10
-3910.3895361090076
 20
10366.825234270487
 40
285.8521394627619
 50
230.99411895665307
 51
250.76855345956992
  0
ARC
  8
_0-1_レイヤ___3
  6
CONTINUOUS
 62
    7
 10
-3892.1624755039556
 20
10412.175246068236
 40
334.68285969358692
 50
250.37954526170159
 51
265.90970154733179
  0
ARC
  8
_0-1_レイヤ___3
  6
CONTINUOUS
 62
    7
 10
-3884.0090733106636
 20
10478.2707129091
 40
401.2061044525978
 50
265.42155495706544
 51
270.06485705120957
  0
ARC
  8
_0-1_レイヤ___3
  6
CONTINUOUS
 62
    7
 10
-3705.1521885971601
 20
10237.371115202024
 40
85.687131946292851
 50
324.22233369226649
 51
327.28839169836988
  0
ARC
  8
_0-1_レイヤ___3
  6
CONTINUOUS
 62
    7
 10
-3767.7432971834596
 20
10282.024680678292
 40
162.57352260626021
 50
319.79746805851795
 51
324.35142471935831
  0
ARC
  8
_0-1_レイヤ___3
  6
CONTINUOUS
 62
    7
 10
-3823.9651113374293
 20
10328.776075920003
 40
235.69226502682088
 50
308.64561282955856
 51
319.9393153507495
  0
ARC
  8
_0-1_レイヤ___3
  6
CONTINUOUS
 62
    7
 10
-3855.7380253157235
 20
10365.479091458477
 40
284.20673230090415
 50
290.99190648966862
 51
309.02750531113168
  0
ARC
  8
_0-1_レイヤ___3
  6
CONTINUOUS
 62
    7
 10
-3873.354801032342
 20
10406.382261696512
 40
328.71106488204566
 50
275.2398979032406
 51
291.3047107989762
  0
ARC
  8
_0-1_レイヤ___3
  6
CONTINUOUS
 62
    7
 10
-3882.8684690151194
 20
10472.60795705465
 40
395.54368721071808
 50
269.90056523732062
 51
275.73613941788807
  0
ARC
  8
_0-1_レイヤ___3
  6
CONTINUOUS
 62
    7
 10
-2290.8576774027965
 20
10144.758611797966
 40
85.687131946333949
 50
144.22233369227664
 51
147.28839169838002
  0
ARC
  8
_0-1_レイヤ___3
  6
CONTINUOUS
 62
    7
 10
-2228.2665688165407
 20
10100.105046321725
 40
162.57352260625143
 50
139.79746805852193
 51
144.35142471936226
  0
ARC
  8
_0-1_レイヤ___3
  6
CONTINUOUS
 62
    7
 10
-2172.0447551625703
 20
10053.353656136807
 40
235.69226138958453
 50
128.64561369218288
 51
139.93931621337379
  0
ARC
  8
_0-1_レイヤ___3
  6
CONTINUOUS
 62
    7
 10
-2140.2718416842758
 20
10016.650635541526
 40
284.20673230090256
 50
110.99190648966881
 51
129.02750531113188
  0
ARC
  8
_0-1_レイヤ___3
  6
CONTINUOUS
 62
    7
 10
-2122.6550654676571
 20
9975.747461760342
 40
328.71106836472364
 50
95.239897760050809
 51
111.30471065578642
  0
ARC
  8
_0-1_レイヤ___3
  6
CONTINUOUS
 62
    7
 10
-2113.1413974848801
 20
9909.5217797552341
 40
395.54367739998446
 50
89.900565307281127
 51
95.736139487848547
  0
ARC
  8
_0-1_レイヤ___3
  6
CONTINUOUS
 62
    7
 10
-1934.0522155972035
 20
10144.758611797955
 40
85.687131946339932
 50
32.711608301625859
 51
35.777666307729241
  0
ARC
  8
_0-1_レイヤ___3
  6
CONTINUOUS
 62
    7
 10
-1996.6433241834598
 20
10100.105046321725
 40
162.57352260625143
 50
35.648575280637729
 51
40.202531941478085
  0
ARC
  8
_0-1_レイヤ___3
  6
CONTINUOUS
 62
    7
 10
-2052.8651378374298
 20
10053.353656136811
 40
235.69226138958246
 50
40.060683786625717
 51
51.354386307816618
  0
ARC
  8
_0-1_レイヤ___3
  6
CONTINUOUS
 62
    7
 10
-2084.6380513157237
 20
10016.650635541526
 40
284.20673230090256
 50
50.972494688868125
 51
69.008093510331193
  0
ARC
  8
_0-1_レイヤ___3
  6
CONTINUOUS
 62
    7
 10
-2102.2548275323425
 20
9975.747461760342
 40
328.71106836472364
 50
68.695289344213577
 51
84.760102239949205
  0
ARC
  8
_0-1_レイヤ___3
  6
CONTINUOUS
 62
    7
 10
-2111.7684955151199
 20
9909.5217797552286
 40
395.54367739998997
 50
84.263860512151496
 51
90.09943469271893
  0
ARC
  8
_0-1_レイヤ___3
  6
CONTINUOUS
 62
    7
 10
-1789.8576854028386
 20
10237.371115202044
 40
85.687131946304817
 50
212.71160830164183
 51
215.77766630774522
  0
ARC
  8
_0-1_レイヤ___3
  6
CONTINUOUS
 62
    7
 10
-1727.2665768165405
 20
10282.024680678269
 40
162.57352260624702
 50
215.64857528063575
 51
220.20253194147608
  0
ARC
  8
_0-1_レイヤ___3
  6
CONTINUOUS
 62
    7
 10
-1671.0447626625705
 20
10328.776075920005
 40
235.69226502682301
 50
220.06068464925102
 51
231.35438717044192
  0
ARC
  8
_0-1_レイヤ___3
  6
CONTINUOUS
 62
    7
 10
-1639.2718491842761
 20
10365.479088307937
 40
284.20672953857877
 50
230.9724943672266
 51
249.00809318868966
  0
ARC
  8
_0-1_レイヤ___3
  6
CONTINUOUS
 62
    7
 10
-1621.6550734676571
 20
10406.382265239659
 40
328.71106836472364
 50
248.69528934421356
 51
264.76010223994922
  0
ARC
  8
_0-1_レイヤ___3
  6
CONTINUOUS
 62
    7
 10
-1612.1414054848799
 20
10472.607947244769
 40
395.54367739998446
 50
264.26386051215144
 51
270.09943469271889
  0
ARC
  8
_0-1_レイヤ___3
  6
CONTINUOUS
 62
    7
 10
-1433.0522225971606
 20
10237.371115202033
 40
85.68713194629882
 50
324.22233369226063
 51
327.28839169836402
  0
ARC
  8
_0-1_レイヤ___3
  6
CONTINUOUS
 62
    7
 10
-1495.6433311834594
 20
10282.024680678278
 40
162.57352260625143
 50
319.79746805852193
 51
324.35142471936229
  0
ARC
  8
_0-1_レイヤ___3
  6
CONTINUOUS
 62
    7
 10
-1551.8651453374298
 20
10328.77607592001
 40
235.69226502682505
 50
308.64561282955759
 51
319.93931535074847
  0
ARC
  8
_0-1_レイヤ___3
  6
CONTINUOUS
 62
    7
 10
-1583.6380588157244
 20
10365.479088307933
 40
284.20672953857724
 50
290.99190681131051
 51
309.02750563277357
  0
ARC
  8
_0-1_レイヤ___3
  6
CONTINUOUS
 62
    7
 10
-1601.2548345323426
 20
10406.382265239659
 40
328.71106836472171
 50
275.23989776005089
 51
291.30471065578649
  0
ARC
  8
_0-1_レイヤ___3
  6
CONTINUOUS
 62
    7
 10
-1610.7685030151197
 20
10472.60795705465
 40
395.54368721071808
 50
269.90056523732062
 51
275.73613941788807
  0
ARC
  8
_0-1_レイヤ___3
  6
CONTINUOUS
 62
    7
 10
-640.93049659558972
 20
10245.524901377827
 40
100.9705718426374
 50
212.64045269264682
 51
215.49730146255212
  0
ARC
  8
_0-1_レイヤ___3
  6
CONTINUOUS
 62
    7
 10
-552.66785194392128
 20
10307.947182752345
 40
209.0758271115559
 50
215.37936993240547
 51
221.38465549162268
  0
ARC
  8
_0-1_レイヤ___3
  6
CONTINUOUS
 62
    7
 10
-479.13235423571393
 20
10370.555274237853
 40
305.6439400285019
 50
221.07703081915608
 51
231.23007117872271
  0
ARC
  8
_0-1_レイヤ___3
  6
CONTINUOUS
 62
    7
 10
-442.10252755693944
 20
10414.013849938307
 40
362.7188131343749
 50
230.96826502924114
 51
251.34834199623455
  0
ARC
  8
_0-1_レイヤ___3
  6
CONTINUOUS
 62
    7
 10
-420.23152458832328
 20
10469.11676633332
 40
421.93378118613771
 50
250.92742234098728
 51
264.01237634896836
  0
ARC
  8
_0-1_レイヤ___3
  6
CONTINUOUS
 62
    7
 10
-409.52198446129643
 20
10543.581950562448
 40
497.11823018035136
 50
263.68004814851218
 51
270.12297957024816
  0
ARC
  8
_0-1_レイヤ___3
  6
CONTINUOUS
 62
    7
 10
-175.84591341847215
 20
10245.502223718271
 40
100.93010227783145
 50
324.50212566871295
 51
327.36012017608812
  0
ARC
  8
_0-1_レイヤ___3
  6
CONTINUOUS
 62
    7
 10
-264.07958312639153
 20
10307.897670728826
 40
208.9961945030376
 50
318.6141993796906
 51
324.62177519628352
  0
ARC
  8
_0-1_レイヤ___3
  6
CONTINUOUS
 62
    7
 10
-337.62051756901485
 20
10370.546918730302
 40
305.59542888809415
 50
308.76110525464964
 51
318.91711914959734
  0
ARC
  8
_0-1_レイヤ___3
  6
CONTINUOUS
 62
    7
 10
-374.71868033572463
 20
10414.072350149027
 40
362.76505364824902
 50
288.6444027766882
 51
309.02607137185748
  0
ARC
  8
_0-1_レイヤ___3
  6
CONTINUOUS
 62
    7
 10
-396.6608469280348
 20
10469.392110608376
 40
422.20787734973584
 50
275.98405353516426
 51
289.06580942457413
  0
ARC
  8
_0-1_レイヤ___3
  6
CONTINUOUS
 62
    7
 10
-407.38847434836458
 20
10543.953934779156
 40
497.49021243479353
 50
269.87717178965937
 51
276.31758418819595
  0
ARC
  8
_0-1_レイヤ___3
  6
CONTINUOUS
 62
    7
 10
-1276.0226190732164
 20
10136.86405511169
 40
100.7533113132661
 50
144.59559624777009
 51
147.4554239348
  0
ARC
  8
_0-1_レイヤ___3
  6
CONTINUOUS
 62
    7
 10
-1187.8515067695196
 20
10074.411363475117
 40
208.80176608438217
 50
138.63276352575733
 51
144.64423277713425
  0
ARC
  8
_0-1_レイヤ___3
  6
CONTINUOUS
 62
    7
 10
-1114.3625214196113
 20
10011.8442922704
 40
305.30820552446175
 50
128.77234981341056
 51
138.93522570002384
  0
ARC
  8
_0-1_レイヤ___3
  6
CONTINUOUS
 62
    7
 10
-1077.2630257264518
 20
9968.3715807244535
 40
362.43800051855146
 50
108.64653596687239
 51
129.04116488951158
  0
ARC
  8
_0-1_レイヤ___3
  6
CONTINUOUS
 62
    7
 10
-1055.2727247403093
 20
9912.976211014502
 40
421.96811857703125
 50
95.984238880830361
 51
109.07079194618402
  0
ARC
  8
_0-1_レイヤ___3
  6
CONTINUOUS
 62
    7
 10
-1044.5243282788269
 20
9838.2288048303435
 40
497.43720610568312
 50
89.876828286418601
 51
96.317927691436694
  0
ARC
  8
_0-1_レイヤ___3
  6
CONTINUOUS
 62
    7
 10
-810.8873059267836
 20
10136.864055111695
 40
100.75331131326293
 50
32.544576065197333
 51
35.404403752227225
  0
ARC
  8
_0-1_レイヤ___3
  6
CONTINUOUS
 62
    7
 10
-899.05841773048019
 20
10074.411372997445
 40
208.80176016648454
 50
35.355765171199238
 51
41.367234422576153
  0
ARC
  8
_0-1_レイヤ___3
  6
CONTINUOUS
 62
    7
 10
-972.5474030803889
 20
10011.84428664744
 40
305.30820959523527
 50
41.064775033949324
 51
51.22765092056261
  0
ARC
  8
_0-1_レイヤ___3
  6
CONTINUOUS
 62
    7
 10
-1009.6468992735483
 20
9968.3715807244535
 40
362.43800051855209
 50
50.958835110488486
 51
71.353464033127693
  0
ARC
  8
_0-1_レイヤ___3
  6
CONTINUOUS
 62
    7
 10
-1031.6372002596906
 20
9912.9762110145039
 40
421.96811857702994
 50
70.929208053815955
 51
84.015761119169611
  0
ARC
  8
_0-1_レイヤ___3
  6
CONTINUOUS
 62
    7
 10
-1042.385596721173
 20
9838.2288048303435
 40
497.43720610568312
 50
83.682072308563306
 51
90.123171713581399
  0
ARC
  8
_0-1_レイヤ___3
  6
CONTINUOUS
 62
    7
 10
-18.757711402796531
 20
10144.758611797961
 40
85.687131946336947
 50
144.22233369227371
 51
147.2883916983771
  0
ARC
  8
_0-1_レイヤ___3
  6
CONTINUOUS
 62
    7
 10
43.83339718345951
 20
10100.105046321722
 40
162.57352260625362
 50
139.79746805852093
 51
144.35142471936129
  0
ARC
  8
_0-1_レイヤ___3
  6
CONTINUOUS
 62
    7
 10
100.05521083742991
 20
10053.353656136809
 40
235.69226138958345
 50
128.64561369218313
 51
139.93931621337404
  0
ARC
  8
_0-1_レイヤ___3
  6
CONTINUOUS
 62
    7
 10
131.82812431572415
 20
10016.650635541526
 40
284.20673230090256
 50
110.99190648966881
 51
129.02750531113188
  0
ARC
  8
_0-1_レイヤ___3
  6
CONTINUOUS
 62
    7
 10
149.4449005323429
 20
9975.7474617603439
 40
328.71106836472256
 50
95.239897760050852
 51
111.30471065578647
  0
ARC
  8
_0-1_レイヤ___3
  6
CONTINUOUS
 62
    7
 10
158.95856851511979
 20
9909.5217797552305
 40
395.54367739998719
 50
89.900565307281099
 51
95.736139487848533
  0
ARC
  8
_0-1_レイヤ___3
  6
CONTINUOUS
 62
    7
 10
337.95232440006856
 20
10144.693651616688
 40
85.802528749315769
 50
32.713670581037185
 51
35.77560402830909
  0
ARC
  8
_0-1_レイヤ___3
  6
CONTINUOUS
 62
    7
 10
275.27717551912218
 20
10099.843194853276
 40
162.87200430350629
 50
35.686633815836018
 51
40.234404972050754
  0
ARC
  8
_0-1_レイヤ___3
  6
CONTINUOUS
 62
    7
 10
219.00765633375315
 20
10053.040033641475
 40
236.0603457731514
 50
40.085019287030654
 51
51.364546888739845
  0
ARC
  8
_0-1_レイヤ___3
  6
CONTINUOUS
 62
    7
 10
186.47963510900809
 20
10015.304492729518
 40
285.85213946276093
 50
50.994118956652962
 51
70.768553459569802
  0
ARC
  8
_0-1_レイヤ___3
  6
CONTINUOUS
 62
    7
 10
168.25257500395566
 20
9969.954484598471
 40
334.68285607188528
 50
70.379545131548312
 51
85.909701417178496
  0
ARC
  8
_0-1_レイヤ___3
  6
CONTINUOUS
 62
    7
 10
160.0991728106635
 20
9903.859001758221
 40
401.20611678583725
 50
85.421555026476128
 51
90.064857120620218
  0
ARC
  8
_0-1_レイヤ___3
  6
CONTINUOUS
 62
    7
 10
482.27936018747573
 20
10237.396356717345
 40
85.731971558109663
 50
212.71241029907154
 51
215.77686431030966
  0
ARC
  8
_0-1_レイヤ___3
  6
CONTINUOUS
 62
    7
 10
544.89795123407805
 20
10282.074987124
 40
162.65530541513496
 50
215.64972074407166
 51
220.20138647804609
  0
ARC
  8
_0-1_レイヤ___3
  6
CONTINUOUS
 62
    7
 10
601.11363638963041
 20
10328.790507569851
 40
235.74627722112217
 50
220.05422902587941
 51
231.34358762931706
  0
ARC
  8
_0-1_レイヤ___3
  6
CONTINUOUS
 62
    7
 10
633.63791526181126
 20
10366.508645732083
 40
285.52275669592325
 50
230.9747920774642
 51
250.76515016621897
  0
ARC
  8
_0-1_レイヤ___3
  6
CONTINUOUS
 62
    7
 10
651.91707603715417
 20
10411.957220456574
 40
334.46393574591974
 50
250.37351965152021
 51
265.91051989397164
  0
ARC
  8
_0-1_レイヤ___3
  6
CONTINUOUS
 62
    7
 10
660.08929996746156
 20
10478.231159986703
 40
401.16655332430651
 50
265.42132593742883
 51
270.06508620966753
  0
ARC
  8
_0-1_レイヤ___3
  6
CONTINUOUS
 62
    7
 10
838.94774340283914
 20
10237.371115202037
 40
85.687131946301065
 50
324.22233369225842
 51
327.28839169836181
  0
ARC
  8
_0-1_レイヤ___3
  6
CONTINUOUS
 62
    7
 10
776.3566348165408
 20
10282.024680678278
 40
162.57352260625197
 50
319.79746805852164
 51
324.351424719362
  0
ARC
  8
_0-1_レイヤ___3
  6
CONTINUOUS
 62
    7
 10
720.13482116257035
 20
10328.77607086319
 40
235.69226138958373
 50
308.64561369218308
 51
319.93931621337396
  0
ARC
  8
_0-1_レイヤ___3
  6
CONTINUOUS
 62
    7
 10
688.36190768427605
 20
10365.479091458476
 40
284.20673230090233
 50
290.99190648966885
 51
309.0275053111319
  0
ARC
  8
_0-1_レイヤ___3
  6
CONTINUOUS
 62
    7
 10
670.7451314676573
 20
10406.382265239659
 40
328.71106836472325
 50
275.23989776005084
 51
291.30471065578644
  0
ARC
  8
_0-1_レイヤ___3
  6
CONTINUOUS
 62
    7
 10
661.23146348488046
 20
10472.607947244771
 40
395.54367739998719
 50
269.90056530728111
 51
275.7361394878485
  0
ARC
  8
_0-1_レイヤ___3
  6
CONTINUOUS
 62
    7
 10
1631.0773369267383
 20
10245.265671888308
 40
100.75331131322702
 50
212.54457606521339
 51
215.4044037522433
  0
ARC
  8
_0-1_レイヤ___3
  6
CONTINUOUS
 62
    7
 10
1719.2484492304802
 20
10307.718363524884
 40
208.80176608438285
 50
215.35576722286598
 51
221.3672364742429
  0
ARC
  8
_0-1_レイヤ___3
  6
CONTINUOUS
 62
    7
 10
1792.7374350803889
 20
10370.285440352563
 40
305.30820959523629
 50
221.06477503394947
 51
231.22765092056275
  0
ARC
  8
_0-1_レイヤ___3
  6
CONTINUOUS
 62
    7
 10
1829.8369312735485
 20
10413.75814627555
 40
362.43800051855175
 50
230.95883511048842
 51
251.35346403312764
  0
ARC
  8
_0-1_レイヤ___3
  6
CONTINUOUS
 62
    7
 10
1851.8272322596908
 20
10469.153515985499
 40
421.96811857703062
 50
250.92920805381596
 51
264.01576111916961
  0
ARC
  8
_0-1_レイヤ___3
  6
CONTINUOUS
 62
    7
 10
1862.5756287211732
 20
10543.90092216966
 40
497.43720610568437
 50
263.68207230856331
 51
270.12317171358143
  0
ARC
  8
_0-1_レイヤ___3
  6
CONTINUOUS
 62
    7
 10
2096.2126510732619
 20
10245.26567188831
 40
100.75331131322829
 50
324.59559624775562
 51
327.45542393478553
  0
ARC
  8
_0-1_レイヤ___3
  6
CONTINUOUS
 62
    7
 10
2008.0415387695198
 20
10307.718363524888
 40
208.8017660843839
 50
318.63276352575673
 51
324.64423277713365
  0
ARC
  8
_0-1_レイヤ___3
  6
CONTINUOUS
 62
    7
 10
1934.5525534196111
 20
10370.285434729602
 40
305.30820552446175
 50
308.77234981341053
 51
318.93522570002381
  0
ARC
  8
_0-1_レイヤ___3
  6
CONTINUOUS
 62
    7
 10
1897.4530572264518
 20
10413.758149055178
 40
362.43800299241167
 50
288.64653575148515
 51
309.04116467412439
  0
ARC
  8
_0-1_レイヤ___3
  6
CONTINUOUS
 62
    7
 10
1875.4627562403095
 20
10469.153511626333
 40
421.96811429374577
 50
275.9842390100597
 51
289.07079207541335
  0
ARC
  8
_0-1_レイヤ___3
  6
CONTINUOUS
 62
    7
 10
1864.7143602788269
 20
10543.900922169654
 40
497.43720610568181
 50
269.87682828641857
 51
276.31792769143669
  0
ARC
  8
_0-1_レイヤ___3
  6
CONTINUOUS
 62
    7
 10
996.0359454185176
 20
10136.627503281727
 40
100.93010227787077
 50
144.50212566872608
 51
147.3601201761013
  0
ARC
  8
_0-1_レイヤ___3
  6
CONTINUOUS
 62
    7
 10
1084.269615126392
 20
10074.232056271174
 40
208.99619450303848
 50
138.61419937969035
 51
144.62177519628324
  0
ARC
  8
_0-1_レイヤ___3
  6
CONTINUOUS
 62
    7
 10
1157.8105495690149
 20
10011.582808269703
 40
305.59542888809329
 50
128.76110525464975
 51
138.91711914959751
  0
ARC
  8
_0-1_レイヤ___3
  6
CONTINUOUS
 62
    7
 10
1194.9087118357247
 20
9968.0573796324115
 40
362.76505117262718
 50
108.64440299195788
 51
129.02607158712718
  0
ARC
  8
_0-1_レイヤ___3
  6
CONTINUOUS
 62
    7
 10
1216.8508784280348
 20
9912.7376120308472
 40
422.20788163462692
 50
95.984053405987382
 51
109.06580929539723
  0
ARC
  8
_0-1_レイヤ___3
  6
CONTINUOUS
 62
    7
 10
1227.5785063483647
 20
9838.1757922208417
 40
497.49021243479706
 50
89.877171789659343
 51
96.317584188195951
  0
ARC
  8
_0-1_レイヤ___3
  6
CONTINUOUS
 62
    7
 10
1461.1205275955444
 20
10136.604825622167
 40
100.97057184267894
 50
32.640452692635513
 51
35.497301462540811
  0
ARC
  8
_0-1_レイヤ___3
  6
CONTINUOUS
 62
    7
 10
1372.8578834439213
 20
10074.182553779814
 40
209.07582118488511
 50
35.379367881899604
 51
41.384653441116832
  0
ARC
  8
_0-1_レイヤ___3
  6
CONTINUOUS
 62
    7
 10
1299.3223857357139
 20
10011.574447133708
 40
305.64394410371193
 50
41.077031552933882
 51
51.230071912500513
  0
ARC
  8
_0-1_レイヤ___3
  6
CONTINUOUS
 62
    7
 10
1262.2925590569398
 20
9968.1158798433516
 40
362.71881065871497
 50
50.968264813883259
 51
71.34834178087668
  0
ARC
  8
_0-1_レイヤ___3
  6
CONTINUOUS
 62
    7
 10
1240.4215560883235
 20
9913.0129563069768
 40
421.93378546990107
 50
70.92742247026915
 51
84.012376478250204
  0
ARC
  8
_0-1_レイヤ___3
  6
CONTINUOUS
 62
    7
 10
1229.7120159612969
 20
9838.5477853209923
 40
497.11822129585903
 50
83.680048093082036
 51
90.122979514817999
  0
ARC
  8
_0-1_レイヤ___3
  6
CONTINUOUS
 62
    7
 10
2253.2422545972036
 20
10144.758611797966
 40
85.687131946333949
 50
144.22233369227664
 51
147.28839169838002
  0
ARC
  8
_0-1_レイヤ___3
  6
CONTINUOUS
 62
    7
 10
2315.8333631834594
 20
10100.105046321722
 40
162.57352260625362
 50
139.79746805852093
 51
144.35142471936129
  0
ARC
  8
_0-1_レイヤ___3
  6
CONTINUOUS
 62
    7
 10
2372.0551768374298
 20
10053.353656136809
 40
235.69226138958345
 50
128.64561369218313
 51
139.93931621337404
  0
ARC
  8
_0-1_レイヤ___3
  6
CONTINUOUS
 62
    7
 10
2403.8280903157242
 20
10016.650635541526
 40
284.20673230090256
 50
110.99190648966881
 51
129.02750531113188
  0
ARC
  8
_0-1_レイヤ___3
  6
CONTINUOUS
 62
    7
 10
2421.444866532343
 20
9975.747461760342
 40
328.71106836472364
 50
95.239897760050809
 51
111.30471065578642
  0
ARC
  8
_0-1_レイヤ___3
  6
CONTINUOUS
 62
    7
 10
2430.9585345151199
 20
9909.5217797552323
 40
395.54367739998577
 50
89.900565307281113
 51
95.736139487848533
  0
ARC
  8
_0-1_レイヤ___3
  6
CONTINUOUS
 62
    7
 10
2610.0477174027969
 20
10144.758611797966
 40
85.687131946333949
 50
32.711608301619982
 51
35.777666307723365
  0
ARC
  8
_0-1_レイヤ___3
  6
CONTINUOUS
 62
    7
 10
2547.4566088165411
 20
10100.105046321722
 40
162.57352260625362
 50
35.648575280638724
 51
40.202531941479087
  0
ARC
  8
_0-1_レイヤ___3
  6
CONTINUOUS
 62
    7
 10
2491.2347946625705
 20
10053.353651079997
 40
235.69226502682244
 50
40.060684649250895
 51
51.354387170441797
  0
ARC
  8
_0-1_レイヤ___3
  6
CONTINUOUS
 62
    7
 10
2459.4618806842759
 20
10016.650635541524
 40
284.20673230090301
 50
50.972494688868174
 51
69.00809351033125
  0
ARC
  8
_0-1_レイヤ___3
  6
CONTINUOUS
 62
    7
 10
2441.8451049676569
 20
9975.7474653034842
 40
328.71106488205066
 50
68.695289201023982
 51
84.760102096759596
  0
ARC
  8
_0-1_レイヤ___3
  6
CONTINUOUS
 62
    7
 10
2432.3314369848804
 20
9909.5217699453588
 40
395.5436872107112
 50
84.263860582111889
 51
90.099434762679323
  0
ARC
  8
_0-1_レイヤ___3
  6
CONTINUOUS
 62
    7
 10
2754.242247097161
 20
10237.371096519384
 40
85.687121429294223
 50
212.7115979711987
 51
215.77765597730209
  0
ARC
  8
_0-1_レイヤ___3
  6
CONTINUOUS
 62
    7
 10
2816.8333551834594
 20
10282.024680678278
 40
162.57352260625251
 50
215.64857528063823
 51
220.20253194147855
  0
ARC
  8
_0-1_レイヤ___3
  6
CONTINUOUS
 62
    7
 10
2873.05516933743
 20
10328.776075920005
 40
235.69226502682244
 50
220.06068464925087
 51
231.35438717044178
  0
ARC
  8
_0-1_レイヤ___3
  6
CONTINUOUS
 62
    7
 10
2904.8280833157241
 20
10365.479091458477
 40
284.20673230090335
 50
230.97249468886821
 51
249.00809351033129
  0
ARC
  8
_0-1_レイヤ___3
  6
CONTINUOUS
 62
    7
 10
2922.4448590323432
 20
10406.382261696517
 40
328.71106488204964
 50
248.69528920102391
 51
264.76010209675957
  0
ARC
  8
_0-1_レイヤ___3
  6
CONTINUOUS
 62
    7
 10
2931.9585270151197
 20
10472.607957054643
 40
395.54368721071256
 50
264.26386058211187
 51
270.09943476267932
  0
ARC
  8
_0-1_レイヤ___3
  6
CONTINUOUS
 62
    7
 10
3111.0477094028392
 20
10237.371115202039
 40
85.687131946301804
 50
324.22233369225773
 51
327.28839169836107
  0
ARC
  8
_0-1_レイヤ___3
  6
CONTINUOUS
 62
    7
 10
3048.4566008165402
 20
10282.024680678278
 40
162.57352260625143
 50
319.79746805852193
 51
324.35142471936229
  0
ARC
  8
_0-1_レイヤ___3
  6
CONTINUOUS
 62
    7
 10
2992.2347871625702
 20
10328.77607086319
 40
235.69226138958345
 50
308.64561369218313
 51
319.93931621337401
  0
ARC
  8
_0-1_レイヤ___3
  6
CONTINUOUS
 62
    7
 10
2960.4618736842758
 20
10365.479091458477
 40
284.20673230090335
 50
290.99190648966874
 51
309.02750531113179
  0
ARC
  8
_0-1_レイヤ___3
  6
CONTINUOUS
 62
    7
 10
2942.8450974676571
 20
10406.382265239659
 40
328.71106836472256
 50
275.23989776005084
 51
291.30471065578644
  0
ARC
  8
_0-1_レイヤ___3
  6
CONTINUOUS
 62
    7
 10
2933.3314294848797
 20
10472.607947244771
 40
395.54367739998719
 50
269.90056530728111
 51
275.7361394878485
  0
ARC
  8
_0-1_レイヤ___3
  6
CONTINUOUS
 62
    7
 10
3903.1359024184721
 20
10245.502223718282
 40
100.9301022778378
 50
212.6398798239172
 51
215.49787433129242
  0
ARC
  8
_0-1_レイヤ___3
  6
CONTINUOUS
 62
    7
 10
3991.3695716263919
 20
10307.897661200306
 40
208.99618857862353
 50
215.37822275321037
 51
221.38579856980323
  0
ARC
  8
_0-1_レイヤ___3
  6
CONTINUOUS
 62
    7
 10
4064.9105060690144
 20
10370.546924357084
 40
305.59543296261558
 50
221.08288158398486
 51
231.23889547893262
  0
ARC
  8
_0-1_レイヤ___3
  6
CONTINUOUS
 62
    7
 10
4102.0086688357251
 20
10414.07234736759
 40
362.76505117262622
 50
230.97392841287277
 51
251.35559700804205
  0
ARC
  8
_0-1_レイヤ___3
  6
CONTINUOUS
 62
    7
 10
4123.9508354280351
 20
10469.392114969156
 40
422.20788163462777
 50
250.93419070460283
 51
264.01594659401269
  0
ARC
  8
_0-1_レイヤ___3
  6
CONTINUOUS
 62
    7
 10
4134.6784633483649
 20
10543.953934779158
 40
497.49021243479604
 50
263.68241581180405
 51
270.12282821034069
  0
ARC
  8
_0-1_レイヤ___3
  6
CONTINUOUS
 62
    7
 10
4368.2204845955894
 20
10245.524901377848
 40
100.97057184265014
 50
324.50269853743714
 51
327.35954730734244
  0
ARC
  8
_0-1_レイヤ___3
  6
CONTINUOUS
 62
    7
 10
4279.9578399439215
 20
10307.947182752338
 40
209.07582711155086
 50
318.61534450837905
 51
324.62063006759627
  0
ARC
  8
_0-1_レイヤ___3
  6
CONTINUOUS
 62
    7
 10
4206.4223422357136
 20
10370.555274237853
 40
305.6439400285019
 50
308.76992882127729
 51
318.92296918084389
  0
ARC
  8
_0-1_レイヤ___3
  6
CONTINUOUS
 62
    7
 10
4169.3925160569397
 20
10414.01384715665
 40
362.71881065871611
 50
288.65165821912319
 51
309.03173518611663
  0
ARC
  8
_0-1_レイヤ___3
  6
CONTINUOUS
 62
    7
 10
4147.5215130883234
 20
10469.116770693026
 40
421.93378546990107
 50
275.98762352174981
 51
289.07257752973084
  0
ARC
  8
_0-1_レイヤ___3
  6
CONTINUOUS
 62
    7
 10
4136.8119729612963
 20
10543.581941679005
 40
497.11822129585721
 50
269.87702048518202
 51
276.31995190691799
  0
ARC
  8
_0-1_レイヤ___3
  6
CONTINUOUS
 62
    7
 10
3268.0773129267836
 20
10136.864055111695
 40
100.75331131326293
 50
144.59559624777279
 51
147.4554239348027
  0
ARC
  8
_0-1_レイヤ___3
  6
CONTINUOUS
 62
    7
 10
3356.2484252304803
 20
10074.411363475112
 40
208.80176608438552
 50
138.63276352575616
 51
144.64423277713306
  0
ARC
  8
_0-1_レイヤ___3
  6
CONTINUOUS
 62
    7
 10
3429.7374105803892
 20
10011.8442922704
 40
305.30820552446175
 50
128.77234981341056
 51
138.93522570002384
  0
ARC
  8
_0-1_レイヤ___3
  6
CONTINUOUS
 62
    7
 10
3466.8369067735489
 20
9968.371577944823
 40
362.43800299241201
 50
108.64653575148515
 51
129.04116467412436
  0
ARC
  8
_0-1_レイヤ___3
  6
CONTINUOUS
 62
    7
 10
3488.8272077596912
 20
9912.9762153736719
 40
421.96811429374492
 50
95.984239010059753
 51
109.07079207541342
  0
ARC
  8
_0-1_レイヤ___3
  6
CONTINUOUS
 62
    7
 10
3499.5756037211731
 20
9838.2288048303435
 40
497.43720610568312
 50
89.876828286418601
 51
96.317927691436694
  0
ARC
  8
_0-1_レイヤ___3
  6
CONTINUOUS
 62
    7
 10
3733.2126270732165
 20
10136.864055111695
 40
100.75331131326293
 50
32.544576065197333
 51
35.404403752227225
  0
ARC
  8
_0-1_レイヤ___3
  6
CONTINUOUS
 62
    7
 10
3645.0415147695194
 20
10074.411363475116
 40
208.8017660843839
 50
35.355767222866348
 51
41.367236474243263
  0
ARC
  8
_0-1_レイヤ___3
  6
CONTINUOUS
 62
    7
 10
3571.5525289196112
 20
10011.844286647438
 40
305.30820959523646
 50
41.064775033949537
 51
51.227650920562823
  0
ARC
  8
_0-1_レイヤ___3
  6
CONTINUOUS
 62
    7
 10
3534.4530327264515
 20
9968.3715807244535
 40
362.43800051855209
 50
50.958835110488486
 51
71.353464033127693
  0
ARC
  8
_0-1_レイヤ___3
  6
CONTINUOUS
 62
    7
 10
3512.4627317403092
 20
9912.9762110145057
 40
421.96811857702875
 50
70.929208053815913
 51
84.015761119169582
  0
ARC
  8
_0-1_レイヤ___3
  6
CONTINUOUS
 62
    7
 10
3501.7143352788275
 20
9838.2288048303417
 40
497.43720610568568
 50
83.682072308563335
 51
90.123171713581428
  0
ARC
  8
_0-1_レイヤ___3
  6
CONTINUOUS
 62
    7
 10
4525.3422205972038
 20
10144.758611797966
 40
85.687131946333949
 50
144.22233369227664
 51
147.28839169838002
  0
ARC
  8
_0-1_レイヤ___3
  6
CONTINUOUS
 62
    7
 10
4587.9333291834591
 20
10100.105046321731
 40
162.57352260624702
 50
139.79746805852392
 51
144.35142471936425
  0
ARC
  8
_0-1_レイヤ___3
  6
CONTINUOUS
 62
    7
 10
4644.1551428374296
 20
10053.353656136806
 40
235.69226138958658
 50
128.64561369218239
 51
139.9393162133733
  0
ARC
  8
_0-1_レイヤ___3
  6
CONTINUOUS
 62
    7
 10
4675.9280563157245
 20
10016.650635541526
 40
284.20673230090256
 50
110.99190648966881
 51
129.02750531113188
  0
ARC
  8
_0-1_レイヤ___3
  6
CONTINUOUS
 62
    7
 10
4693.5448325323432
 20
9975.7474617603439
 40
328.71106836472171
 50
95.23989776005088
 51
111.30471065578651
  0
ARC
  8
_0-1_レイヤ___3
  6
CONTINUOUS
 62
    7
 10
4703.0585005151197
 20
9909.5217797552341
 40
395.54367739998446
 50
89.900565307281127
 51
95.736139487848547
  0
ARC
  8
_0-1_レイヤ___3
  6
CONTINUOUS
 62
    7
 10
4882.0522574000679
 20
10144.69365161669
 40
85.802528749314291
 50
32.713670581035714
 51
35.775604028307619
  0
ARC
  8
_0-1_レイヤ___3
  6
CONTINUOUS
 62
    7
 10
4819.3771080191218
 20
10099.843182261238
 40
162.87201205520404
 50
35.686637311100895
 51
40.234408467315632
  0
ARC
  8
_0-1_レイヤ___3
  6
CONTINUOUS
 62
    7
 10
4763.1075883337526
 20
10053.040033641475
 40
236.0603457731514
 50
40.085019287030654
 51
51.364546888739845
  0
ARC
  8
_0-1_レイヤ___3
  6
CONTINUOUS
 62
    7
 10
4730.5795676090074
 20
10015.304495598168
 40
285.85213691888589
 50
50.994118672633938
 51
70.768553175550778
  0
ARC
  8
_0-1_レイヤ___3
  6
CONTINUOUS
 62
    7
 10
4712.3525075039561
 20
9969.9544809317631
 40
334.68285969358885
 50
70.379545261701679
 51
85.909701547331878
  0
ARC
  8
_0-1_レイヤ___3
  6
CONTINUOUS
 62
    7
 10
4704.1991048106629
 20
9903.8590017582137
 40
401.2061167858443
 50
85.42155502647617
 51
90.06485712062026
  0
ARC
  8
_0-1_レイヤ___3
  6
CONTINUOUS
 62
    7
 10
5026.3422135971605
 20
10237.371115202033
 40
85.68713194629882
 50
212.71160830163598
 51
215.77766630773934
  0
ARC
  8
_0-1_レイヤ___3
  6
CONTINUOUS
 62
    7
 10
5088.9333216834584
 20
10282.024668103368
 40
162.57351487113877
 50
215.6485717820467
 51
220.20252844288706
  0
ARC
  8
_0-1_レイヤ___3
  6
CONTINUOUS
 62
    7
 10
5145.1551353374289
 20
10328.776075920005
 40
235.69226502682301
 50
220.06068464925102
 51
231.35438717044192
  0
ARC
  8
_0-1_レイヤ___3
  6
CONTINUOUS
 62
    7
 10
5176.9280493157239
 20
10365.479091458476
 40
284.20673230090256
 50
230.97249468886812
 51
249.00809351033121
  0
ARC
  8
_0-1_レイヤ___3
  6
CONTINUOUS
 62
    7
 10
5194.5448255323436
 20
10406.382265239663
 40
328.71106836472558
 50
248.69528934421368
 51
264.76010223994928
  0
ARC
  8
_0-1_レイヤ___3
  6
CONTINUOUS
 62
    7
 10
5204.0584935151201
 20
10472.607947244769
 40
395.54367739998446
 50
264.26386051215144
 51
270.09943469271889
  0
ARC
  8
_0-1_レイヤ___3
  6
CONTINUOUS
 62
    7
 10
5383.010595812525
 20
10237.39635671735
 40
85.731971558112647
 50
324.22313568968741
 51
327.28758970092554
  0
ARC
  8
_0-1_レイヤ___3
  6
CONTINUOUS
 62
    7
 10
5320.3920047659221
 20
10282.074987124006
 40
162.65530541513715
 50
319.79861352195292
 51
324.35027925592732
  0
ARC
  8
_0-1_レイヤ___3
  6
CONTINUOUS
 62
    7
 10
5264.1763201103695
 20
10328.790502511083
 40
235.74627358302268
 50
308.65641323357414
 51
319.94577183701176
  0
ARC
  8
_0-1_レイヤ___3
  6
CONTINUOUS
 62
    7
 10
5231.6520412381888
 20
10366.508648598377
 40
285.52275923748948
 50
289.23484954955984
 51
309.02520763831461
  0
ARC
  8
_0-1_レイヤ___3
  6
CONTINUOUS
 62
    7
 10
5213.3728799628461
 20
10411.957220456572
 40
334.46393574591821
 50
274.08948010602842
 51
289.62648034847984
  0
ARC
  8
_0-1_レイヤ___3
  6
CONTINUOUS
 62
    7
 10
5205.2006565325382
 20
10478.231147655228
 40
401.16654099227435
 50
269.93491385974318
 51
274.57867413198187
  0
ARC
  8
_0-1_レイヤ___3
  6
CONTINUOUS
 62
    7
 10
6175.1772699267367
 20
10245.265671888299
 40
100.75331131322194
 50
212.54457606520913
 51
215.40440375223901
  0
ARC
  8
_0-1_レイヤ___3
  6
CONTINUOUS
 62
    7
 10
6263.3483817304796
 20
10307.718354002554
 40
208.80176016648289
 50
215.35576517119864
 51
221.36723442257554
  0
ARC
  8
_0-1_レイヤ___3
  6
CONTINUOUS
 62
    7
 10
6336.8373670803885
 20
10370.285440352563
 40
305.30820959523527
 50
221.06477503394933
 51
231.22765092056261
  0
ARC
  8
_0-1_レイヤ___3
  6
CONTINUOUS
 62
    7
 10
6373.9368632735477
 20
10413.758146275548
 40
362.43800051855146
 50
230.95883511048842
 51
251.35346403312761
  0
ARC
  8
_0-1_レイヤ___3
  6
CONTINUOUS
 62
    7
 10
6395.9271642596905
 20
10469.153515985501
 40
421.96811857703369
 50
250.92920805381607
 51
264.01576111916972
  0
ARC
  8
_0-1_レイヤ___3
  6
CONTINUOUS
 62
    7
 10
6406.6755607211735
 20
10543.900922169661
 40
497.43720610568812
 50
263.68207230856331
 51
270.12317171358143
  0
ARC
  8
_0-1_レイヤ___3
  6
CONTINUOUS
 62
    7
 10
6640.3125830732624
 20
10245.265671888299
 40
100.75331131322194
 50
324.59559624776097
 51
327.45542393479087
  0
ARC
  8
_0-1_レイヤ___3
  6
CONTINUOUS
 62
    7
 10
6552.1414712695196
 20
10307.718354002558
 40
208.80176016648622
 50
318.63276557742324
 51
324.64423482880017
  0
ARC
  8
_0-1_レイヤ___3
  6
CONTINUOUS
 62
    7
 10
6478.6524859196106
 20
10370.285440352563
 40
305.30820959523527
 50
308.77234907943739
 51
318.93522496605067
  0
ARC
  8
_0-1_レイヤ___3
  6
CONTINUOUS
 62
    7
 10
6441.5529897264514
 20
10413.758146275548
 40
362.43800051855146
 50
288.64653596687236
 51
309.04116488951161
  0
ARC
  8
_0-1_レイヤ___3
  6
CONTINUOUS
 62
    7
 10
6419.5626887403087
 20
10469.153515985501
 40
421.96811857703369
 50
275.98423888083028
 51
289.07079194618393
  0
ARC
  8
_0-1_レイヤ___3
  6
CONTINUOUS
 62
    7
 10
6408.8142922788284
 20
10543.900922169647
 40
497.43720610567294
 50
269.87682828641869
 51
276.31792769143675
  0
ARC
  8
_0-1_レイヤ___3
  6
CONTINUOUS
 62
    7
 10
5540.1358774185173
 20
10136.627503281741
 40
100.93010227786282
 50
144.50212566873279
 51
147.36012017610801
  0
ARC
  8
_0-1_レイヤ___3
  6
CONTINUOUS
 62
    7
 10
5628.3695471263927
 20
10074.232056271167
 40
208.99619450304266
 50
138.6141993796889
 51
144.62177519628176
  0
ARC
  8
_0-1_レイヤ___3
  6
CONTINUOUS
 62
    7
 10
5701.9104815690162
 20
10011.582808269701
 40
305.59542888809415
 50
128.76110525464961
 51
138.91711914959737
  0
ARC
  8
_0-1_レイヤ___3
  6
CONTINUOUS
 62
    7
 10
5739.008644335725
 20
9968.0573768509767
 40
362.76505364824754
 50
108.64440277668834
 51
129.02607137185763
  0
ARC
  8
_0-1_レイヤ___3
  6
CONTINUOUS
 62
    7
 10
5760.9508109280341
 20
9912.7376163916269
 40
422.2078773497347
 50
95.984053535164293
 51
109.06580942457414
  0
ARC
  8
_0-1_レイヤ___3
  6
CONTINUOUS
 62
    7
 10
5771.6784383483646
 20
9838.1757922208435
 40
497.49021243479604
 50
89.877171789659343
 51
96.317584188195951
  0
ARC
  8
_0-1_レイヤ___3
  6
CONTINUOUS
 62
    7
 10
6005.2204605955449
 20
10136.604825622162
 40
100.97057184268152
 50
32.640452692637687
 51
35.497301462542985
  0
ARC
  8
_0-1_レイヤ___3
  6
CONTINUOUS
 62
    7
 10
5916.9578159439207
 20
10074.182544247664
 40
209.07582711155086
 50
35.379369932403733
 51
41.384655491620954
  0
ARC
  8
_0-1_レイヤ___3
  6
CONTINUOUS
 62
    7
 10
5843.4223182357146
 20
10011.574452762146
 40
305.6439400285019
 50
41.077030819156093
 51
51.230071178722717
  0
ARC
  8
_0-1_レイヤ___3
  6
CONTINUOUS
 62
    7
 10
5806.3924915569396
 20
9968.115877061693
 40
362.71881313437632
 50
50.968265029241259
 51
71.34834199623468
  0
ARC
  8
_0-1_レイヤ___3
  6
CONTINUOUS
 62
    7
 10
5784.5214885883233
 20
9913.0129606666815
 40
421.93378118613651
 50
70.927422340987263
 51
84.012376348968317
  0
ARC
  8
_0-1_レイヤ___3
  6
CONTINUOUS
 62
    7
 10
5773.8119484612971
 20
9838.5477764375537
 40
497.11823018035136
 50
83.680048148512199
 51
90.122979570248162
  0
ARC
  8
_0-1_レイヤ___3
  6
CONTINUOUS
 62
    7
 10
6797.3421865972032
 20
10144.758611797955
 40
85.687131946339932
 50
144.22233369227075
 51
147.28839169837414
  0
ARC
  8
_0-1_レイヤ___3
  6
CONTINUOUS
 62
    7
 10
6859.9332951834594
 20
10100.105046321725
 40
162.57352260625143
 50
139.79746805852193
 51
144.35142471936226
  0
ARC
  8
_0-1_レイヤ___3
  6
CONTINUOUS
 62
    7
 10
6916.1551093374292
 20
10053.353651079999
 40
235.69226502682088
 50
128.64561282955856
 51
139.93931535074947
  0
ARC
  8
_0-1_レイヤ___3
  6
CONTINUOUS
 62
    7
 10
6947.9280228157231
 20
10016.650638692066
 40
284.20672953857724
 50
110.99190681131051
 51
129.0275056327736
  0
ARC
  8
_0-1_レイヤ___3
  6
CONTINUOUS
 62
    7
 10
6965.5447985323426
 20
9975.7474617603402
 40
328.71106836472558
 50
95.239897760050724
 51
111.30471065578634
  0
ARC
  8
_0-1_レイヤ___3
  6
CONTINUOUS
 62
    7
 10
6975.0584670151202
 20
9909.5217699453515
 40
395.54368721071808
 50
89.900565237320635
 51
95.736139417888069
  0
ARC
  8
_0-1_レイヤ___3
  6
CONTINUOUS
 62
    7
 10
7154.1476494027975
 20
10144.758611797955
 40
85.687131946339932
 50
32.711608301625859
 51
35.777666307729241
  0
ARC
  8
_0-1_レイヤ___3
  6
CONTINUOUS
 62
    7
 10
7091.5565408165412
 20
10100.105046321725
 40
162.57352260625143
 50
35.648575280637729
 51
40.202531941478085
  0
ARC
  8
_0-1_レイヤ___3
  6
CONTINUOUS
 62
    7
 10
7035.3347266625697
 20
10053.353651079993
 40
235.69226502682505
 50
40.060684649251506
 51
51.354387170442408
  0
ARC
  8
_0-1_レイヤ___3
  6
CONTINUOUS
 62
    7
 10
7003.5618131842766
 20
10016.650638692066
 40
284.20672953857724
 50
50.972494367226417
 51
69.008093188689486
  0
ARC
  8
_0-1_レイヤ___3
  6
CONTINUOUS
 62
    7
 10
6985.945037467658
 20
9975.7474617603439
 40
328.71106836472171
 50
68.695289344213506
 51
84.760102239949134
  0
ARC
  8
_0-1_レイヤ___3
  6
CONTINUOUS
 62
    7
 10
6976.4313694848806
 20
9909.5217797552341
 40
395.54367739998446
 50
84.263860512151453
 51
90.099434692718887
  0
ARC
  8
_0-2_決定
  6
CONTINUOUS
 62
    7
 10
809.73122456125964
 20
1187.0049950010368
 40
5.3828075809798746
 50
339.64460576647309
 51
37.914206455859222
  0
ARC
  8
_0-2_決定
  6
CONTINUOUS
 62
    7
 10
806.39169757876766
 20
1188.3305701172708
 40
8.9752494391576843
 50
309.97513473354331
 51
339.12643938085728
  0
ARC
  8
_0-2_決定
  6
CONTINUOUS
 62
    7
 10
800.35500000729121
 20
1194.6814213510081
 40
17.728769427141884
 50
291.37943850229169
 51
311.73973364037766
  0
ARC
  8
_0-2_決定
  6
CONTINUOUS
 62
    7
 10
797.0068061287509
 20
1202.052362538072
 40
25.816645365768281
 50
278.39935499820103
 51
292.33550853106385
  0
ARC
  8
_0-2_決定
  6
CONTINUOUS
 62
    7
 10
791.10226247451033
 20
1198.27965231601
 40
23.820604541458678
 50
266.95737651089263
 51
293.96555837088846
  0
ARC
  8
_0-2_決定
  6
CONTINUOUS
 62
    7
 10
790.79850290521961
 20
1186.0655077570436
 40
11.612680115760924
 50
241.16531569590836
 51
265.2550235617187
  0
ARC
  8
_0-2_決定
  6
CONTINUOUS
 62
    7
 10
788.00929096435709
 20
1180.5712217952421
 40
5.4583157195519103
 50
174.30752414926963
 51
238.99806284416491
  0
ARC
  8
_0-2_決定
  6
CONTINUOUS
 62
    7
 10
786.96919971957391
 20
1184.6041539232967
 40
5.6101996334769213
 50
142.84420314905742
 51
218.48819679131043
  0
ARC
  8
_0-2_決定
  6
CONTINUOUS
 62
    7
 10
792.53604297459242
 20
1181.0974668730694
 40
12.178164977665167
 50
121.03256478364902
 51
145.51500360695124
  0
ARC
  8
_0-2_決定
  6
CONTINUOUS
 62
    7
 10
798.52610353632372
 20
1172.2437706078817
 40
22.859766246198202
 50
97.410044074891388
 51
122.45741721894524
  0
ARC
  8
_0-2_決定
  6
CONTINUOUS
 62
    7
 10
805.25034623535453
 20
1173.1628006409428
 40
23.803596948480447
 50
86.94754495681174
 51
113.97538992496881
  0
ARC
  8
_0-2_決定
  6
CONTINUOUS
 62
    7
 10
805.59475958441794
 20
1185.198720998161
 40
11.770160552906022
 50
60.794723005701165
 51
85.501676690023203
  0
ARC
  8
_0-2_決定
  6
CONTINUOUS
 62
    7
 10
808.38132820805356
 20
1190.704615679258
 40
5.6102749808169374
 50
355.99349310252018
 51
58.197629894808266
  0
ARC
  8
_0-2_決定
  6
CONTINUOUS
 62
    7
 10
861.94168527474153
 20
1242.2025053214143
 40
24.570535383301628
 50
281.35161511007209
 51
299.76047532909536
  0
ARC
  8
_0-2_決定
  6
CONTINUOUS
 62
    7
 10
871.05494333122181
 20
1225.9208018096492
 40
5.9151205009334271
 50
301.41262324023427
 51
320.17666275634315
  0
ARC
  8
_0-2_決定
  6
CONTINUOUS
 62
    7
 10
874.51188126928628
 20
1223.1335432753549
 40
1.4769065482395232
 50
317.3348446429822
 51
6.9645187525851853
  0
ARC
  8
_0-2_決定
  6
CONTINUOUS
 62
    7
 10
874.81153155564698
 20
1222.9408107487475
 40
1.2241890245951264
 50
17.681352119016456
 51
59.226066314411035
  0
ARC
  8
_0-2_決定
  6
CONTINUOUS
 62
    7
 10
873.55442917881305
 20
1220.7625591975152
 40
3.7390843417091109
 50
59.753409495558081
 51
80.712253150857578
  0
ARC
  8
_0-2_決定
  6
CONTINUOUS
 62
    7
 10
872.02771584138532
 20
1213.3405657715887
 40
11.31439374668733
 50
79.148089270134335
 51
91.16390997969215
  0
ARC
  8
_0-2_決定
  6
CONTINUOUS
 62
    7
 10
872.34665815810649
 20
1198.5110407716386
 40
26.147343592704292
 50
91.202584398110147
 51
105.45724051765949
  0
ARC
  8
_0-2_決定
  6
CONTINUOUS
 62
    7
 10
871.40749617929032
 20
1198.0653081056389
 40
26.346556037011311
 50
103.22981481161834
 51
120.89889105669474
  0
ARC
  8
_0-2_決定
  6
CONTINUOUS
 62
    7
 10
860.82879869660223
 20
1215.986060275307
 40
5.538208176417621
 50
122.19668177245268
 51
141.77774321918315
  0
ARC
  8
_0-2_決定
  6
CONTINUOUS
 62
    7
 10
857.55144821860824
 20
1218.5289274957877
 40
1.390484778638942
 50
140.54054555488656
 51
188.94921703899283
  0
ARC
  8
_0-2_決定
  6
CONTINUOUS
 62
    7
 10
857.28598543407827
 20
1218.6683392448954
 40
1.1637900370082623
 50
197.79736300215302
 51
240.7814507228598
  0
ARC
  8
_0-2_決定
  6
CONTINUOUS
 62
    7
 10
858.52700237671797
 20
1220.83367823251
 40
3.6595061635822681
 50
240.37246926112763
 51
261.68671512189428
  0
ARC
  8
_0-2_決定
  6
CONTINUOUS
 62
    7
 10
859.76399493590179
 20
1228.6793484157297
 40
11.601933852598016
 50
261.24410837890764
 51
272.93421596874259
  0
ARC
  8
_0-2_決定
  6
CONTINUOUS
 62
    7
 10
859.06533427558827
 20
1245.9422428025348
 40
28.87855853721279
 50
272.56532047782235
 51
285.48990542360866
  0
ARC
  8
_0-2_決定
  6
CONTINUOUS
 62
    7
 10
834.83775373641663
 20
1501.4626000744934
 40
3.4726031633013261
 50
344.12354775240101
 51
33.368776772712863
  0
ARC
  8
_0-2_決定
  6
CONTINUOUS
 62
    7
 10
831.25389869406092
 20
1499.5576993848499
 40
7.5230163877205145
 50
30.470855400814376
 51
45.381976652403303
  0
ARC
  8
_0-2_決定
  6
CONTINUOUS
 62
    7
 10
827.38691826521608
 20
1495.5794728299479
 40
13.070883038154292
 50
45.564672363435299
 51
57.250208201628844
  0
ARC
  8
_0-2_決定
  6
CONTINUOUS
 62
    7
 10
822.60545729299884
 20
1488.3880206524591
 40
21.706218238646482
 50
56.904327014796031
 51
74.577504079033744
  0
ARC
  8
_0-2_決定
  6
CONTINUOUS
 62
    7
 10
823.0959613735638
 20
1489.3029113197238
 40
20.695102806697054
 50
75.21301521199554
 51
95.206723343280018
  0
ARC
  8
_0-2_決定
  6
CONTINUOUS
 62
    7
 10
822.12479764306545
 20
1500.2800666495314
 40
9.6751528312901378
 50
95.378544495901409
 51
122.13875619978383
  0
ARC
  8
_0-2_決定
  6
CONTINUOUS
 62
    7
 10
819.08876631114049
 20
1505.4848539857185
 40
3.6582155660018021
 50
125.24141664602953
 51
163.68322777001936
  0
ARC
  8
_0-2_決定
  6
CONTINUOUS
 62
    7
 10
819.27420240917763
 20
1505.6978238188242
 40
3.7850498777539894
 50
167.56879331357985
 51
215.63422975045054
  0
ARC
  8
_0-2_決定
  6
CONTINUOUS
 62
    7
 10
822.98922076836197
 20
1507.8941274650201
 40
8.09292282712385
 50
212.94754831571166
 51
227.65509064970027
  0
ARC
  8
_0-2_決定
  6
CONTINUOUS
 62
    7
 10
827.76710459244532
 20
1513.001340970942
 40
15.086301449061992
 50
227.30883097313017
 51
249.47616453437166
  0
ARC
  8
_0-2_決定
  6
CONTINUOUS
 62
    7
 10
831.11413056451261
 20
1520.1010490024089
 40
22.917913556951216
 50
247.86231856323352
 51
255.50503305653771
  0
ARC
  8
_0-2_決定
  6
CONTINUOUS
 62
    7
 10
830.80325358278992
 20
1518.9575641314516
 40
21.733020311607053
 50
255.54398022071896
 51
275.16007839650877
  0
ARC
  8
_0-2_決定
  6
CONTINUOUS
 62
    7
 10
831.88898604399378
 20
1506.6216685947334
 40
9.3495114078690413
 50
275.33253647120972
 51
302.68487777006817
  0
ARC
  8
_0-2_決定
  6
CONTINUOUS
 62
    7
 10
834.89946453930406
 20
1501.5056006054983
 40
3.4255049517209906
 50
306.51788441206793
 51
343.14933053793152
  0
ARC
  8
_0-2_決定
  6
CONTINUOUS
 62
    7
 10
854.59472430771939
 20
1428.8957891460127
 40
4.5868247042317138
 50
272.28860565918177
 51
357.71139434082011
  0
ARC
  8
_0-2_決定
  6
CONTINUOUS
 62
    7
 10
854.96105641267206
 20
1428.8957891460127
 40
4.5868247042317138
 50
182.28860565917989
 51
267.71139434081823
  0
ARC
  8
_0-2_決定
  6
CONTINUOUS
 62
    7
 10
854.89119495911666
 20
1428.5993184946155
 40
4.5147266068696563
 50
91.438084197112687
 51
178.56191580288731
  0
ARC
  8
_0-2_決定
  6
CONTINUOUS
 62
    7
 10
854.64773995700261
 20
1428.5824726903431
 40
4.5320196163524802
 50
1.645644727525448
 51
88.35435527247455
  0
ARC
  8
_0-2_決定
  6
CONTINUOUS
 62
    7
 10
832.75633673262973
 20
1336.3240490854723
 40
2.4215825839085214
 50
275.2494511744336
 51
359.72965466954969
  0
ARC
  8
_0-2_決定
  6
CONTINUOUS
 62
    7
 10
833.08837809249644
 20
1335.9084659759585
 40
1.9988986738590775
 50
202.21787771947561
 51
266.83145822410597
  0
ARC
  8
_0-2_決定
  6
CONTINUOUS
 62
    7
 10
833.71578056265946
 20
1336.3171497596063
 40
2.7378919445253178
 50
180.0947294431206
 51
205.17199442744234
  0
ARC
  8
_0-2_決定
  6
CONTINUOUS
 62
    7
 10
833.27220885163365
 20
1336.2359717376839
 40
2.2955965658711057
 50
97.366118354110583
 51
178.08650363371228
  0
ARC
  8
_0-2_決定
  6
CONTINUOUS
 62
    7
 10
832.88273566780708
 20
1336.2174664011479
 40
2.2971284332233397
 50
2.3741107609658973
 51
87.625889239034109
  0
ARC
  8
_0-2_決定
  6
CONTINUOUS
 62
    7
 10
843.4992545614009
 20
1279.4216273206778
 40
1.0841294535079391
 50
310.12227875525542
 51
354.22952847627096
  0
ARC
  8
_0-2_決定
  6
CONTINUOUS
 62
    7
 10
842.18959926825789
 20
1280.8402934472349
 40
3.0141742050147036
 50
287.93725269250046
 51
311.78077963734199
  0
ARC
  8
_0-2_決定
  6
CONTINUOUS
 62
    7
 10
841.56123751704627
 20
1282.5020303952742
 40
4.7894342527585838
 50
270.19921759053636
 51
288.96667185650244
  0
ARC
  8
_0-2_決定
  6
CONTINUOUS
 62
    7
 10
841.47715833884126
 20
1281.6712692600006
 40
3.9599255771800972
 50
226.6308074498709
 51
271.4576390888659
  0
ARC
  8
_0-2_決定
  6
CONTINUOUS
 62
    7
 10
839.42949136981667
 20
1279.3162562122516
 40
0.8516087509006424
 50
180.24430045776532
 51
217.94268354321235
  0
ARC
  8
_0-2_決定
  6
CONTINUOUS
 62
    7
 10
839.50748442441693
 20
1279.2337556039613
 40
0.9329338243527219
 50
127.62860890914277
 51
175.15047175891647
  0
ARC
  8
_0-2_決定
  6
CONTINUOUS
 62
    7
 10
840.69038573318551
 20
1277.7676343475569
 40
2.8165979873255016
 50
104.65292302566654
 51
128.47717932848943
  0
ARC
  8
_0-2_決定
  6
CONTINUOUS
 62
    7
 10
841.56577816141316
 20
1274.8725319937812
 40
5.8401056599319556
 50
89.881170237531009
 51
105.77698278261241
  0
ARC
  8
_0-2_決定
  6
CONTINUOUS
 62
    7
 10
841.66156748152332
 20
1275.4419424342477
 40
5.2713468445513563
 50
68.682503743559224
 51
90.909548812970471
  0
ARC
  8
_0-2_決定
  6
CONTINUOUS
 62
    7
 10
843.15876929132344
 20
1278.9488548350055
 40
1.4650028700002733
 50
14.377343315244023
 51
73.37605125660231
  0
ARC
  8
_0-2_決定
  6
CONTINUOUS
 62
    7
 10
864.64829629597432
 20
1305.9914945831119
 40
0.9329338243527219
 50
307.62860890914277
 51
355.15047175891647
  0
ARC
  8
_0-2_決定
  6
CONTINUOUS
 62
    7
 10
863.46539498720574
 20
1307.4576158395164
 40
2.8165979873255016
 50
284.6529230256665
 51
308.47717932848946
  0
ARC
  8
_0-2_決定
  6
CONTINUOUS
 62
    7
 10
862.59000255897809
 20
1310.3527181932927
 40
5.8401056599329726
 50
269.88117023752966
 51
285.77698278261101
  0
ARC
  8
_0-2_決定
  6
CONTINUOUS
 62
    7
 10
862.49421323886793
 20
1309.7833077528244
 40
5.2713468445506306
 50
248.68250374355782
 51
270.90954881296904
  0
ARC
  8
_0-2_決定
  6
CONTINUOUS
 62
    7
 10
860.99701142906781
 20
1306.2763953520675
 40
1.4650028700002733
 50
194.37734331524405
 51
253.37605125660232
  0
ARC
  8
_0-2_決定
  6
CONTINUOUS
 62
    7
 10
860.50748442441682
 20
1305.8337556039612
 40
0.9329338243527219
 50
127.62860890914277
 51
175.15047175891647
  0
ARC
  8
_0-2_決定
  6
CONTINUOUS
 62
    7
 10
861.69038573318539
 20
1304.3676343475563
 40
2.8165979873261171
 50
104.65292302566029
 51
128.47717932848317
  0
ARC
  8
_0-2_決定
  6
CONTINUOUS
 62
    7
 10
862.5657781614126
 20
1301.472531993782
 40
5.8401056599308649
 50
89.881170237527385
 51
105.77698278260878
  0
ARC
  8
_0-2_決定
  6
CONTINUOUS
 62
    7
 10
862.66156748152355
 20
1302.0419424342479
 40
5.2713468445512914
 50
68.68250374356316
 51
90.909548812974407
  0
ARC
  8
_0-2_決定
  6
CONTINUOUS
 62
    7
 10
864.15876929132332
 20
1305.5488548350056
 40
1.4650028700002733
 50
14.377343315244023
 51
73.37605125660231
  0
ARC
  8
_0-2_決定
  6
CONTINUOUS
 62
    7
 10
874.7355946174971
 20
1469.7482083273362
 40
10.843542250105481
 50
345.16911754916725
 51
0.86876763717314
  0
ARC
  8
_0-2_決定
  6
CONTINUOUS
 62
    7
 10
882.48404110458466
 20
1467.5395457213422
 40
2.7920127660913305
 50
318.58540418929613
 51
348.2844934565428
  0
ARC
  8
_0-2_決定
  6
CONTINUOUS
 62
    7
 10
884.16467320505967
 20
1466.0764369938377
 40
0.5639707994414218
 50
271.34290028227593
 51
317.11259035371023
  0
ARC
  8
_0-2_決定
  6
CONTINUOUS
 62
    7
 10
884.3103123159608
 20
1466.3853926026391
 40
0.8827602627385211
 50
213.93255925294028
 51
261.37255374816277
  0
ARC
  8
_0-2_決定
  6
CONTINUOUS
 62
    7
 10
886.68642818597732
 20
1468.1619135898827
 40
3.8487265229278749
 50
195.51181976613213
 51
216.13016418225502
  0
ARC
  8
_0-2_決定
  6
CONTINUOUS
 62
    7
 10
891.95062270111862
 20
1469.8424386965476
 40
9.3729950978028427
 50
179.57098102819992
 51
196.8046229956162
  0
ARC
  8
_0-2_決定
  6
CONTINUOUS
 62
    7
 10
892.12029306142085
 20
1469.9755289986324
 40
9.5426100578866695
 50
164.20731390938326
 51
180.37771464467289
  0
ARC
  8
_0-2_決定
  6
CONTINUOUS
 62
    7
 10
886.63942702568249
 20
1471.7052287792785
 40
3.8018078742587198
 50
142.63288690480564
 51
166.8116686240823
  0
ARC
  8
_0-2_決定
  6
CONTINUOUS
 62
    7
 10
884.2217981253757
 20
1473.5579932652015
 40
0.755904128273334
 50
93.329981121863412
 51
143.02719909811628
  0
ARC
  8
_0-2_決定
  6
CONTINUOUS
 62
    7
 10
884.06956092736914
 20
1473.5146445908017
 40
0.8052960728412952
 50
31.267514771211317
 51
82.269063092808281
  0
ARC
  8
_0-2_決定
  6
CONTINUOUS
 62
    7
 10
881.57926691644263
 20
1471.9301116404099
 40
3.7568192805932026
 50
11.710501188600821
 51
32.210626851607223
  0
ARC
  8
_0-2_決定
  6
CONTINUOUS
 62
    7
 10
874.24276617049054
 20
1470.0162758630677
 40
11.335598118638483
 50
359.47606967650097
 51
13.656527564983483
  0
ARC
  8
_0-2_決定
  6
CONTINUOUS
 62
    7
 10
905.43548765896981
 20
1431.6497151884382
 40
9.542610057886904
 50
344.20731390939568
 51
0.3777146446852992
  0
ARC
  8
_0-2_決定
  6
CONTINUOUS
 62
    7
 10
910.91635369470907
 20
1429.9200154077944
 40
3.8018078742587198
 50
322.63288690480562
 51
346.8116686240823
  0
ARC
  8
_0-2_決定
  6
CONTINUOUS
 62
    7
 10
913.33398259501621
 20
1428.0672509218712
 40
0.7559041282732541
 50
273.32998112185209
 51
323.02719909810497
  0
ARC
  8
_0-2_決定
  6
CONTINUOUS
 62
    7
 10
913.48621979302243
 20
1428.1105995962716
 40
0.8052960728415714
 50
211.2675147712242
 51
262.26906309282117
  0
ARC
  8
_0-2_決定
  6
CONTINUOUS
 62
    7
 10
915.97651380394973
 20
1429.6951325466634
 40
3.7568192805943141
 50
191.71050118859401
 51
212.21062685160041
  0
ARC
  8
_0-2_決定
  6
CONTINUOUS
 62
    7
 10
923.31301454989898
 20
1431.6089683240054
 40
11.335598118636767
 50
179.47606967650199
 51
193.65652756498449
  0
ARC
  8
_0-2_決定
  6
CONTINUOUS
 62
    7
 10
922.82018610289333
 20
1431.8770358597376
 40
10.843542250104834
 50
165.1691175491724
 51
180.86876763717825
  0
ARC
  8
_0-2_決定
  6
CONTINUOUS
 62
    7
 10
915.07173961580747
 20
1434.0856984657305
 40
2.7920127660925695
 50
138.5854041892961
 51
168.28449345654283
  0
ARC
  8
_0-2_決定
  6
CONTINUOUS
 62
    7
 10
913.39110751533121
 20
1435.548807193235
 40
0.5639707994415301
 50
91.342900282209939
 51
137.11259035364426
  0
ARC
  8
_0-2_決定
  6
CONTINUOUS
 62
    7
 10
913.24546840443054
 20
1435.2398515844343
 40
0.8827602627382226
 50
33.932559252927987
 51
81.37255374815048
  0
ARC
  8
_0-2_決定
  6
CONTINUOUS
 62
    7
 10
910.86935253441402
 20
1433.4633305971902
 40
3.8487265229278749
 50
15.51181976613212
 51
36.130164182255008
  0
ARC
  8
_0-2_決定
  6
CONTINUOUS
 62
    7
 10
905.60515801927238
 20
1431.7828054905262
 40
9.3729950978027095
 50
359.57098102819418
 51
16.804622995610444
  0
ARC
  8
_0-2_決定
  6
CONTINUOUS
 62
    7
 10
829.39651561482663
 20
1387.1819867565862
 40
11.954901265902787
 50
159.78656628491524
 51
175.53525915843423
  0
ARC
  8
_0-2_決定
  6
CONTINUOUS
 62
    7
 10
818.83198622447458
 20
1387.8069423307786
 40
1.3881681893767746
 50
167.27896050507795
 51
232.0286876110161
  0
ARC
  8
_0-2_決定
  6
CONTINUOUS
 62
    7
 10
818.22197769327602
 20
1387.2354284304126
 40
0.5769775299706511
 50
244.973252118468
 51
303.19798144146108
  0
ARC
  8
_0-2_決定
  6
CONTINUOUS
 62
    7
 10
816.76741130018229
 20
1389.6155309211699
 40
3.3661319661283584
 50
301.73349870749888
 51
323.06137688750528
  0
ARC
  8
_0-2_決定
  6
CONTINUOUS
 62
    7
 10
810.53242451345818
 20
1394.6946513185524
 40
11.406260613893757
 50
321.49060239244051
 51
336.31477183600407
  0
ARC
  8
_0-2_決定
  6
CONTINUOUS
 62
    7
 10
809.38911761511292
 20
1394.4540995041441
 40
12.375302724221758
 50
339.46265675514246
 51
354.05630341448193
  0
ARC
  8
_0-2_決定
  6
CONTINUOUS
 62
    7
 10
820.01772386466678
 20
1393.6267439256344
 40
1.7404573834233861
 50
344.87531773137539
 51
38.601824682057163
  0
ARC
  8
_0-2_決定
  6
CONTINUOUS
 62
    7
 10
821.09108578854602
 20
1393.9453664294501
 40
0.8191097595110661
 50
69.50386171648816
 51
120.29432319108469
  0
ARC
  8
_0-2_決定
  6
CONTINUOUS
 62
    7
 10
822.29162937101648
 20
1391.7914187881852
 40
3.2849105341018592
 50
119.42326844144776
 51
141.58242832921997
  0
ARC
  8
_0-2_決定
  6
CONTINUOUS
 62
    7
 10
827.8695542482169
 20
1387.1204963841899
 40
10.559461941734558
 50
140.53175634213051
 51
156.6091124281927
  0
ARC
  8
_0-2_決定
  6
CONTINUOUS
 62
    7
 10
741.61972571845297
 20
1272.0628639312235
 40
9.0966190484232214
 50
154.96271724188409
 51
171.72159164496193
  0
ARC
  8
_0-2_決定
  6
CONTINUOUS
 62
    7
 10
735.28248206406238
 20
1272.7768252359597
 40
2.7303874743780838
 50
167.39603744111406
 51
212.42946545232004
  0
ARC
  8
_0-2_決定
  6
CONTINUOUS
 62
    7
 10
733.0936373769481
 20
1272.3949836705058
 40
1.0885297414595569
 50
263.8961137328306
 51
307.60623359404326
  0
ARC
  8
_0-2_決定
  6
CONTINUOUS
 62
    7
 10
730.95823557238077
 20
1275.4122818813516
 40
4.7843301433740972
 50
305.8151530154957
 51
324.18484698449674
  0
ARC
  8
_0-2_決定
  6
CONTINUOUS
 62
    7
 10
725.2377255049314
 20
1279.7461136092122
 40
11.960345398532477
 50
323.38548026723504
 51
336.16362028285664
  0
ARC
  8
_0-2_決定
  6
CONTINUOUS
 62
    7
 10
726.15402932831876
 20
1278.8525924820783
 40
10.770384074145325
 50
338.54225598098861
 51
354.67274851151268
  0
ARC
  8
_0-2_決定
  6
CONTINUOUS
 62
    7
 10
735.03727151148382
 20
1278.2035224282617
 40
1.8737700094274388
 50
349.20660407480995
 51
44.318504848848114
  0
ARC
  8
_0-2_決定
  6
CONTINUOUS
 62
    7
 10
736.27002248182919
 20
1278.6683846610606
 40
0.8511038823113541
 50
82.718684306662908
 51
128.69859135133612
  0
ARC
  8
_0-2_決定
  6
CONTINUOUS
 62
    7
 10
738.44265499639619
 20
1275.5678624573361
 40
4.6356422020164514
 50
125.69504409879089
 51
144.3049559012091
  0
ARC
  8
_0-2_決定
  6
CONTINUOUS
 62
    7
 10
743.6055018864954
 20
1271.8168232358294
 40
11.017240556511984
 50
144.12826560042862
 51
158.17561582883582
  0
ARC
  8
_0-2_決定
  6
CONTINUOUS
 62
    7
 10
883.03680143953045
 20
1355.4711447485611
 40
5.5412441635268008
 50
321.90820888015935
 51
0.4288849637322634
  0
ARC
  8
_0-2_決定
  6
CONTINUOUS
 62
    7
 10
885.39254354669538
 20
1353.7034009664842
 40
2.5973993586335724
 50
274.0920251336313
 51
320.53919081324608
  0
ARC
  8
_0-2_決定
  6
CONTINUOUS
 62
    7
 10
885.6342647675848
 20
1353.3097857270079
 40
2.197885736732311
 50
235.7691258281865
 51
268.53023756736889
  0
ARC
  8
_0-2_決定
  6
CONTINUOUS
 62
    7
 10
886.68353694473069
 20
1354.7612196248158
 40
3.9884713354476098
 50
191.69684911202424
 51
235.03588289009798
  0
ARC
  8
_0-2_決定
  6
CONTINUOUS
 62
    7
 10
888.63488675651388
 20
1355.4963405802446
 40
6.0570182817334439
 50
179.84597695240032
 51
194.76554211422953
  0
ARC
  8
_0-2_決定
  6
CONTINUOUS
 62
    7
 10
888.11894837188811
 20
1355.5541119797222
 40
5.5412133343358576
 50
141.90809749548686
 51
180.42899634839631
  0
ARC
  8
_0-2_決定
  6
CONTINUOUS
 62
    7
 10
885.7632371736961
 20
1357.3218452205892
 40
2.5973993586333348
 50
94.092025133638472
 51
140.53919081325327
  0
ARC
  8
_0-2_決定
  6
CONTINUOUS
 62
    7
 10
885.52151595280634
 20
1357.7154604600653
 40
2.197885736732311
 50
55.769125828186482
 51
88.530237567368829
  0
ARC
  8
_0-2_決定
  6
CONTINUOUS
 62
    7
 10
884.47224377566067
 20
1356.2640265622572
 40
3.9884713354478207
 50
11.696849112028836
 51
55.035882890102556
  0
ARC
  8
_0-2_決定
  6
CONTINUOUS
 62
    7
 10
882.52089396387669
 20
1355.5289056068298
 40
6.0570182817338472
 50
359.84597695238938
 51
14.765542114218585
  0
ARC
  8
_0-2_決定
  6
CONTINUOUS
 62
    7
 10
931.62368007731266
 20
1531.4334277218077
 40
3.7550454642028774
 50
1.2084493885588168
 51
49.59016975299329
  0
ARC
  8
_0-2_決定
  6
CONTINUOUS
 62
    7
 10
929.78876731983155
 20
1529.4912191053684
 40
6.4248636239032244
 50
48.358394616629958
 51
91.880900654087185
  0
ARC
  8
_0-2_決定
  6
CONTINUOUS
 62
    7
 10
929.56321799141335
 20
1528.8872727472231
 40
7.0253636678433109
 50
89.880338519460679
 51
139.04002404504337
  0
ARC
  8
_0-2_決定
  6
CONTINUOUS
 62
    7
 10
927.0517207180086
 20
1531.4263561221665
 40
3.4749012935833976
 50
143.51405948216365
 51
178.57747711882385
  0
ARC
  8
_0-2_決定
  6
CONTINUOUS
 62
    7
 10
927.26325200651729
 20
1531.5476414126476
 40
3.6855280336646441
 50
180.54443940189549
 51
228.84661317817981
  0
ARC
  8
_0-2_決定
  6
CONTINUOUS
 62
    7
 10
929.24163355193878
 20
1533.7498155085134
 40
6.6457067602552025
 50
228.49810454240389
 51
272.90026730080126
  0
ARC
  8
_0-2_決定
  6
CONTINUOUS
 62
    7
 10
929.6836219840759
 20
1534.3234088961171
 40
7.2115629311638942
 50
269.15993343995189
 51
303.25206393804234
  0
ARC
  8
_0-2_決定
  6
CONTINUOUS
 62
    7
 10
931.24011323555635
 20
1531.6684385459816
 40
4.1407099163883245
 50
305.38543346509601
 51
357.84341551315111
  0
ARC
  8
_0-2_決定
  6
CONTINUOUS
 62
    7
 10
938.02376434969858
 20
1218.3521459327769
 40
8.3618997018982828
 50
2.4707707559082328
 51
88.943867981180048
  0
ARC
  8
_0-2_決定
  6
CONTINUOUS
 62
    7
 10
938.43566810746893
 20
1218.2459029025815
 40
8.4706454314768962
 50
91.743888080924194
 51
176.84147318198552
  0
ARC
  8
_0-2_決定
  6
CONTINUOUS
 62
    7
 10
938.14643306894652
 20
1219.0898110181208
 40
8.1772464318004285
 50
182.64377899518948
 51
270.22041337314022
  0
ARC
  8
_0-2_決定
  6
CONTINUOUS
 62
    7
 10
937.8786459250282
 20
1219.4374718074305
 40
8.530097228482898
 50
272.01040637860933
 51
355.12540125306299
  0
ARC
  8
_0-2_決定
  6
CONTINUOUS
 62
    7
 10
908.74746405118435
 20
1276.4350135951665
 40
3.2327438938593449
 50
305.78706357791373
 51
357.83031967450495
  0
ARC
  8
_0-2_決定
  6
CONTINUOUS
 62
    7
 10
905.63045825468123
 20
1280.0013405702944
 40
7.9608150049854833
 50
278.72382927774879
 51
308.9771185384111
  0
ARC
  8
_0-2_決定
  6
CONTINUOUS
 62
    7
 10
904.57400042408176
 20
1283.6707671645365
 40
11.758142714452113
 50
270.01895511318236
 51
281.10093941342529
  0
ARC
  8
_0-2_決定
  6
CONTINUOUS
 62
    7
 10
904.4588629748514
 20
1282.2632905715941
 40
10.351349832612014
 50
242.36730880160047
 51
270.65884326505932
  0
ARC
  8
_0-2_決定
  6
CONTINUOUS
 62
    7
 10
901.75672534281625
 20
1276.9959616650815
 40
4.4318331055031903
 50
188.86972020810336
 51
241.73295631647335
  0
ARC
  8
_0-2_決定
  6
CONTINUOUS
 62
    7
 10
900.69286550254992
 20
1276.2028742321556
 40
3.3167914384235182
 50
126.97578318244729
 51
178.10376704297107
  0
ARC
  8
_0-2_決定
  6
CONTINUOUS
 62
    7
 10
903.54741204420316
 20
1272.9697268416155
 40
7.6240640347595381
 50
98.367908048279887
 51
129.50020064548238
  0
ARC
  8
_0-2_決定
  6
CONTINUOUS
 62
    7
 10
904.56602333094429
 20
1269.2906023065391
 40
11.422028951682597
 50
89.940471975981154
 51
100.73800163150705
  0
ARC
  8
_0-2_決定
  6
CONTINUOUS
 62
    7
 10
904.66627344618337
 20
1269.9039093561996
 40
10.809077086432817
 50
62.973829095386492
 51
90.468498299859419
  0
ARC
  8
_0-2_決定
  6
CONTINUOUS
 62
    7
 10
907.24774642748889
 20
1275.0599232092359
 40
5.0432760080085828
 50
25.016564543305783
 51
62.481833827168948
  0
ARC
  8
_0-2_決定
  6
CONTINUOUS
 62
    7
 10
909.36235139439509
 20
1276.291618008845
 40
2.6156233251805787
 50
0.46016955920584
 51
20.149523378349009
  0
ARC
  8
_0-2_決定
  6
CONTINUOUS
 62
    7
 10
804.43822728052078
 20
1286.8843155307989
 40
26.669625954929437
 50
146.58148503546568
 51
156.51447435210432
  0
ARC
  8
_0-2_決定
  6
CONTINUOUS
 62
    7
 10
788.25376723251884
 20
1297.851353651879
 40
7.12489414704672
 50
129.95887430454022
 51
148.51391529358213
  0
ARC
  8
_0-2_決定
  6
CONTINUOUS
 62
    7
 10
784.19253671640968
 20
1302.836369846787
 40
0.701197456811789
 50
74.672166932646277
 51
137.21862486917485
  0
ARC
  8
_0-2_決定
  6
CONTINUOUS
 62
    7
 10
784.0154010907753
 20
1303.0547289349915
 40
0.5840109694313482
 50
355.86571623317593
 51
51.633272752543405
  0
ARC
  8
_0-2_決定
  6
CONTINUOUS
 62
    7
 10
778.06672062813561
 20
1302.8446315122253
 40
6.5333319246017973
 50
346.43838920790063
 51
1.4734264676158133
  0
ARC
  8
_0-2_決定
  6
CONTINUOUS
 62
    7
 10
760.96131562525386
 20
1306.2374222625967
 40
23.967991557045281
 50
335.53826231554774
 51
348.14275675088135
  0
ARC
  8
_0-2_決定
  6
CONTINUOUS
 62
    7
 10
756.88108212229531
 20
1307.0175175861013
 40
28.022125254434069
 50
327.81795926483233
 51
337.54140269004438
  0
ARC
  8
_0-2_決定
  6
CONTINUOUS
 62
    7
 10
774.2781969350284
 20
1295.7131376684017
 40
7.2833139141217362
 50
311.43308060805151
 51
330.19188415816234
  0
ARC
  8
_0-2_決定
  6
CONTINUOUS
 62
    7
 10
778.7431350186464
 20
1290.5345809335756
 40
0.4531576625360749
 50
248.61412954237016
 51
321.52284677669735
  0
ARC
  8
_0-2_決定
  6
CONTINUOUS
 62
    7
 10
779.05865995039221
 20
1290.7561520398513
 40
0.8032835155889357
 50
184.53592118653978
 51
233.23724234721334
  0
ARC
  8
_0-2_決定
  6
CONTINUOUS
 62
    7
 10
783.20857404414994
 20
1291.2709102227341
 40
4.9843417646153867
 50
168.87516940616007
 51
186.66248137779826
  0
ARC
  8
_0-2_決定
  6
CONTINUOUS
 62
    7
 10
800.58597148947251
 20
1288.1326229430424
 40
22.642379860381496
 50
155.52680391821465
 51
169.56753276238246
  0
CIRCLE
  8
_0-2_決定
  6
CONTINUOUS
 62
    7
 10
901.67789036019576
 20
1208.8926250935365
 40
7.3399999999999999
  0
ARC
  8
_0-2_決定
  6
CONTINUOUS
 62
    7
 10
812.19004111040533
 20
1234.7332701941946
 40
8.7187945454417903
 50
315.96288467158934
 51
15.836878658384469
  0
ARC
  8
_0-2_決定
  6
CONTINUOUS
 62
    7
 10
810.10467737494514
 20
1236.2244254505047
 40
11.260812103099514
 50
287.96486888962465
 51
317.88455394399341
  0
ARC
  8
_0-2_決定
  6
CONTINUOUS
 62
    7
 10
809.97347995230962
 20
1236.3417773337937
 40
11.413252255548986
 50
237.71847212951315
 51
288.4096837633677
  0
ARC
  8
_0-2_決定
  6
CONTINUOUS
 62
    7
 10
808.53318247146547
 20
1233.2375311989515
 40
8.0316574845282869
 50
199.83244777885446
 51
234.57634817992096
  0
ARC
  8
_0-2_決定
  6
CONTINUOUS
 62
    7
 10
809.36574360998611
 20
1232.8919799928781
 40
8.718794545442206
 50
135.96288467159002
 51
195.83687865838516
  0
ARC
  8
_0-2_決定
  6
CONTINUOUS
 62
    7
 10
811.45110734544517
 20
1231.4008247365682
 40
11.26081210309906
 50
107.96486888962113
 51
137.88455394398989
  0
ARC
  8
_0-2_決定
  6
CONTINUOUS
 62
    7
 10
811.58230476808194
 20
1231.2834728532785
 40
11.413252255549587
 50
57.718472129516016
 51
108.40968376337055
  0
ARC
  8
_0-2_決定
  6
CONTINUOUS
 62
    7
 10
813.0226022489253
 20
1234.3877189881223
 40
8.031657484528278
 50
19.832447778845975
 51
54.576348179912465
  0
ARC
  8
_0-2_決定
  6
CONTINUOUS
 62
    7
 10
772.86463944341472
 20
1440.4258760103176
 40
1.3181272497726098
 50
274.9289053857442
 51
355.07109461424221
  0
ARC
  8
_0-2_決定
  6
CONTINUOUS
 62
    7
 10
772.98215919708241
 20
1440.5342677365711
 40
1.4216510461312728
 50
188.96937422607272
 51
269.82803648392411
  0
ARC
  8
_0-2_決定
  6
CONTINUOUS
 62
    7
 10
773.0055642347952
 20
1440.2849512189368
 40
1.4279400247091676
 50
91.110397391097123
 51
178.88960260891452
  0
ARC
  8
_0-2_決定
  6
CONTINUOUS
 62
    7
 10
772.83729093029956
 20
1440.3778218679113
 40
1.3421859312401609
 50
357.21567241902176
 51
83.986916870983393
  0
ARC
  8
_0-2_決定
  6
CONTINUOUS
 62
    7
 10
847.15576618704836
 20
1396.989962385589
 40
2.4233585942323574
 50
298.11858862324993
 51
358.17114661185713
  0
ARC
  8
_0-2_決定
  6
CONTINUOUS
 62
    7
 10
846.27890922103666
 20
1398.3475120102353
 40
4.0361532899960615
 50
268.56582284684919
 51
300.01482731678146
  0
ARC
  8
_0-2_決定
  6
CONTINUOUS
 62
    7
 10
846.16402237068792
 20
1398.2391419660687
 40
3.9265433624862727
 50
224.38489740095935
 51
270.2023609184223
  0
ARC
  8
_0-2_決定
  6
CONTINUOUS
 62
    7
 10
844.99142311876676
 20
1396.9882914033756
 40
2.2148257191892484
 50
181.9578599814316
 51
222.47732855759716
  0
ARC
  8
_0-2_決定
  6
CONTINUOUS
 62
    7
 10
845.39223634815016
 20
1396.8557075225169
 40
2.6149654542571286
 50
121.19291123552036
 51
178.75284029804916
  0
ARC
  8
_0-2_決定
  6
CONTINUOUS
 62
    7
 10
846.14503586683384
 20
1395.8227982803007
 40
3.8899635596491198
 50
89.516076138050352
 51
122.7986035911175
  0
ARC
  8
_0-2_決定
  6
CONTINUOUS
 62
    7
 10
846.2643597380395
 20
1395.9620319366077
 40
3.7515877944862575
 50
43.672230426482336
 51
91.320712573988061
  0
ARC
  8
_0-2_決定
  6
CONTINUOUS
 62
    7
 10
847.02079143961691
 20
1396.9068551957639
 40
2.5571054257243331
 50
0.129238503801395
 51
40.061223880012506
  0
ARC
  8
_0-2_決定
  6
CONTINUOUS
 62
    7
 10
882.48567031866264
 20
1494.7621264425602
 40
1.493041001424551
 50
320.50922555769819
 51
358.09987297419178
  0
ARC
  8
_0-2_決定
  6
CONTINUOUS
 62
    7
 10
881.06865513983985
 20
1495.9641088066614
 40
3.3510996698463407
 50
297.53604334130739
 51
320.05706085531216
  0
ARC
  8
_0-2_決定
  6
CONTINUOUS
 62
    7
 10
879.39982010424637
 20
1499.1023142973982
 40
6.9053839297710349
 50
282.18974044138673
 51
297.77647260240576
  0
ARC
  8
_0-2_決定
  6
CONTINUOUS
 62
    7
 10
878.64743663484887
 20
1502.4019314843238
 40
10.28954542252878
 50
269.61273912554634
 51
282.40527278945126
  0
ARC
  8
_0-2_決定
  6
CONTINUOUS
 62
    7
 10
878.44266798483523
 20
1501.3395347083142
 40
9.2279044178714482
 50
241.20566271877624
 51
270.83962169035749
  0
ARC
  8
_0-2_決定
  6
CONTINUOUS
 62
    7
 10
875.00979751373677
 20
1495.0458712966956
 40
2.0590537580445729
 50
189.3140775267893
 51
240.56454288256651
  0
ARC
  8
_0-2_決定
  6
CONTINUOUS
 62
    7
 10
874.33906142126432
 20
1494.6468881353476
 40
1.3627573075508943
 50
136.05362012351176
 51
177.23525015791904
  0
ARC
  8
_0-2_決定
  6
CONTINUOUS
 62
    7
 10
875.74768643948096
 20
1493.2985888718579
 40
3.312658922174994
 50
113.66751845194867
 51
136.17128557297431
  0
ARC
  8
_0-2_決定
  6
CONTINUOUS
 62
    7
 10
878.19036127625827
 20
1487.6961095412005
 40
9.4244824052130554
 50
87.643367369824873
 51
113.59594318247878
  0
ARC
  8
_0-2_決定
  6
CONTINUOUS
 62
    7
 10
878.82741197009523
 20
1487.9994901131115
 40
9.1165463471747614
 50
61.782545215644262
 51
91.568392260574171
  0
ARC
  8
_0-2_決定
  6
CONTINUOUS
 62
    7
 10
882.20752680546843
 20
1494.5132988314372
 40
1.781548899153329
 50
6.4237839173778548
 51
58.518600664318321
  0
ARC
  8
_0-2_決定
  6
CONTINUOUS
 62
    7
 10
913.38756143097748
 20
1518.0467745938383
 40
2.991053805340341
 50
308.70477424178813
 51
1.261438802007717
  0
ARC
  8
_0-2_決定
  6
CONTINUOUS
 62
    7
 10
914.56225200070776
 20
1516.8217915157943
 40
1.3092638209323688
 50
270.68437948842148
 51
302.09470117968044
  0
ARC
  8
_0-2_決定
  6
CONTINUOUS
 62
    7
 10
914.62709018273677
 20
1516.9406206498886
 40
1.4288468621515038
 50
228.37045024313016
 51
268.02673078415069
  0
ARC
  8
_0-2_決定
  6
CONTINUOUS
 62
    7
 10
915.60592406283376
 20
1517.9480810633463
 40
2.8328162744506753
 50
176.67018354288766
 51
227.1089299969276
  0
ARC
  8
_0-2_決定
  6
CONTINUOUS
 62
    7
 10
915.38109589682358
 20
1518.2052669988107
 40
2.6048536100315771
 50
125.24533522097457
 51
182.03824856642311
  0
ARC
  8
_0-2_決定
  6
CONTINUOUS
 62
    7
 10
914.58463501246706
 20
1519.0352807791469
 40
1.4773557103333743
 50
90.261576443058146
 51
118.57996981194577
  0
ARC
  8
_0-2_決定
  6
CONTINUOUS
 62
    7
 10
914.49872086871756
 20
1518.7582088464678
 40
1.7561976372393189
 50
17.032404089250484
 51
87.416227298847488
  0
ARC
  8
_0-2_決定
  6
CONTINUOUS
 62
    7
 10
913.17330186226798
 20
1518.1573472145831
 40
3.2049006017276547
 50
359.20038045571835
 51
20.364433607901372
  0
ARC
  8
_0-2_決定
  6
CONTINUOUS
 62
    7
 10
949.97468482356771
 20
1496.2199751882617
 40
2.6048536100314439
 50
305.24533522098045
 51
2.0382485664289987
  0
ARC
  8
_0-2_決定
  6
CONTINUOUS
 62
    7
 10
950.77114570792423
 20
1495.389961407926
 40
1.4773557103333743
 50
270.26157644305812
 51
298.57996981194572
  0
ARC
  8
_0-2_決定
  6
CONTINUOUS
 62
    7
 10
950.85705985167408
 20
1495.6670333406053
 40
1.7561976372395454
 50
197.03240408924097
 51
267.41622729883795
  0
ARC
  8
_0-2_決定
  6
CONTINUOUS
 62
    7
 10
952.18247885812218
 20
1496.2678949724898
 40
3.2049006017265107
 50
179.2003804557219
 51
200.36443360790491
  0
ARC
  8
_0-2_決定
  6
CONTINUOUS
 62
    7
 10
951.96821928941404
 20
1496.3784675932345
 40
2.991053805340778
 50
128.70477424179205
 51
181.26143880201164
  0
ARC
  8
_0-2_決定
  6
CONTINUOUS
 62
    7
 10
950.79352871968263
 20
1497.6034506712788
 40
1.3092638209321468
 50
90.684379488388444
 51
122.0947011796474
  0
ARC
  8
_0-2_決定
  6
CONTINUOUS
 62
    7
 10
950.72869053765487
 20
1497.4846215371845
 40
1.4288468621514261
 50
48.370450243137945
 51
88.026730784158431
  0
ARC
  8
_0-2_決定
  6
CONTINUOUS
 62
    7
 10
949.7498566575573
 20
1496.4771611237265
 40
2.8328162744507051
 50
356.67018354288012
 51
47.108929996920089
  0
ARC
  8
_0-2_決定
  6
CONTINUOUS
 62
    7
 10
917.84740780058178
 20
1453.0083315216577
 40
2.132631248020064
 50
293.50286621336426
 51
357.42781064384496
  0
ARC
  8
_0-2_決定
  6
CONTINUOUS
 62
    7
 10
916.49599231252864
 20
1455.2589258168473
 40
4.7477718576666286
 50
268.57460685358211
 51
297.6309730289438
  0
ARC
  8
_0-2_決定
  6
CONTINUOUS
 62
    7
 10
916.25729860398224
 20
1454.9833405717068
 40
4.4723435848872937
 50
228.91019488245212
 51
271.5451040524066
  0
ARC
  8
_0-2_決定
  6
CONTINUOUS
 62
    7
 10
914.7042910117043
 20
1452.9506664410862
 40
1.9267762626796958
 50
181.13135341496076
 51
223.98313985444909
  0
ARC
  8
_0-2_決定
  6
CONTINUOUS
 62
    7
 10
915.1318907761638
 20
1452.7945824205869
 40
2.3569581156331769
 50
117.10819654690972
 51
177.12932412252553
  0
ARC
  8
_0-2_決定
  6
CONTINUOUS
 62
    7
 10
916.30253551741248
 20
1451.1439508923399
 40
4.3693220473934486
 50
89.011808131738348
 51
120.91250237692681
  0
ARC
  8
_0-2_決定
  6
CONTINUOUS
 62
    7
 10
916.43404823715628
 20
1451.2491321222817
 40
4.2638608055512766
 50
46.707235056412131
 51
90.754645265117972
  0
ARC
  8
_0-2_決定
  6
CONTINUOUS
 62
    7
 10
917.79221490631073
 20
1452.8250406064469
 40
2.1874295146950189
 50
2.294679017708082
 51
44.294447490099429
  0
ARC
  8
_0-2_決定
  6
CONTINUOUS
 62
    7
 10
952.38637000698077
 20
1462.096372271059
 40
7.3915382131341358
 50
311.64235184613557
 51
0.1259534447375309
  0
ARC
  8
_0-2_決定
  6
CONTINUOUS
 62
    7
 10
954.28196954631198
 20
1460.3287445808385
 40
4.8170766013203519
 50
271.14098685161235
 51
308.7621945379156
  0
ARC
  8
_0-2_決定
  6
CONTINUOUS
 62
    7
 10
954.50677757986966
 20
1460.5894574081981
 40
5.0784701017057401
 50
207.39648595432533
 51
268.54572606504985
  0
ARC
  8
_0-2_決定
  6
CONTINUOUS
 62
    7
 10
956.49225206769074
 20
1462.0335165607476
 40
7.5147780671273603
 50
179.39686314934872
 51
210.20714768294667
  0
ARC
  8
_0-2_決定
  6
CONTINUOUS
 62
    7
 10
956.72188219075792
 20
1462.1725340308544
 40
7.7442235912886703
 50
132.82265611599917
 51
180.44327138162487
  0
ARC
  8
_0-2_決定
  6
CONTINUOUS
 62
    7
 10
954.45438920031029
 20
1464.1500016471832
 40
4.7632337821401451
 50
90.92022548562332
 51
128.98295590390106
  0
ARC
  8
_0-2_決定
  6
CONTINUOUS
 62
    7
 10
954.26789720523834
 20
1463.9115716365982
 40
5.0022589062222451
 50
28.163981790606602
 51
88.740038923664756
  0
ARC
  8
_0-2_決定
  6
CONTINUOUS
 62
    7
 10
951.90915545386815
 20
1462.2573786904209
 40
7.8700663140735649
 50
358.94607405284006
 51
30.676598705011223
  0
ARC
  8
_0-2_決定
  6
CONTINUOUS
 62
    7
 10
871.37709387349787
 20
1476.6079430507975
 40
0.8064498054086376
 50
303.1333083602388
 51
353.21179848636604
  0
ARC
  8
_0-2_決定
  6
CONTINUOUS
 62
    7
 10
869.86264621416638
 20
1478.7706751172175
 40
3.4463793047071518
 50
282.99961589153997
 51
304.56444495490865
  0
ARC
  8
_0-2_決定
  6
CONTINUOUS
 62
    7
 10
868.14859602577576
 20
1485.5416975253886
 40
10.430473414264448
 50
269.06225245351618
 51
283.80722584856284
  0
ARC
  8
_0-2_決定
  6
CONTINUOUS
 62
    7
 10
867.8134775939958
 20
1485.9549168362346
 40
10.843542250105543
 50
255.16911754916455
 51
270.86876763717044
  0
ARC
  8
_0-2_決定
  6
CONTINUOUS
 62
    7
 10
865.60481498800095
 20
1478.2064703491474
 40
2.7920127660914544
 50
228.58540418930372
 51
258.28449345655042
  0
ARC
  8
_0-2_決定
  6
CONTINUOUS
 62
    7
 10
864.14170626049724
 20
1476.5258382486718
 40
0.5639707994414384
 50
181.34290028223447
 51
227.11259035366879
  0
ARC
  8
_0-2_決定
  6
CONTINUOUS
 62
    7
 10
864.4506618692983
 20
1476.3801991377713
 40
0.8827602627385211
 50
123.93255925294027
 51
171.37255374816277
  0
ARC
  8
_0-2_決定
  6
CONTINUOUS
 62
    7
 10
866.22718285654287
 20
1474.0040832677546
 40
3.8487265229285779
 50
105.51181976614019
 51
126.13016418226309
  0
ARC
  8
_0-2_決定
  6
CONTINUOUS
 62
    7
 10
867.90770796320487
 20
1468.7398887526142
 40
9.3729950978016348
 50
89.570981028189266
 51
106.80462299560554
  0
ARC
  8
_0-2_決定
  6
CONTINUOUS
 62
    7
 10
868.07406084358377
 20
1469.3768428911453
 40
8.7363075474276446
 50
73.482323763920277
 51
90.630732614909562
  0
ARC
  8
_0-2_決定
  6
CONTINUOUS
 62
    7
 10
869.75087024845038
 20
1474.5020226380391
 40
3.3492792925707757
 50
50.1306285717883
 51
76.057184516325165
  0
ARC
  8
_0-2_決定
  6
CONTINUOUS
 62
    7
 10
871.39569481252977
 20
1476.4715233197032
 40
0.7832744741165375
 50
3.0076439878841357
 51
50.122458366306724
  0
ARC
  8
_0-2_決定
  6
CONTINUOUS
 62
    7
 10
832.45828243791266
 20
1544.2258269848921
 40
0.9265516623477408
 50
305.61847634016721
 51
352.98207855817282
  0
ARC
  8
_0-2_決定
  6
CONTINUOUS
 62
    7
 10
830.79902659495474
 20
1546.370352624019
 40
3.6375621886505316
 50
285.93803385572835
 51
307.1920684984168
  0
ARC
  8
_0-2_決定
  6
CONTINUOUS
 62
    7
 10
829.31776512106921
 20
1551.2085471116184
 40
8.6970508622859093
 50
269.07848482006949
 51
286.56893664370773
  0
ARC
  8
_0-2_決定
  6
CONTINUOUS
 62
    7
 10
829.08172187680884
 20
1551.2483992959283
 40
8.736307547428785
 50
253.48232376391184
 51
270.63073261490115
  0
ARC
  8
_0-2_決定
  6
CONTINUOUS
 62
    7
 10
827.40491247193995
 20
1546.1232195490331
 40
3.3492792925697805
 50
230.1306285717979
 51
256.05718451633476
  0
ARC
  8
_0-2_決定
  6
CONTINUOUS
 62
    7
 10
825.76008790786148
 20
1544.1537188673692
 40
0.7832744741162195
 50
183.00764398786674
 51
230.12245836628929
  0
ARC
  8
_0-2_決定
  6
CONTINUOUS
 62
    7
 10
825.89750228247965
 20
1543.9994152021804
 40
0.9265516623483492
 50
125.61847634018956
 51
172.98207855819516
  0
ARC
  8
_0-2_決定
  6
CONTINUOUS
 62
    7
 10
827.55675812543643
 20
1541.8548895630552
 40
3.6375621886498424
 50
105.93803385573374
 51
127.19206849842222
  0
ARC
  8
_0-2_決定
  6
CONTINUOUS
 62
    7
 10
829.03801959932196
 20
1537.0166950754547
 40
8.6970508622859093
 50
89.078484820069477
 51
106.5689366437077
  0
ARC
  8
_0-2_決定
  6
CONTINUOUS
 62
    7
 10
829.27406284358221
 20
1536.9768428911448
 40
8.736307547428785
 50
73.48232376391185
 51
90.630732614901135
  0
ARC
  8
_0-2_決定
  6
CONTINUOUS
 62
    7
 10
830.95087224845111
 20
1542.1020226380397
 40
3.3492792925697805
 50
50.130628571797892
 51
76.057184516334758
  0
ARC
  8
_0-2_決定
  6
CONTINUOUS
 62
    7
 10
832.59569681252913
 20
1544.0715233197031
 40
0.7832744741170145
 50
3.007643987866687
 51
50.122458366289273
  0
ARC
  8
_0-2_決定
  6
CONTINUOUS
 62
    7
 10
878.78303667770751
 20
1378.1458620163162
 40
1.3952496627980671
 50
319.11564369057334
 51
358.63491801726229
  0
ARC
  8
_0-2_決定
  6
CONTINUOUS
 62
    7
 10
877.53545719107342
 20
1379.3332742185432
 40
3.1167184100053804
 50
294.29715180378855
 51
317.62388258949193
  0
ARC
  8
_0-2_決定
  6
CONTINUOUS
 62
    7
 10
875.73741102046506
 20
1383.0134375733826
 40
7.2118218532541398
 50
280.06583245673056
 51
295.28638494056923
  0
ARC
  8
_0-2_決定
  6
CONTINUOUS
 62
    7
 10
874.81781250048186
 20
1387.6904873363358
 40
11.977930772726037
 50
269.80903426260306
 51
280.48673538569022
  0
ARC
  8
_0-2_決定
  6
CONTINUOUS
 62
    7
 10
874.54017496122924
 20
1385.3773326479295
 40
9.6676325634401561
 50
242.10998420360545
 51
271.40897596602133
  0
ARC
  8
_0-2_決定
  6
CONTINUOUS
 62
    7
 10
870.9079515670004
 20
1378.3323507605019
 40
1.7439587228260587
 50
187.23813950501989
 51
239.31163646464614
  0
ARC
  8
_0-2_決定
  6
CONTINUOUS
 62
    7
 10
870.63072906021944
 20
1378.0294245313048
 40
1.4552189831925992
 50
137.49642900480615
 51
176.72246768272416
  0
ARC
  8
_0-2_決定
  6
CONTINUOUS
 62
    7
 10
872.21706667825856
 20
1376.6702732189656
 40
3.5437016840374627
 50
116.82537731994704
 51
138.62461276423895
  0
ARC
  8
_0-2_決定
  6
CONTINUOUS
 62
    7
 10
874.45826807381309
 20
1371.9508375382552
 40
8.7676133880711777
 50
87.91082637102042
 51
115.97752800587458
  0
ARC
  8
_0-2_決定
  6
CONTINUOUS
 62
    7
 10
874.94216013161144
 20
1372.136094834839
 40
8.578101277674218
 50
60.102681934537969
 51
91.097275451885054
  0
ARC
  8
_0-2_決定
  6
CONTINUOUS
 62
    7
 10
878.14328420891798
 20
1377.8204163091348
 40
2.055482180819646
 50
8.1728396363391909
 51
58.479739737887847
  0
ARC
  8
_0-2_決定
  6
CONTINUOUS
 62
    7
 10
909.97468482356771
 20
1401.4199771882618
 40
2.6048536100314439
 50
305.24533522098045
 51
2.0382485664289987
  0
ARC
  8
_0-2_決定
  6
CONTINUOUS
 62
    7
 10
910.77114570792423
 20
1400.589963407926
 40
1.4773557103333743
 50
270.26157644305812
 51
298.57996981194572
  0
ARC
  8
_0-2_決定
  6
CONTINUOUS
 62
    7
 10
910.85705985167374
 20
1400.8670353406051
 40
1.7561976372393189
 50
197.03240408925049
 51
267.4162272988475
  0
ARC
  8
_0-2_決定
  6
CONTINUOUS
 62
    7
 10
912.18247885812332
 20
1401.4678969724898
 40
3.2049006017276547
 50
179.20038045571837
 51
200.36443360790139
  0
ARC
  8
_0-2_決定
  6
CONTINUOUS
 62
    7
 10
911.96821928941404
 20
1401.5784695932348
 40
2.991053805340778
 50
128.70477424179205
 51
181.26143880201164
  0
ARC
  8
_0-2_決定
  6
CONTINUOUS
 62
    7
 10
910.79352871968263
 20
1402.8034526712786
 40
1.3092638209321468
 50
90.684379488388444
 51
122.0947011796474
  0
ARC
  8
_0-2_決定
  6
CONTINUOUS
 62
    7
 10
910.72869053765453
 20
1402.6846235371843
 40
1.4288468621515038
 50
48.370450243130151
 51
88.026730784150629
  0
ARC
  8
_0-2_決定
  6
CONTINUOUS
 62
    7
 10
909.7498566575573
 20
1401.6771631237268
 40
2.832816274450551
 50
356.67018354288138
 51
47.108929996921347
  0
ARC
  8
_0-2_決定
  6
CONTINUOUS
 62
    7
 10
945.78756143097712
 20
1379.8467765938383
 40
2.9910538053406421
 50
308.70477424179762
 51
1.2614388020171878
  0
ARC
  8
_0-2_決定
  6
CONTINUOUS
 62
    7
 10
946.96225200070785
 20
1378.6217935157943
 40
1.3092638209323688
 50
270.68437948842148
 51
302.09470117968044
  0
ARC
  8
_0-2_決定
  6
CONTINUOUS
 62
    7
 10
947.02709018273686
 20
1378.7406226498886
 40
1.4288468621515038
 50
228.37045024313016
 51
268.02673078415069
  0
ARC
  8
_0-2_決定
  6
CONTINUOUS
 62
    7
 10
948.00592406283442
 20
1379.7480830633467
 40
2.8328162744511398
 50
176.67018354288388
 51
227.10892999692382
  0
ARC
  8
_0-2_決定
  6
CONTINUOUS
 62
    7
 10
947.91269283784823
 20
1379.905450923095
 40
2.7348118823430005
 50
126.1897995632049
 51
179.84973900034831
  0
ARC
  8
_0-2_決定
  6
CONTINUOUS
 62
    7
 10
946.9995154300002
 20
1380.983097856199
 40
1.3297010943669756
 50
90.931848414086659
 51
121.8472322539492
  0
ARC
  8
_0-2_決定
  6
CONTINUOUS
 62
    7
 10
946.93564050990767
 20
1380.8490956983544
 40
1.4641371132161984
 50
48.912339792651494
 51
88.346415668696849
  0
ARC
  8
_0-2_決定
  6
CONTINUOUS
 62
    7
 10
946.09844334600757
 20
1379.9665871266322
 40
2.6799903766075648
 50
358.84621961879805
 51
47.821862934606465
  0
ARC
  8
_0-2_決定
  6
CONTINUOUS
 62
    7
 10
913.82388994422718
 20
1336.6306637664857
 40
2.3569581156333808
 50
297.10819654692114
 51
357.12932412253696
  0
ARC
  8
_0-2_決定
  6
CONTINUOUS
 62
    7
 10
912.65324520297952
 20
1338.2812952947336
 40
4.369322047393748
 50
269.01180813172675
 51
300.9125023769152
  0
ARC
  8
_0-2_決定
  6
CONTINUOUS
 62
    7
 10
912.52173248323402
 20
1338.1761140647916
 40
4.263860805551424
 50
226.7072350564211
 51
270.75464526512695
  0
ARC
  8
_0-2_決定
  6
CONTINUOUS
 62
    7
 10
911.1635658140807
 20
1336.6002055806257
 40
2.1874295146954088
 50
182.2946790176924
 51
224.29444749008374
  0
ARC
  8
_0-2_決定
  6
CONTINUOUS
 62
    7
 10
911.1083729198092
 20
1336.4169146654151
 40
2.1326312480198846
 50
113.50286621335222
 51
177.42781064383288
  0
ARC
  8
_0-2_決定
  6
CONTINUOUS
 62
    7
 10
912.4597884078637
 20
1334.1663203702262
 40
4.7477718576662697
 50
88.574606853593664
 51
117.63097302895535
  0
ARC
  8
_0-2_決定
  6
CONTINUOUS
 62
    7
 10
912.69848211640863
 20
1334.4419056153661
 40
4.4723435848878594
 50
48.910194882446753
 51
91.545104052401257
  0
ARC
  8
_0-2_決定
  6
CONTINUOUS
 62
    7
 10
914.25148970868747
 20
1336.4745797459868
 40
1.9267762626790077
 50
1.131353414956715
 51
43.983139854445064
  0
ARC
  8
_0-2_決定
  6
CONTINUOUS
 62
    7
 10
948.23389852963396
 20
1345.6527101562185
 40
7.7442235912881845
 50
312.82265611599757
 51
0.4432713816233064
  0
ARC
  8
_0-2_決定
  6
CONTINUOUS
 62
    7
 10
950.50139152008114
 20
1343.67524253989
 40
4.7632337821401451
 50
270.92022548562329
 51
308.98295590390103
  0
ARC
  8
_0-2_決定
  6
CONTINUOUS
 62
    7
 10
950.68788351515309
 20
1343.9136725504752
 40
5.0022589062224867
 50
208.16398179060829
 51
268.74003892366642
  0
ARC
  8
_0-2_決定
  6
CONTINUOUS
 62
    7
 10
953.04662526652237
 20
1345.5678654966516
 40
7.8700663140726768
 50
178.94607405283784
 51
210.67659870500904
  0
ARC
  8
_0-2_決定
  6
CONTINUOUS
 62
    7
 10
952.56941293417697
 20
1345.7288729160136
 40
7.3915404360935932
 50
131.64235955980948
 51
180.12596115841149
  0
ARC
  8
_0-2_決定
  6
CONTINUOUS
 62
    7
 10
950.67381117407933
 20
1347.4965016062345
 40
4.8170766013203519
 50
91.140986851612354
 51
128.76219453791558
  0
ARC
  8
_0-2_決定
  6
CONTINUOUS
 62
    7
 10
950.449003140522
 20
1347.2357887788748
 40
5.0784701017056673
 50
27.39648595432665
 51
88.545726065051198
  0
ARC
  8
_0-2_決定
  6
CONTINUOUS
 62
    7
 10
948.46352502349509
 20
1345.7917286263255
 40
7.5147817066582707
 50
359.39685581663451
 51
30.207140350232422
  0
ARC
  8
_0-2_決定
  6
CONTINUOUS
 62
    7
 10
867.40773302557386
 20
1360.1689897227711
 40
0.9717934198233533
 50
308.89295229983134
 51
356.67482458550114
  0
ARC
  8
_0-2_決定
  6
CONTINUOUS
 62
    7
 10
866.14944957584498
 20
1361.7224174913663
 40
2.9708956772107964
 50
284.99034469321612
 51
308.97011674326893
  0
ARC
  8
_0-2_決定
  6
CONTINUOUS
 62
    7
 10
864.41277485128103
 20
1367.8303186653875
 40
9.3206556364798168
 50
268.55596908890868
 51
285.59110626099891
  0
ARC
  8
_0-2_決定
  6
CONTINUOUS
 62
    7
 10
863.94300586911049
 20
1367.8303186653875
 40
9.3206556364798168
 50
254.40889373900109
 51
271.44403091109132
  0
ARC
  8
_0-2_決定
  6
CONTINUOUS
 62
    7
 10
862.05459576833107
 20
1361.4539457337889
 40
2.6734257122864937
 50
227.19212602774206
 51
256.66290010052739
  0
ARC
  8
_0-2_決定
  6
CONTINUOUS
 62
    7
 10
860.87544967531221
 20
1360.1245028063277
 40
0.8976379290832106
 50
180.75829825564162
 51
224.743654429961
  0
ARC
  8
_0-2_決定
  6
CONTINUOUS
 62
    7
 10
860.77868684689315
 20
1360.0173011362758
 40
0.8064498054084605
 50
123.13330836025912
 51
173.21179848638633
  0
ARC
  8
_0-2_決定
  6
CONTINUOUS
 62
    7
 10
862.29313450622499
 20
1357.8545690698545
 40
3.4463793047079996
 50
102.99961589154063
 51
124.56444495490936
  0
ARC
  8
_0-2_決定
  6
CONTINUOUS
 62
    7
 10
864.00718469461572
 20
1351.0835466616843
 40
10.430473414264448
 50
89.062252453516194
 51
103.80722584856282
  0
ARC
  8
_0-2_決定
  6
CONTINUOUS
 62
    7
 10
864.3846323404631
 20
1351.6145177145531
 40
9.9002642560623606
 50
74.45478710186643
 51
91.196564425162904
  0
ARC
  8
_0-2_決定
  6
CONTINUOUS
 62
    7
 10
866.47147559610312
 20
1358.6977180510405
 40
2.5194016060671776
 50
46.744890546045788
 51
77.007638687383348
  0
ARC
  8
_0-2_決定
  6
CONTINUOUS
 62
    7
 10
867.76573216997895
 20
1360.0988410120146
 40
0.612313314913826
 50
1.2897348071589092
 51
45.107446220188933
  0
ARC
  8
_0-2_決定
  6
CONTINUOUS
 62
    7
 10
724.19472630771929
 20
1478.4957871460124
 40
4.5868247042317138
 50
272.28860565918177
 51
357.71139434082011
  0
ARC
  8
_0-2_決定
  6
CONTINUOUS
 62
    7
 10
724.56105841267208
 20
1478.4957871460124
 40
4.5868247042317138
 50
182.28860565917989
 51
267.71139434081823
  0
ARC
  8
_0-2_決定
  6
CONTINUOUS
 62
    7
 10
724.56105841267208
 20
1478.1294550410603
 40
4.5868247042317138
 50
92.288605659181769
 51
177.71139434082008
  0
ARC
  8
_0-2_決定
  6
CONTINUOUS
 62
    7
 10
724.19472630771929
 20
1478.1294550410603
 40
4.5868247042317138
 50
2.2886056591799222
 51
87.711394340818231
  0
ARC
  8
_0-2_決定
  6
CONTINUOUS
 62
    7
 10
713.24829829597434
 20
1328.7914925831117
 40
0.9329338243527219
 50
307.62860890914277
 51
355.15047175891647
  0
ARC
  8
_0-2_決定
  6
CONTINUOUS
 62
    7
 10
712.06539698720553
 20
1330.2576138395161
 40
2.8165979873256557
 50
284.65292302567281
 51
308.47717932849571
  0
ARC
  8
_0-2_決定
  6
CONTINUOUS
 62
    7
 10
711.19000455897867
 20
1333.1527161932918
 40
5.8401056599318837
 50
269.88117023752602
 51
285.77698278260743
  0
ARC
  8
_0-2_決定
  6
CONTINUOUS
 62
    7
 10
711.09421523886795
 20
1332.5833057528253
 40
5.2713468445513563
 50
248.68250374355924
 51
270.90954881297046
  0
ARC
  8
_0-2_決定
  6
CONTINUOUS
 62
    7
 10
709.59701342906783
 20
1329.0763933520675
 40
1.4650028700002733
 50
194.37734331524405
 51
253.37605125660232
  0
ARC
  8
_0-2_決定
  6
CONTINUOUS
 62
    7
 10
709.10748642441695
 20
1328.6337536039609
 40
0.932933824352567
 50
127.62860890913758
 51
175.15047175891127
  0
ARC
  8
_0-2_決定
  6
CONTINUOUS
 62
    7
 10
710.29038773318575
 20
1327.1676323475567
 40
2.8165979873256557
 50
104.65292302567281
 51
128.47717932849568
  0
ARC
  8
_0-2_決定
  6
CONTINUOUS
 62
    7
 10
711.16578016141261
 20
1324.2725299937802
 40
5.8401056599329024
 50
89.881170237524643
 51
105.77698278260604
  0
ARC
  8
_0-2_決定
  6
CONTINUOUS
 62
    7
 10
711.26156948152334
 20
1324.8419404342485
 40
5.2713468445506306
 50
68.682503743557817
 51
90.909548812969049
  0
ARC
  8
_0-2_決定
  6
CONTINUOUS
 62
    7
 10
712.75877129132346
 20
1328.3488528350053
 40
1.4650028700001692
 50
14.377343315247927
 51
73.376051256606203
  0
ARC
  8
_0-2_決定
  6
CONTINUOUS
 62
    7
 10
734.24829829597434
 20
1355.391492583112
 40
0.9329338243528907
 50
307.62860890912373
 51
355.15047175889742
  0
ARC
  8
_0-2_決定
  6
CONTINUOUS
 62
    7
 10
733.06539698720576
 20
1356.857613839516
 40
2.8165979873255016
 50
284.6529230256665
 51
308.47717932848946
  0
ARC
  8
_0-2_決定
  6
CONTINUOUS
 62
    7
 10
732.19000455898026
 20
1359.7527161932917
 40
5.840105659931675
 50
269.88117023751101
 51
285.77698278259243
  0
ARC
  8
_0-2_決定
  6
CONTINUOUS
 62
    7
 10
732.09421523886647
 20
1359.1833057528245
 40
5.2713468445503695
 50
248.68250374357359
 51
270.90954881298484
  0
ARC
  8
_0-2_決定
  6
CONTINUOUS
 62
    7
 10
730.59701342906806
 20
1355.6763933520676
 40
1.4650028700004731
 50
194.37734331525218
 51
253.37605125661045
  0
ARC
  8
_0-2_決定
  6
CONTINUOUS
 62
    7
 10
730.2565281589907
 20
1355.2036208663947
 40
1.0841294535082833
 50
130.12227875524243
 51
174.22952847625797
  0
ARC
  8
_0-2_決定
  6
CONTINUOUS
 62
    7
 10
731.56618345213337
 20
1353.7849547398378
 40
3.0141742050145326
 50
107.93725269249475
 51
131.78077963733628
  0
ARC
  8
_0-2_決定
  6
CONTINUOUS
 62
    7
 10
732.19454520334693
 20
1352.1232177917998
 40
4.7894342527580154
 50
90.199217590558675
 51
108.96667185652475
  0
ARC
  8
_0-2_決定
  6
CONTINUOUS
 62
    7
 10
732.27862438154943
 20
1352.9539789270725
 40
3.9599255771802975
 50
46.630807449863354
 51
91.457639088858343
  0
ARC
  8
_0-2_決定
  6
CONTINUOUS
 62
    7
 10
734.32629135057459
 20
1355.3089919748209
 40
0.851608750900994
 50
0.2443004577884339
 51
37.942683543235482
  0
ARC
  8
_0-2_決定
  6
CONTINUOUS
 62
    7
 10
744.33559661749746
 20
1519.1482083273374
 40
10.843542250105605
 50
345.1691175491618
 51
0.8687676371676825
  0
ARC
  8
_0-2_決定
  6
CONTINUOUS
 62
    7
 10
752.08404310458377
 20
1516.939545721342
 40
2.7920127660920739
 50
318.58540418930374
 51
348.28449345655048
  0
ARC
  8
_0-2_決定
  6
CONTINUOUS
 62
    7
 10
753.76467520506026
 20
1515.4764369938378
 40
0.5639707994411967
 50
271.34290028222517
 51
317.11259035365947
  0
ARC
  8
_0-2_決定
  6
CONTINUOUS
 62
    7
 10
753.9103143159607
 20
1515.7853926026394
 40
0.8827602627385211
 50
213.93255925294028
 51
261.37255374816277
  0
ARC
  8
_0-2_決定
  6
CONTINUOUS
 62
    7
 10
756.28643018597722
 20
1517.5619135898828
 40
3.8487265229278749
 50
195.51181976613213
 51
216.13016418225502
  0
ARC
  8
_0-2_決定
  6
CONTINUOUS
 62
    7
 10
761.55062470111886
 20
1519.2424386965467
 40
9.3729950978027095
 50
179.57098102819418
 51
196.80462299561043
  0
ARC
  8
_0-2_決定
  6
CONTINUOUS
 62
    7
 10
761.7202950614211
 20
1519.3755289986336
 40
9.5426100578865363
 50
164.20731390938926
 51
180.37771464467889
  0
ARC
  8
_0-2_決定
  6
CONTINUOUS
 62
    7
 10
756.23942902568217
 20
1521.1052287792793
 40
3.8018078742584294
 50
142.63288690481488
 51
166.81166862409154
  0
ARC
  8
_0-2_決定
  6
CONTINUOUS
 62
    7
 10
753.82180012537538
 20
1522.9579932652014
 40
0.7559041282735523
 50
93.329981121839992
 51
143.02719909809289
  0
ARC
  8
_0-2_決定
  6
CONTINUOUS
 62
    7
 10
753.66956292736916
 20
1522.9146445908013
 40
0.8052960728415714
 50
31.267514771224192
 51
82.269063092821156
  0
ARC
  8
_0-2_決定
  6
CONTINUOUS
 62
    7
 10
751.17926891644174
 20
1521.3301116404105
 40
3.7568192805940153
 50
11.710501188582692
 51
32.210626851589097
  0
ARC
  8
_0-2_決定
  6
CONTINUOUS
 62
    7
 10
743.84276817049317
 20
1519.4162758630664
 40
11.335598118636327
 50
359.47606967650808
 51
13.656527564990595
  0
ARC
  8
_0-2_決定
  6
CONTINUOUS
 62
    7
 10
781.48442973095143
 20
1473.6694260152556
 40
9.2823468478554148
 50
60.054943106213869
 51
76.965859296593308
  0
ARC
  8
_0-2_決定
  6
CONTINUOUS
 62
    7
 10
784.57638415413976
 20
1478.8055017386339
 40
3.2905304273002955
 50
35.420873522757596
 51
62.065103068599811
  0
ARC
  8
_0-2_決定
  6
CONTINUOUS
 62
    7
 10
786.62701144633218
 20
1480.2744449107636
 40
0.7681204948618292
 50
347.83808566807591
 51
34.781779280006283
  0
ARC
  8
_0-2_決定
  6
CONTINUOUS
 62
    7
 10
786.67404627569817
 20
1480.3666343990994
 40
0.7482794064155964
 50
287.4064209050988
 51
340.15582862459149
  0
ARC
  8
_0-2_決定
  6
CONTINUOUS
 62
    7
 10
785.8290467399587
 20
1483.0033860554263
 40
3.5171091523759883
 50
266.55810103557189
 51
287.69193166225989
  0
ARC
  8
_0-2_決定
  6
CONTINUOUS
 62
    7
 10
786.04003027899216
 20
1492.1589822587257
 40
12.67339360982303
 50
255.08412694513027
 51
268.09118247400932
  0
ARC
  8
_0-2_決定
  6
CONTINUOUS
 62
    7
 10
784.87135498943985
 20
1488.9558161718176
 40
9.2823468478554148
 50
240.05494310621387
 51
256.96585929659329
  0
ARC
  8
_0-2_決定
  6
CONTINUOUS
 62
    7
 10
781.77940056625118
 20
1483.8197404484399
 40
3.2905304273007601
 50
215.42087352276471
 51
242.0651030686069
  0
ARC
  8
_0-2_決定
  6
CONTINUOUS
 62
    7
 10
779.72877327405877
 20
1482.3507972763086
 40
0.7681204948611646
 50
167.83808566803157
 51
214.78177927996194
  0
ARC
  8
_0-2_決定
  6
CONTINUOUS
 62
    7
 10
779.68173844469356
 20
1482.2586077879735
 40
0.7482794064159286
 50
107.40642090512529
 51
160.15582862461798
  0
ARC
  8
_0-2_決定
  6
CONTINUOUS
 62
    7
 10
780.52673798043111
 20
1479.6218561316473
 40
3.5171091523750269
 50
86.558101035548376
 51
107.69193166223643
  0
ARC
  8
_0-2_決定
  6
CONTINUOUS
 62
    7
 10
780.31575444140174
 20
1470.4662599283472
 40
12.673393609822661
 50
75.084126945141477
 51
88.091182474020556
  0
ARC
  8
_0-2_決定
  6
CONTINUOUS
 62
    7
 10
752.63680343953047
 20
1404.8711447485609
 40
5.5412441635268008
 50
321.90820888015935
 51
0.4288849637322634
  0
ARC
  8
_0-2_決定
  6
CONTINUOUS
 62
    7
 10
754.99254554669528
 20
1403.1034009664838
 40
2.5973993586333348
 50
274.09202513363846
 51
320.53919081325324
  0
ARC
  8
_0-2_決定
  6
CONTINUOUS
 62
    7
 10
755.23426676758413
 20
1402.7097857270082
 40
2.1978857367325588
 50
235.76912582820927
 51
268.53023756739162
  0
ARC
  8
_0-2_決定
  6
CONTINUOUS
 62
    7
 10
756.28353894473094
 20
1404.1612196248152
 40
3.9884713354475587
 50
191.6968491120181
 51
235.03588289009178
  0
ARC
  8
_0-2_決定
  6
CONTINUOUS
 62
    7
 10
758.23488875651583
 20
1404.8963405802444
 40
6.0570182817350728
 50
179.84597695239833
 51
194.76554211422754
  0
ARC
  8
_0-2_決定
  6
CONTINUOUS
 62
    7
 10
757.68115232494074
 20
1405.0255643553553
 40
5.5044187675162686
 50
141.75919300248842
 51
181.17569393740808
  0
ARC
  8
_0-2_決定
  6
CONTINUOUS
 62
    7
 10
755.30584888137867
 20
1406.7259402883615
 40
2.5898457108290325
 50
92.831965852014562
 51
138.77709894785801
  0
ARC
  8
_0-2_決定
  6
CONTINUOUS
 62
    7
 10
755.07765948546194
 20
1406.7016207785944
 40
2.6129255094262174
 50
30.115008720519349
 51
87.801571428506008
  0
ARC
  8
_0-2_決定
  6
CONTINUOUS
 62
    7
 10
752.8630437716381
 20
1405.1362770243791
 40
5.3195522931983774
 50
357.5903602591136
 51
32.732124897164574
  0
ARC
  8
_0-2_決定
  6
CONTINUOUS
 62
    7
 10
764.19593251787182
 20
1420.8874371702791
 40
26.182928214489078
 50
342.72596831443622
 51
0.4927776590595569
  0
ARC
  8
_0-2_決定
  6
CONTINUOUS
 62
    7
 10
779.33500437789803
 20
1416.3887279272562
 40
10.392758162916749
 50
327.68232224685732
 51
341.62532586924931
  0
ARC
  8
_0-2_決定
  6
CONTINUOUS
 62
    7
 10
784.58796217223039
 20
1413.0205241162164
 40
4.1529890460911609
 50
305.81033211762258
 51
328.20877550841016
  0
ARC
  8
_0-2_決定
  6
CONTINUOUS
 62
    7
 10
785.94041612746594
 20
1411.187844511297
 40
1.8755958609592152
 50
271.14490168925795
 51
305.06262437976619
  0
ARC
  8
_0-2_決定
  6
CONTINUOUS
 62
    7
 10
786.02619937180157
 20
1411.2209739525651
 40
1.9089621705330155
 50
235.24252014539724
 51
268.54995378557868
  0
ARC
  8
_0-2_決定
  6
CONTINUOUS
 62
    7
 10
787.24601949176758
 20
1412.8727453354331
 40
3.9618982960515465
 50
213.385684705838
 51
234.36770986602465
  0
ARC
  8
_0-2_決定
  6
CONTINUOUS
 62
    7
 10
791.61018939812777
 20
1415.8187955399803
 40
9.2272306673749309
 50
200.33255817750978
 51
213.74848964153298
  0
ARC
  8
_0-2_決定
  6
CONTINUOUS
 62
    7
 10
799.88196852432247
 20
1419.0620148667786
 40
18.111295046294373
 50
191.23727042956941
 51
200.86073915549647
  0
ARC
  8
_0-2_決定
  6
CONTINUOUS
 62
    7
 10
809.33883006696783
 20
1420.9830364199984
 40
27.761240157191086
 50
179.73254809956282
 51
191.32253220375009
  0
ARC
  8
_0-2_決定
  6
CONTINUOUS
 62
    7
 10
807.75985220251891
 20
1421.3378090167939
 40
26.182928214488616
 50
162.72596831443607
 51
180.49277765905941
  0
ARC
  8
_0-2_決定
  6
CONTINUOUS
 62
    7
 10
792.62078034249157
 20
1425.8365182598163
 40
10.392758162915159
 50
147.68232224685318
 51
161.62532586924516
  0
ARC
  8
_0-2_決定
  6
CONTINUOUS
 62
    7
 10
787.36782254816205
 20
1429.2047220708564
 40
4.1529890460919638
 50
125.81033211763292
 51
148.20877550842047
  0
ARC
  8
_0-2_決定
  6
CONTINUOUS
 62
    7
 10
786.01536859292537
 20
1431.037401675776
 40
1.8755958609592152
 50
91.144901689257949
 51
125.06262437976619
  0
ARC
  8
_0-2_決定
  6
CONTINUOUS
 62
    7
 10
785.92958534858985
 20
1431.0042722345079
 40
1.9089621705330155
 50
55.242520145397215
 51
88.549953785578637
  0
ARC
  8
_0-2_決定
  6
CONTINUOUS
 62
    7
 10
784.70976522862372
 20
1429.3525008516397
 40
3.9618982960515465
 50
33.385684705837974
 51
54.367709866024619
  0
ARC
  8
_0-2_決定
  6
CONTINUOUS
 62
    7
 10
780.34559532226353
 20
1426.4064506470927
 40
9.2272306673749309
 50
20.332558177509778
 51
33.748489641532977
  0
ARC
  8
_0-2_決定
  6
CONTINUOUS
 62
    7
 10
772.07381619606963
 20
1423.1632313202945
 40
18.111295046293559
 50
11.237270429570168
 51
20.860739155497221
  0
ARC
  8
_0-2_決定
  6
CONTINUOUS
 62
    7
 10
762.61695465342336
 20
1421.2422097670744
 40
27.761240157191086
 50
359.73254809956279
 51
11.322532203750082
  0
ARC
  8
_0-2_決定
  6
CONTINUOUS
 62
    7
 10
860.64907418353073
 20
892.53086342785741
 40
26.925045858155823
 50
283.1572914923147
 51
300.75551290737968
  0
ARC
  8
_0-2_決定
  6
CONTINUOUS
 62
    7
 10
871.70068995663109
 20
873.67299281996964
 40
5.0699777654583933
 50
302.40763579446252
 51
323.15305309913231
  0
ARC
  8
_0-2_決定
  6
CONTINUOUS
 62
    7
 10
874.91876756697843
 20
871.30991179184093
 40
1.0783488333522839
 50
321.09197969197061
 51
10.835533372159027
  0
ARC
  8
_0-2_決定
  6
CONTINUOUS
 62
    7
 10
874.81153155564698
 20
871.14081674874774
 40
1.2241890245951264
 50
17.681352119016456
 51
59.226066314411035
  0
ARC
  8
_0-2_決定
  6
CONTINUOUS
 62
    7
 10
873.55442917881328
 20
868.96256519751523
 40
3.7390843417089781
 50
59.753409495563709
 51
80.712253150863191
  0
ARC
  8
_0-2_決定
  6
CONTINUOUS
 62
    7
 10
872.02771584138736
 20
861.54057177158825
 40
11.314393746687157
 50
79.148089270144595
 51
91.163909979702424
  0
ARC
  8
_0-2_決定
  6
CONTINUOUS
 62
    7
 10
872.34665815810354
 20
846.71104677163839
 40
26.147343592703884
 50
91.202584398103937
 51
105.45724051765329
  0
ARC
  8
_0-2_決定
  6
CONTINUOUS
 62
    7
 10
871.40749617929237
 20
846.26531410563871
 40
26.346556037012011
 50
103.22981481162211
 51
120.8988910566985
  0
ARC
  8
_0-2_決定
  6
CONTINUOUS
 62
    7
 10
860.8287986966011
 20
864.18606627530698
 40
5.5382081764167825
 50
122.19668177244306
 51
141.77774321917354
  0
ARC
  8
_0-2_決定
  6
CONTINUOUS
 62
    7
 10
857.55144821860824
 20
866.72893349578771
 40
1.390484778638942
 50
140.54054555488656
 51
188.94921703899283
  0
ARC
  8
_0-2_決定
  6
CONTINUOUS
 62
    7
 10
857.28598543407884
 20
866.86834524489518
 40
1.1637900370087126
 50
197.79736300213489
 51
240.78145072284167
  0
ARC
  8
_0-2_決定
  6
CONTINUOUS
 62
    7
 10
858.52700237671627
 20
869.03368423250981
 40
3.6595061635817676
 50
240.3724692611504
 51
261.68671512191708
  0
ARC
  8
_0-2_決定
  6
CONTINUOUS
 62
    7
 10
859.76399493590179
 20
876.87935441572995
 40
11.601933852598016
 50
261.24410837890764
 51
272.93421596874259
  0
ARC
  8
_0-2_決定
  6
CONTINUOUS
 62
    7
 10
859.06533427558941
 20
894.14224880253505
 40
28.878558537212587
 50
272.56532047781985
 51
285.48990542360616
  0
ARC
  8
_0-2_決定
  6
CONTINUOUS
 62
    7
 10
834.83775373641663
 20
1149.6626060744936
 40
3.4726031633013261
 50
344.12354775240101
 51
33.368776772712863
  0
ARC
  8
_0-2_決定
  6
CONTINUOUS
 62
    7
 10
831.25389869406092
 20
1147.7577053848499
 40
7.5230163877205145
 50
30.470855400814376
 51
45.381976652403303
  0
ARC
  8
_0-2_決定
  6
CONTINUOUS
 62
    7
 10
827.38691826521608
 20
1143.7794788299479
 40
13.070883038154292
 50
45.564672363435299
 51
57.250208201628844
  0
ARC
  8
_0-2_決定
  6
CONTINUOUS
 62
    7
 10
822.60545729299884
 20
1136.5880266524591
 40
21.706218238646482
 50
56.904327014796031
 51
74.577504079033744
  0
ARC
  8
_0-2_決定
  6
CONTINUOUS
 62
    7
 10
823.0959613735638
 20
1137.502917319724
 40
20.695102806697054
 50
75.21301521199554
 51
95.206723343280018
  0
ARC
  8
_0-2_決定
  6
CONTINUOUS
 62
    7
 10
822.12479764306545
 20
1148.4800726495314
 40
9.6751528312901378
 50
95.378544495901409
 51
122.13875619978383
  0
ARC
  8
_0-2_決定
  6
CONTINUOUS
 62
    7
 10
819.08876631114049
 20
1153.6848599857185
 40
3.6582155660016258
 50
125.24141664602755
 51
163.68322777001737
  0
ARC
  8
_0-2_決定
  6
CONTINUOUS
 62
    7
 10
819.27420240917797
 20
1153.8978298188244
 40
3.785049877754159
 50
167.56879331357931
 51
215.63422975045003
  0
ARC
  8
_0-2_決定
  6
CONTINUOUS
 62
    7
 10
822.98922076836197
 20
1156.0941334650204
 40
8.09292282712385
 50
212.94754831571166
 51
227.65509064970027
  0
ARC
  8
_0-2_決定
  6
CONTINUOUS
 62
    7
 10
827.76710459244532
 20
1161.2013469709418
 40
15.086301449061992
 50
227.30883097313017
 51
249.47616453437166
  0
ARC
  8
_0-2_決定
  6
CONTINUOUS
 62
    7
 10
831.11413056451261
 20
1168.3010550024087
 40
22.917913556951216
 50
247.86231856323352
 51
255.50503305653771
  0
ARC
  8
_0-2_決定
  6
CONTINUOUS
 62
    7
 10
830.80325358278992
 20
1167.1575701314514
 40
21.733020311607053
 50
255.54398022071896
 51
275.16007839650877
  0
ARC
  8
_0-2_決定
  6
CONTINUOUS
 62
    7
 10
831.88898604399378
 20
1154.8216745947334
 40
9.3495114078690413
 50
275.33253647120972
 51
302.68487777006817
  0
ARC
  8
_0-2_決定
  6
CONTINUOUS
 62
    7
 10
834.89946453930406
 20
1149.7056066054984
 40
3.4255049517209906
 50
306.51788441206793
 51
343.14933053793152
  0
ARC
  8
_0-2_決定
  6
CONTINUOUS
 62
    7
 10
854.59472430771939
 20
1077.095793146013
 40
4.5868247042317138
 50
272.28860565918177
 51
357.71139434082011
  0
ARC
  8
_0-2_決定
  6
CONTINUOUS
 62
    7
 10
854.96105641267206
 20
1077.095793146013
 40
4.5868247042317138
 50
182.28860565917989
 51
267.71139434081823
  0
ARC
  8
_0-2_決定
  6
CONTINUOUS
 62
    7
 10
854.89119495911632
 20
1076.7993224946156
 40
4.5147266068694387
 50
91.438084197109902
 51
178.56191580288456
  0
ARC
  8
_0-2_決定
  6
CONTINUOUS
 62
    7
 10
854.64773995700261
 20
1076.7824766903434
 40
4.5320196163522626
 50
1.6456447275282216
 51
88.354355272477321
  0
ARC
  8
_0-2_決定
  6
CONTINUOUS
 62
    7
 10
832.75633673262951
 20
984.52405508547201
 40
2.4215825839087555
 50
275.24945117443866
 51
359.72965466955475
  0
ARC
  8
_0-2_決定
  6
CONTINUOUS
 62
    7
 10
833.08837809249667
 20
984.10847197595808
 40
1.9988986738593093
 50
202.21787771946629
 51
266.83145822409665
  0
ARC
  8
_0-2_決定
  6
CONTINUOUS
 62
    7
 10
833.71578056265946
 20
984.51715575960611
 40
2.7378919445253178
 50
180.0947294431206
 51
205.17199442744234
  0
ARC
  8
_0-2_決定
  6
CONTINUOUS
 62
    7
 10
833.52553237614779
 20
984.42292908024285
 40
2.5492186534831389
 50
102.40535543016378
 51
177.98350238531123
  0
ARC
  8
_0-2_決定
  6
CONTINUOUS
 62
    7
 10
832.79528690053417
 20
984.53690742217987
 40
2.3827291523904681
 50
359.41618633626001
 51
85.604707819746608
  0
ARC
  8
_0-2_決定
  6
CONTINUOUS
 62
    7
 10
843.49925456140136
 20
927.62163132067803
 40
1.0841294535074368
 50
310.12227875524144
 51
354.22952847625697
  0
ARC
  8
_0-2_決定
  6
CONTINUOUS
 62
    7
 10
842.18959926825823
 20
929.04029744723539
 40
3.0141742050145326
 50
287.93725269249478
 51
311.78077963733631
  0
ARC
  8
_0-2_決定
  6
CONTINUOUS
 62
    7
 10
841.56123751704399
 20
930.70203439527427
 40
4.789434252758948
 50
270.19921759056206
 51
288.96667185652814
  0
ARC
  8
_0-2_決定
  6
CONTINUOUS
 62
    7
 10
841.47715833884149
 20
929.87127326000041
 40
3.9599255771801651
 50
226.6308074498684
 51
271.4576390888634
  0
ARC
  8
_0-2_決定
  6
CONTINUOUS
 62
    7
 10
839.42949136981667
 20
927.5162602122515
 40
0.8516087509006424
 50
180.24430045776532
 51
217.94268354321235
  0
ARC
  8
_0-2_決定
  6
CONTINUOUS
 62
    7
 10
839.5074844244175
 20
927.43375960396122
 40
0.9329338243531863
 50
127.62860890915829
 51
175.15047175893201
  0
ARC
  8
_0-2_決定
  6
CONTINUOUS
 62
    7
 10
840.69038573318551
 20
925.96763834755711
 40
2.8165979873255016
 50
104.65292302566654
 51
128.47717932848943
  0
ARC
  8
_0-2_決定
  6
CONTINUOUS
 62
    7
 10
841.56577816141157
 20
923.07253599378157
 40
5.8401056599317434
 50
89.881170237516031
 51
105.77698278259743
  0
ARC
  8
_0-2_決定
  6
CONTINUOUS
 62
    7
 10
841.66156748152298
 20
923.64194643424776
 40
5.271346844551422
 50
68.682503743555273
 51
90.90954881296652
  0
ARC
  8
_0-2_決定
  6
CONTINUOUS
 62
    7
 10
843.15876929132344
 20
927.14885883500529
 40
1.4650028700001692
 50
14.377343315247927
 51
73.376051256606203
  0
ARC
  8
_0-2_決定
  6
CONTINUOUS
 62
    7
 10
864.64829629597398
 20
954.19149858311152
 40
0.9329338243528768
 50
307.62860890914794
 51
355.15047175892164
  0
ARC
  8
_0-2_決定
  6
CONTINUOUS
 62
    7
 10
863.46539498720574
 20
955.65761983951597
 40
2.8165979873255016
 50
284.6529230256665
 51
308.47717932848946
  0
ARC
  8
_0-2_決定
  6
CONTINUOUS
 62
    7
 10
862.59000255898059
 20
958.55272219329299
 40
5.8401056599326227
 50
269.88117023750465
 51
285.77698278258606
  0
ARC
  8
_0-2_決定
  6
CONTINUOUS
 62
    7
 10
862.494213238866
 20
957.98331175282442
 40
5.2713468445503029
 50
248.68250374357751
 51
270.90954881298876
  0
ARC
  8
_0-2_決定
  6
CONTINUOUS
 62
    7
 10
860.99701142906815
 20
954.47639935206723
 40
1.4650028700003772
 50
194.37734331524013
 51
253.3760512565984
  0
ARC
  8
_0-2_決定
  6
CONTINUOUS
 62
    7
 10
860.5074844244175
 20
954.03375960396124
 40
0.9329338243531863
 50
127.62860890915829
 51
175.15047175893201
  0
ARC
  8
_0-2_決定
  6
CONTINUOUS
 62
    7
 10
861.69038573318539
 20
952.56763834755645
 40
2.8165979873261171
 50
104.65292302566029
 51
128.47717932848317
  0
ARC
  8
_0-2_決定
  6
CONTINUOUS
 62
    7
 10
862.5657781614118
 20
949.67253599378239
 40
5.8401056599307255
 50
89.881170237517395
 51
105.77698278259879
  0
ARC
  8
_0-2_決定
  6
CONTINUOUS
 62
    7
 10
862.66156748152434
 20
950.24194643424812
 40
5.2713468445511609
 50
68.682503743571047
 51
90.909548812982294
  0
ARC
  8
_0-2_決定
  6
CONTINUOUS
 62
    7
 10
864.15876929132287
 20
953.74885883500554
 40
1.4650028700005848
 50
14.377343315232292
 51
73.376051256590571
  0
ARC
  8
_0-2_決定
  6
CONTINUOUS
 62
    7
 10
793.97054123378553
 20
855.91022302663646
 40
2.2073524399266558
 50
275.39011629319339
 51
0.0625056946213479
  0
ARC
  8
_0-2_決定
  6
CONTINUOUS
 62
    7
 10
794.26854229069818
 20
855.80413103035676
 40
2.0934634927840703
 50
177.02914228055783
 51
267.51823573161931
  0
ARC
  8
_0-2_決定
  6
CONTINUOUS
 62
    7
 10
794.51672369155426
 20
855.99693831740433
 40
2.3403503379923434
 50
98.324426105377427
 51
182.06443171009084
  0
ARC
  8
_0-2_決定
  6
CONTINUOUS
 62
    7
 10
794.16482487914755
 20
856.39059824044716
 40
1.9220772740488423
 50
22.709423203435396
 51
89.61046452663723
  0
ARC
  8
_0-2_決定
  6
CONTINUOUS
 62
    7
 10
793.19321666685596
 20
855.95908833419094
 40
2.9850372308604394
 50
359.10824854783527
 51
23.150130031390447
  0
ARC
  8
_0-2_決定
  6
CONTINUOUS
 62
    7
 10
804.61478318773572
 20
798.96537295365852
 40
0.9645522183299868
 50
308.70228202317634
 51
356.86549486225812
  0
ARC
  8
_0-2_決定
  6
CONTINUOUS
 62
    7
 10
803.52522611808672
 20
800.32268151014364
 40
2.7050751870880934
 50
283.52568277177789
 51
308.73631831809507
  0
ARC
  8
_0-2_決定
  6
CONTINUOUS
 62
    7
 10
802.67264220376524
 20
803.70538246664864
 40
6.1934761727191026
 50
269.12343605205672
 51
283.87525650725161
  0
ARC
  8
_0-2_決定
  6
CONTINUOUS
 62
    7
 10
802.46175178571434
 20
802.09355583933302
 40
4.5823967702164259
 50
247.08996775445758
 51
271.45231364953781
  0
ARC
  8
_0-2_決定
  6
CONTINUOUS
 62
    7
 10
801.12694722562742
 20
799.1706593424675
 40
1.3735092308359262
 50
190.82795669626049
 51
250.91685989869544
  0
ARC
  8
_0-2_決定
  6
CONTINUOUS
 62
    7
 10
800.94670846682766
 20
798.82577196466423
 40
1.172039077586907
 50
132.30126513387651
 51
175.74994694123316
  0
ARC
  8
_0-2_決定
  6
CONTINUOUS
 62
    7
 10
802.01181771341544
 20
797.68049381462242
 40
2.7360072449659825
 50
107.30670179975689
 51
132.65657693795083
  0
ARC
  8
_0-2_決定
  6
CONTINUOUS
 62
    7
 10
802.55869019785052
 20
796.19489920279477
 40
4.3177745892262358
 50
89.745191310058715
 51
108.37058494719192
  0
ARC
  8
_0-2_決定
  6
CONTINUOUS
 62
    7
 10
802.6824688943185
 20
795.82707919197583
 40
4.6867187747623689
 50
68.003326445948431
 51
91.278568577872846
  0
ARC
  8
_0-2_決定
  6
CONTINUOUS
 62
    7
 10
803.85632525484971
 20
798.5007370458427
 40
1.7701553617505603
 50
13.455381928285171
 51
70.819807619489978
  0
ARC
  8
_0-2_決定
  6
CONTINUOUS
 62
    7
 10
825.61478318773561
 20
825.56537295365865
 40
0.9645522183301459
 50
308.70228202315792
 51
356.8654948622397
  0
ARC
  8
_0-2_決定
  6
CONTINUOUS
 62
    7
 10
824.52522611808604
 20
826.92268151014355
 40
2.7050751870883798
 50
283.52568277179029
 51
308.73631831810746
  0
ARC
  8
_0-2_決定
  6
CONTINUOUS
 62
    7
 10
823.67264220376626
 20
830.30538246664855
 40
6.1934761727189782
 50
269.1234360520466
 51
283.87525650724143
  0
ARC
  8
_0-2_決定
  6
CONTINUOUS
 62
    7
 10
823.4617517857148
 20
828.69355583933293
 40
4.582396770216552
 50
247.0899677544493
 51
271.45231364952957
  0
ARC
  8
_0-2_決定
  6
CONTINUOUS
 62
    7
 10
822.12694722562696
 20
825.77065934246775
 40
1.3735092308357113
 50
190.82795669626822
 51
250.91685989870317
  0
ARC
  8
_0-2_決定
  6
CONTINUOUS
 62
    7
 10
821.94670846682754
 20
825.42577196466425
 40
1.172039077586907
 50
132.30126513387651
 51
175.74994694123316
  0
ARC
  8
_0-2_決定
  6
CONTINUOUS
 62
    7
 10
823.01181771341612
 20
824.28049381462188
 40
2.7360072449668671
 50
107.30670179976185
 51
132.6565769379558
  0
ARC
  8
_0-2_決定
  6
CONTINUOUS
 62
    7
 10
823.55869019784996
 20
822.79489920279593
 40
4.3177745892252295
 50
89.745191310049051
 51
108.37058494718225
  0
ARC
  8
_0-2_決定
  6
CONTINUOUS
 62
    7
 10
823.68246889431839
 20
822.42707919197585
 40
4.6867187747623689
 50
68.003326445948431
 51
91.278568577872846
  0
ARC
  8
_0-2_決定
  6
CONTINUOUS
 62
    7
 10
824.85632525484993
 20
825.10073704584238
 40
1.770155361750759
 50
13.455381928292281
 51
70.819807619497084
  0
ARC
  8
_0-2_決定
  6
CONTINUOUS
 62
    7
 10
874.7355946174971
 20
1117.9482143273362
 40
10.843542250105481
 50
345.16911754916725
 51
0.86876763717314
  0
ARC
  8
_0-2_決定
  6
CONTINUOUS
 62
    7
 10
882.48404110458466
 20
1115.7395517213422
 40
2.7920127660913305
 50
318.58540418929613
 51
348.2844934565428
  0
ARC
  8
_0-2_決定
  6
CONTINUOUS
 62
    7
 10
884.16467320505967
 20
1114.2764429938379
 40
0.5639707994414218
 50
271.34290028227593
 51
317.11259035371023
  0
ARC
  8
_0-2_決定
  6
CONTINUOUS
 62
    7
 10
884.3103123159608
 20
1114.5853986026393
 40
0.8827602627385211
 50
213.93255925294028
 51
261.37255374816277
  0
ARC
  8
_0-2_決定
  6
CONTINUOUS
 62
    7
 10
886.68642818597732
 20
1116.3619195898827
 40
3.8487265229278749
 50
195.51181976613213
 51
216.13016418225502
  0
ARC
  8
_0-2_決定
  6
CONTINUOUS
 62
    7
 10
891.95062270111862
 20
1118.0424446965476
 40
9.3729950978028427
 50
179.57098102819992
 51
196.8046229956162
  0
ARC
  8
_0-2_決定
  6
CONTINUOUS
 62
    7
 10
892.12029306142142
 20
1118.1755349986327
 40
9.5426100578871704
 50
164.20731390938366
 51
180.37771464467329
  0
ARC
  8
_0-2_決定
  6
CONTINUOUS
 62
    7
 10
886.63942702568249
 20
1119.9052347792785
 40
3.8018078742587198
 50
142.63288690480564
 51
166.8116686240823
  0
ARC
  8
_0-2_決定
  6
CONTINUOUS
 62
    7
 10
884.22179812537536
 20
1121.7579992652018
 40
0.7559041282732541
 50
93.329981121852114
 51
143.027199098105
  0
ARC
  8
_0-2_決定
  6
CONTINUOUS
 62
    7
 10
884.06956092736914
 20
1121.7146505908017
 40
0.8052960728412952
 50
31.267514771211317
 51
82.269063092808281
  0
ARC
  8
_0-2_決定
  6
CONTINUOUS
 62
    7
 10
881.57926691644263
 20
1120.1301176404099
 40
3.7568192805932026
 50
11.710501188600821
 51
32.210626851607223
  0
ARC
  8
_0-2_決定
  6
CONTINUOUS
 62
    7
 10
874.24276617049054
 20
1118.2162818630677
 40
11.335598118638483
 50
359.47606967650097
 51
13.656527564983483
  0
ARC
  8
_0-2_決定
  6
CONTINUOUS
 62
    7
 10
905.43548765896821
 20
1079.8497191884383
 40
9.542610057888405
 50
344.20731390939687
 51
0.3777146446865206
  0
ARC
  8
_0-2_決定
  6
CONTINUOUS
 62
    7
 10
910.91635369470907
 20
1078.1200194077942
 40
3.8018078742587198
 50
322.63288690480562
 51
346.8116686240823
  0
ARC
  8
_0-2_決定
  6
CONTINUOUS
 62
    7
 10
913.33398259501655
 20
1076.2672549218712
 40
0.7559041282730147
 50
273.32998112181821
 51
323.02719909807109
  0
ARC
  8
_0-2_決定
  6
CONTINUOUS
 62
    7
 10
913.48621979302243
 20
1076.3106035962719
 40
0.8052960728415714
 50
211.2675147712242
 51
262.26906309282117
  0
ARC
  8
_0-2_決定
  6
CONTINUOUS
 62
    7
 10
915.97651380394859
 20
1077.8951365466633
 40
3.7568192805932026
 50
191.71050118860083
 51
212.21062685160726
  0
ARC
  8
_0-2_決定
  6
CONTINUOUS
 62
    7
 10
923.31301454990069
 20
1079.8089723240055
 40
11.335598118638483
 50
179.476069676501
 51
193.65652756498349
  0
ARC
  8
_0-2_決定
  6
CONTINUOUS
 62
    7
 10
922.82018610289185
 20
1080.0770398597376
 40
10.843542250103283
 50
165.1691175491714
 51
180.86876763717726
  0
ARC
  8
_0-2_決定
  6
CONTINUOUS
 62
    7
 10
915.07173961580747
 20
1082.2857024657301
 40
2.7920127660925695
 50
138.5854041892961
 51
168.28449345654283
  0
ARC
  8
_0-2_決定
  6
CONTINUOUS
 62
    7
 10
913.39110751533099
 20
1083.7488111932348
 40
0.5639707994414552
 50
91.342900282193
 51
137.1125903536273
  0
ARC
  8
_0-2_決定
  6
CONTINUOUS
 62
    7
 10
913.24546840443134
 20
1083.4398555844341
 40
0.8827602627378444
 50
33.93255925296674
 51
81.372553748189233
  0
ARC
  8
_0-2_決定
  6
CONTINUOUS
 62
    7
 10
910.86935253441288
 20
1081.6633345971902
 40
3.8487265229289469
 50
15.511819766124397
 51
36.130164182247292
  0
ARC
  8
_0-2_決定
  6
CONTINUOUS
 62
    7
 10
905.60515801927386
 20
1079.9828094905263
 40
9.372995097801299
 50
359.57098102819543
 51
16.80462299561168
  0
ARC
  8
_0-2_決定
  6
CONTINUOUS
 62
    7
 10
829.39651561482628
 20
1035.381992756586
 40
11.954901265902279
 50
159.7865662849147
 51
175.53525915843369
  0
ARC
  8
_0-2_決定
  6
CONTINUOUS
 62
    7
 10
818.83198622447458
 20
1036.0069483307789
 40
1.3881681893768993
 50
167.27896050507613
 51
232.02868761101428
  0
ARC
  8
_0-2_決定
  6
CONTINUOUS
 62
    7
 10
818.22197769327602
 20
1035.4354344304124
 40
0.5769775299706511
 50
244.973252118468
 51
303.19798144146108
  0
ARC
  8
_0-2_決定
  6
CONTINUOUS
 62
    7
 10
816.76741130018229
 20
1037.81553692117
 40
3.3661319661283584
 50
301.73349870749888
 51
323.06137688750528
  0
ARC
  8
_0-2_決定
  6
CONTINUOUS
 62
    7
 10
810.53242451345818
 20
1042.8946573185522
 40
11.406260613893757
 50
321.49060239244051
 51
336.31477183600407
  0
ARC
  8
_0-2_決定
  6
CONTINUOUS
 62
    7
 10
809.46721418207403
 20
1042.6441055041441
 40
12.298674725999369
 50
339.37864540843907
 51
353.97229206777854
  0
ARC
  8
_0-2_決定
  6
CONTINUOUS
 62
    7
 10
819.99798141667293
 20
1041.8167499256344
 40
1.762130915311183
 50
344.72892193494454
 51
38.455428885626318
  0
ARC
  8
_0-2_決定
  6
CONTINUOUS
 62
    7
 10
821.0910857885458
 20
1042.1453724294502
 40
0.8191097595110518
 50
69.503861716476607
 51
120.29432319107313
  0
ARC
  8
_0-2_決定
  6
CONTINUOUS
 62
    7
 10
822.29162937101682
 20
1039.9914247881852
 40
3.2849105341020985
 50
119.42326844145263
 51
141.58242832922485
  0
ARC
  8
_0-2_決定
  6
CONTINUOUS
 62
    7
 10
827.8695542482169
 20
1035.3205023841901
 40
10.559461941734558
 50
140.53175634213051
 51
156.6091124281927
  0
ARC
  8
_0-2_決定
  6
CONTINUOUS
 62
    7
 10
741.61971892960673
 20
920.26286893122347
 40
9.0966124742995138
 50
154.96270485218665
 51
171.72157925526449
  0
ARC
  8
_0-2_決定
  6
CONTINUOUS
 62
    7
 10
735.28248206406238
 20
920.97683123595971
 40
2.7303874743780838
 50
167.39603744111406
 51
212.42946545232004
  0
ARC
  8
_0-2_決定
  6
CONTINUOUS
 62
    7
 10
733.09363737694844
 20
920.59498967050581
 40
1.0885297414595054
 50
263.89611373282094
 51
307.6062335940336
  0
ARC
  8
_0-2_決定
  6
CONTINUOUS
 62
    7
 10
730.9582355723802
 20
923.61228788135179
 40
4.7843301433744125
 50
305.81515301549945
 51
324.1848469845005
  0
ARC
  8
_0-2_決定
  6
CONTINUOUS
 62
    7
 10
725.23773443551192
 20
927.94611860921236
 40
11.960337633828386
 50
323.38545859612725
 51
336.16359861174885
  0
ARC
  8
_0-2_決定
  6
CONTINUOUS
 62
    7
 10
726.15402932831989
 20
927.05259648207834
 40
10.770384074144339
 50
338.54225598098736
 51
354.67274851151143
  0
ARC
  8
_0-2_決定
  6
CONTINUOUS
 62
    7
 10
735.03727151148325
 20
926.40352642826201
 40
1.873770009428174
 50
349.20660407480312
 51
44.318504848841343
  0
ARC
  8
_0-2_決定
  6
CONTINUOUS
 62
    7
 10
736.27002248182976
 20
926.86838866106086
 40
0.8511038823115022
 50
82.718684306698279
 51
128.69859135137148
  0
ARC
  8
_0-2_決定
  6
CONTINUOUS
 62
    7
 10
738.44265499639619
 20
923.76786645733603
 40
4.6356422020164514
 50
125.69504409879089
 51
144.3049559012091
  0
ARC
  8
_0-2_決定
  6
CONTINUOUS
 62
    7
 10
743.60550188649597
 20
920.0168272358294
 40
11.01724055651249
 50
144.12826560043007
 51
158.17561582883729
  0
ARC
  8
_0-2_決定
  6
CONTINUOUS
 62
    7
 10
883.03680143953045
 20
1003.6711507485611
 40
5.5412441635268008
 50
321.90820888015935
 51
0.4288849637322634
  0
ARC
  8
_0-2_決定
  6
CONTINUOUS
 62
    7
 10
885.39254354669515
 20
1001.9034069664843
 40
2.5973993586337385
 50
274.09202513363834
 51
320.53919081325313
  0
ARC
  8
_0-2_決定
  6
CONTINUOUS
 62
    7
 10
885.6342647675848
 20
1001.5097917270077
 40
2.197885736732311
 50
235.7691258281865
 51
268.53023756736889
  0
ARC
  8
_0-2_決定
  6
CONTINUOUS
 62
    7
 10
886.68353694473069
 20
1002.9612256248161
 40
3.9884713354477701
 50
191.6968491120227
 51
235.03588289009645
  0
ARC
  8
_0-2_決定
  6
CONTINUOUS
 62
    7
 10
888.63488675651433
 20
1003.6963465802446
 40
6.0570182817339866
 50
179.84597695239964
 51
194.76554211422885
  0
ARC
  8
_0-2_決定
  6
CONTINUOUS
 62
    7
 10
888.11894837188811
 20
1003.7541179797222
 40
5.5412133343358576
 50
141.90809749548686
 51
180.42899634839631
  0
ARC
  8
_0-2_決定
  6
CONTINUOUS
 62
    7
 10
885.76323717369542
 20
1005.5218512205892
 40
2.597399358633087
 50
94.092025133627871
 51
140.53919081324267
  0
ARC
  8
_0-2_決定
  6
CONTINUOUS
 62
    7
 10
885.52151595280657
 20
1005.9154664600652
 40
2.1978857367321565
 50
55.769125828198987
 51
88.530237567381334
  0
ARC
  8
_0-2_決定
  6
CONTINUOUS
 62
    7
 10
884.47224377566044
 20
1004.464032562257
 40
3.9884713354479824
 50
11.696849112027323
 51
55.035882890101043
  0
ARC
  8
_0-2_決定
  6
CONTINUOUS
 62
    7
 10
882.52089396387782
 20
1003.7289116068297
 40
6.0570182817327627
 50
359.84597695239069
 51
14.765542114219899
  0
ARC
  8
_0-2_決定
  6
CONTINUOUS
 62
    7
 10
931.62368007731266
 20
1179.6334337218079
 40
3.7550454642028774
 50
1.2084493885588168
 51
49.59016975299329
  0
ARC
  8
_0-2_決定
  6
CONTINUOUS
 62
    7
 10
929.78876731983155
 20
1177.6912251053684
 40
6.4248636239031596
 50
48.358394616631571
 51
91.880900654088805
  0
ARC
  8
_0-2_決定
  6
CONTINUOUS
 62
    7
 10
929.56321799141335
 20
1177.0872787472231
 40
7.0253636678433109
 50
89.880338519460679
 51
139.04002404504337
  0
ARC
  8
_0-2_決定
  6
CONTINUOUS
 62
    7
 10
927.05172071800826
 20
1179.6263621221667
 40
3.4749012935831742
 50
143.51405948216237
 51
178.57747711882257
  0
ARC
  8
_0-2_決定
  6
CONTINUOUS
 62
    7
 10
927.26325200651729
 20
1179.7476474126479
 40
3.6855280336648022
 50
180.54443940189438
 51
228.8466131781787
  0
ARC
  8
_0-2_決定
  6
CONTINUOUS
 62
    7
 10
929.24163355193878
 20
1181.9498215085132
 40
6.6457067602552025
 50
228.49810454240389
 51
272.90026730080126
  0
ARC
  8
_0-2_決定
  6
CONTINUOUS
 62
    7
 10
929.6836219840759
 20
1182.5234148961172
 40
7.2115629311638942
 50
269.15993343995189
 51
303.25206393804234
  0
ARC
  8
_0-2_決定
  6
CONTINUOUS
 62
    7
 10
931.24011323555601
 20
1179.8684445459817
 40
4.1407099163884666
 50
305.38543346509709
 51
357.84341551315219
  0
ARC
  8
_0-2_決定
  6
CONTINUOUS
 62
    7
 10
938.02376434969858
 20
866.55215193277718
 40
8.3618997018982117
 50
2.4707707559087413
 51
88.94386798118056
  0
ARC
  8
_0-2_決定
  6
CONTINUOUS
 62
    7
 10
938.4356681074687
 20
866.44590890258178
 40
8.4706454314768216
 50
91.743888080923696
 51
176.84147318198501
  0
ARC
  8
_0-2_決定
  6
CONTINUOUS
 62
    7
 10
938.14643306894652
 20
867.28981701812108
 40
8.1772464318004996
 50
182.64377899518897
 51
270.22041337313971
  0
ARC
  8
_0-2_決定
  6
CONTINUOUS
 62
    7
 10
937.87864592502785
 20
867.63747780743074
 40
8.5300972284829673
 50
272.0104063786099
 51
355.1254012530635
  0
ARC
  8
_0-2_決定
  6
CONTINUOUS
 62
    7
 10
908.74746609952581
 20
924.63501859516668
 40
3.2327418848455149
 50
305.78704449259766
 51
357.83030058918888
  0
ARC
  8
_0-2_決定
  6
CONTINUOUS
 62
    7
 10
905.63045825468123
 20
928.20134657029462
 40
7.9608150049854833
 50
278.72382927774879
 51
308.9771185384111
  0
ARC
  8
_0-2_決定
  6
CONTINUOUS
 62
    7
 10
904.57400042408096
 20
931.87077316453667
 40
11.758142714452182
 50
270.01895511318594
 51
281.10093941342882
  0
ARC
  8
_0-2_決定
  6
CONTINUOUS
 62
    7
 10
904.45886297485174
 20
930.46329657159413
 40
10.35134983261208
 50
242.36730880159894
 51
270.65884326505778
  0
ARC
  8
_0-2_決定
  6
CONTINUOUS
 62
    7
 10
901.7567233311172
 20
925.19596666508141
 40
4.4318312720493882
 50
188.86973699183031
 51
241.7329731002003
  0
ARC
  8
_0-2_決定
  6
CONTINUOUS
 62
    7
 10
900.69286550255015
 20
924.40287823215556
 40
3.31679143842381
 50
126.9757831824499
 51
178.10376704297369
  0
ARC
  8
_0-2_決定
  6
CONTINUOUS
 62
    7
 10
903.54741204420384
 20
921.16973084161577
 40
7.624064034759753
 50
98.367908048283525
 51
129.50020064548602
  0
ARC
  8
_0-2_決定
  6
CONTINUOUS
 62
    7
 10
904.56602333094224
 20
917.49060630653935
 40
11.422028951682385
 50
89.940471975969842
 51
100.73800163149573
  0
ARC
  8
_0-2_決定
  6
CONTINUOUS
 62
    7
 10
904.66627344618416
 20
918.10391335619988
 40
10.809077086432611
 50
62.973829095391125
 51
90.468498299864052
  0
ARC
  8
_0-2_決定
  6
CONTINUOUS
 62
    7
 10
907.24774642748821
 20
923.2599272092358
 40
5.0432760080090624
 50
25.016564543300579
 51
62.48183382716374
  0
ARC
  8
_0-2_決定
  6
CONTINUOUS
 62
    7
 10
909.36235139439475
 20
924.49162200884507
 40
2.6156233251809882
 50
0.4601695592042116
 51
20.149523378347382
  0
ARC
  8
_0-2_決定
  6
CONTINUOUS
 62
    7
 10
804.43822728052078
 20
935.08431953079935
 40
26.669625954929437
 50
146.58148503546568
 51
156.51447435210432
  0
ARC
  8
_0-2_決定
  6
CONTINUOUS
 62
    7
 10
788.25376723251736
 20
946.05135765187924
 40
7.124894147045719
 50
129.95887430453325
 51
148.51391529357517
  0
ARC
  8
_0-2_決定
  6
CONTINUOUS
 62
    7
 10
784.19253671641002
 20
951.036373846787
 40
0.7011974568118639
 50
74.672166932667778
 51
137.21862486919636
  0
ARC
  8
_0-2_決定
  6
CONTINUOUS
 62
    7
 10
784.0154010907753
 20
951.25473293499169
 40
0.5840109694312092
 50
355.86571623318196
 51
51.633272752549402
  0
ARC
  8
_0-2_決定
  6
CONTINUOUS
 62
    7
 10
778.06672062813334
 20
951.04463551222523
 40
6.5333319246039583
 50
346.43838920790262
 51
1.4734264676178193
  0
ARC
  8
_0-2_決定
  6
CONTINUOUS
 62
    7
 10
760.96131562525386
 20
954.43742626259677
 40
23.967991557045281
 50
335.53826231554774
 51
348.14275675088135
  0
ARC
  8
_0-2_決定
  6
CONTINUOUS
 62
    7
 10
758.43511956323232
 20
954.5890391341768
 40
26.345865458392346
 50
327.75546727676459
 51
337.51345487654902
  0
ARC
  8
_0-2_決定
  6
CONTINUOUS
 62
    7
 10
773.10025194964055
 20
945.05183346570084
 40
8.857293806909059
 50
312.79673060554694
 51
329.32124484242297
  0
ARC
  8
_0-2_決定
  6
CONTINUOUS
 62
    7
 10
778.64726686634776
 20
938.88403645469475
 40
0.5756033308534886
 50
263.07760577406901
 51
324.84737217501458
  0
ARC
  8
_0-2_決定
  6
CONTINUOUS
 62
    7
 10
779.0586599503913
 20
938.95615603985129
 40
0.8032835155883321
 50
184.53592118656354
 51
233.2372423472371
  0
ARC
  8
_0-2_決定
  6
CONTINUOUS
 62
    7
 10
783.20857404414994
 20
939.47091422273388
 40
4.9843417646153867
 50
168.87516940616007
 51
186.66248137779826
  0
ARC
  8
_0-2_決定
  6
CONTINUOUS
 62
    7
 10
800.58597148947513
 20
936.33262694304244
 40
22.642379860383713
 50
155.52680391821642
 51
169.56753276238419
  0
ARC
  8
_0-2_決定
  6
CONTINUOUS
 62
    7
 10
901.3044329726481
 20
857.37599503817728
 40
7.6779755695003775
 50
273.53535005356741
 51
358.03429915241708
  0
ARC
  8
_0-2_決定
  6
CONTINUOUS
 62
    7
 10
902.0399918827701
 20
857.3747326161108
 40
7.6665831339895254
 50
181.9591828151317
 51
268.04081718486606
  0
ARC
  8
_0-2_決定
  6
CONTINUOUS
 62
    7
 10
901.74196715536732
 20
857.14855429836518
 40
7.3641644143669973
 50
89.720503770622997
 51
180.27949622937922
  0
ARC
  8
_0-2_決定
  6
CONTINUOUS
 62
    7
 10
901.6201431362706
 20
857.15644460539352
 40
7.357877671924097
 50
359.65882224979748
 51
88.771528544217944
  0
ARC
  8
_0-2_決定
  6
CONTINUOUS
 62
    7
 10
812.19004111040499
 20
882.93327619419438
 40
8.718794545442206
 50
315.96288467159002
 51
15.836878658385153
  0
ARC
  8
_0-2_決定
  6
CONTINUOUS
 62
    7
 10
810.1046773749456
 20
884.42443145050447
 40
11.260812103099209
 50
287.96486888962232
 51
317.88455394399108
  0
ARC
  8
_0-2_決定
  6
CONTINUOUS
 62
    7
 10
809.97347995230996
 20
884.54178333379389
 40
11.413252255549027
 50
237.7184721295115
 51
288.40968376336605
  0
ARC
  8
_0-2_決定
  6
CONTINUOUS
 62
    7
 10
808.5331824714649
 20
881.4375371989513
 40
8.0316574845279067
 50
199.83244777885653
 51
234.57634817992306
  0
ARC
  8
_0-2_決定
  6
CONTINUOUS
 62
    7
 10
809.36574360998634
 20
881.09198599287822
 40
8.7187945454424796
 50
135.96288467159047
 51
195.83687865838561
  0
ARC
  8
_0-2_決定
  6
CONTINUOUS
 62
    7
 10
811.45110734544483
 20
879.60083073656847
 40
11.260812103098912
 50
107.96486888961996
 51
137.88455394398872
  0
ARC
  8
_0-2_決定
  6
CONTINUOUS
 62
    7
 10
811.58230476808228
 20
879.48347885327848
 40
11.413252255549565
 50
57.718472129516826
 51
108.40968376337138
  0
ARC
  8
_0-2_決定
  6
CONTINUOUS
 62
    7
 10
813.02260224892507
 20
882.58772498812255
 40
8.0316574845284663
 50
19.832447778844951
 51
54.576348179911442
  0
ARC
  8
_0-2_決定
  6
CONTINUOUS
 62
    7
 10
772.86463944341449
 20
1088.6258800103176
 40
1.3181272497728438
 50
274.92890538575438
 51
355.07109461425239
  0
ARC
  8
_0-2_決定
  6
CONTINUOUS
 62
    7
 10
772.98215919708264
 20
1088.7342717365711
 40
1.4216510461314869
 50
188.96937422606265
 51
269.82803648391405
  0
ARC
  8
_0-2_決定
  6
CONTINUOUS
 62
    7
 10
773.0055642347952
 20
1088.4849552189371
 40
1.4279400247091676
 50
91.110397391097123
 51
178.88960260891452
  0
ARC
  8
_0-2_決定
  6
CONTINUOUS
 62
    7
 10
772.83729093029956
 20
1088.5778258679115
 40
1.3421859312401609
 50
357.21567241902176
 51
83.986916870983393
  0
ARC
  8
_0-2_決定
  6
CONTINUOUS
 62
    7
 10
847.15576618704881
 20
1045.1899683855888
 40
2.4233585942318756
 50
298.11858862324289
 51
358.17114661185008
  0
ARC
  8
_0-2_決定
  6
CONTINUOUS
 62
    7
 10
846.27890922103632
 20
1046.5475180102353
 40
4.0361532899961254
 50
268.56582284685283
 51
300.01482731678504
  0
ARC
  8
_0-2_決定
  6
CONTINUOUS
 62
    7
 10
846.16402237068792
 20
1046.4391479660685
 40
3.9265433624862727
 50
224.38489740095935
 51
270.2023609184223
  0
ARC
  8
_0-2_決定
  6
CONTINUOUS
 62
    7
 10
844.99142311876631
 20
1045.1882974033754
 40
2.2148257191886782
 50
181.95785998143759
 51
222.47732855760319
  0
ARC
  8
_0-2_決定
  6
CONTINUOUS
 62
    7
 10
845.39223634815039
 20
1045.0557135225167
 40
2.6149654542575114
 50
121.19291123552522
 51
178.75284029805402
  0
ARC
  8
_0-2_決定
  6
CONTINUOUS
 62
    7
 10
846.14503586683384
 20
1044.0228042803008
 40
3.8899635596491198
 50
89.516076138050352
 51
122.7986035911175
  0
ARC
  8
_0-2_決定
  6
CONTINUOUS
 62
    7
 10
846.2643597380395
 20
1044.1620379366075
 40
3.7515877944862575
 50
43.672230426482336
 51
91.320712573988061
  0
ARC
  8
_0-2_決定
  6
CONTINUOUS
 62
    7
 10
847.02079143961646
 20
1045.1068611957637
 40
2.5571054257249197
 50
0.1292385037965924
 51
40.061223880007702
  0
ARC
  8
_0-2_決定
  6
CONTINUOUS
 62
    7
 10
882.48567031866287
 20
1142.96213244256
 40
1.4930410014243449
 50
320.50922555769523
 51
358.09987297418877
  0
ARC
  8
_0-2_決定
  6
CONTINUOUS
 62
    7
 10
881.06865513983962
 20
1144.1641148066617
 40
3.351099669846568
 50
297.53604334131222
 51
320.05706085531699
  0
ARC
  8
_0-2_決定
  6
CONTINUOUS
 62
    7
 10
879.39982010424637
 20
1147.3023202973982
 40
6.9053839297710349
 50
282.18974044138673
 51
297.77647260240576
  0
ARC
  8
_0-2_決定
  6
CONTINUOUS
 62
    7
 10
878.64743663484887
 20
1150.6019374843236
 40
10.28954542252878
 50
269.61273912554634
 51
282.40527278945126
  0
ARC
  8
_0-2_決定
  6
CONTINUOUS
 62
    7
 10
878.44266798483523
 20
1149.5395407083142
 40
9.2279044178714482
 50
241.20566271877624
 51
270.83962169035749
  0
ARC
  8
_0-2_決定
  6
CONTINUOUS
 62
    7
 10
875.00979751373677
 20
1143.2458772966957
 40
2.0590537580445729
 50
189.3140775267893
 51
240.56454288256651
  0
ARC
  8
_0-2_決定
  6
CONTINUOUS
 62
    7
 10
874.33906142126432
 20
1142.8468941353478
 40
1.3627573075508943
 50
136.05362012351176
 51
177.23525015791904
  0
ARC
  8
_0-2_決定
  6
CONTINUOUS
 62
    7
 10
875.74768643948096
 20
1141.4985948718581
 40
3.312658922174994
 50
113.66751845194867
 51
136.17128557297431
  0
ARC
  8
_0-2_決定
  6
CONTINUOUS
 62
    7
 10
878.19036127625827
 20
1135.8961155412007
 40
9.4244824052130554
 50
87.643367369824873
 51
113.59594318247878
  0
ARC
  8
_0-2_決定
  6
CONTINUOUS
 62
    7
 10
878.82741197009545
 20
1136.1994961131118
 40
9.1165463471746992
 50
61.782545215645946
 51
91.568392260575848
  0
ARC
  8
_0-2_決定
  6
CONTINUOUS
 62
    7
 10
882.20752680546843
 20
1142.7133048314374
 40
1.7815488991534656
 50
6.4237839173750562
 51
58.518600664315521
  0
ARC
  8
_0-2_決定
  6
CONTINUOUS
 62
    7
 10
913.38756143097748
 20
1166.2467805938381
 40
2.991053805340341
 50
308.70477424178813
 51
1.261438802007717
  0
ARC
  8
_0-2_決定
  6
CONTINUOUS
 62
    7
 10
914.56225200070776
 20
1165.0217975157943
 40
1.3092638209323688
 50
270.68437948842148
 51
302.09470117968044
  0
ARC
  8
_0-2_決定
  6
CONTINUOUS
 62
    7
 10
914.62709018273677
 20
1165.1406266498886
 40
1.4288468621515038
 50
228.37045024313016
 51
268.02673078415069
  0
ARC
  8
_0-2_決定
  6
CONTINUOUS
 62
    7
 10
915.60592406283376
 20
1166.1480870633466
 40
2.8328162744506753
 50
176.67018354288766
 51
227.1089299969276
  0
ARC
  8
_0-2_決定
  6
CONTINUOUS
 62
    7
 10
915.38109589682358
 20
1166.4052729988109
 40
2.6048536100315771
 50
125.24533522097457
 51
182.03824856642311
  0
ARC
  8
_0-2_決定
  6
CONTINUOUS
 62
    7
 10
914.58463501246706
 20
1167.2352867791469
 40
1.4773557103333743
 50
90.261576443058146
 51
118.57996981194577
  0
ARC
  8
_0-2_決定
  6
CONTINUOUS
 62
    7
 10
914.49872086871756
 20
1166.9582148464679
 40
1.7561976372393189
 50
17.032404089250484
 51
87.416227298847488
  0
ARC
  8
_0-2_決定
  6
CONTINUOUS
 62
    7
 10
913.17330186226798
 20
1166.3573532145833
 40
3.2049006017276547
 50
359.20038045571835
 51
20.364433607901372
  0
ARC
  8
_0-2_決定
  6
CONTINUOUS
 62
    7
 10
949.97468482356771
 20
1144.4199811882618
 40
2.6048536100315776
 50
305.24533522098187
 51
2.0382485664304548
  0
ARC
  8
_0-2_決定
  6
CONTINUOUS
 62
    7
 10
950.77114570792446
 20
1143.589967407926
 40
1.4773557103333024
 50
270.2615764430472
 51
298.57996981193486
  0
ARC
  8
_0-2_決定
  6
CONTINUOUS
 62
    7
 10
950.85705985167374
 20
1143.8670393406051
 40
1.7561976372392434
 50
197.0324040892537
 51
267.41622729885069
  0
ARC
  8
_0-2_決定
  6
CONTINUOUS
 62
    7
 10
952.18247885812366
 20
1144.4679009724896
 40
3.2049006017280357
 50
179.20038045571721
 51
200.3644336079002
  0
ARC
  8
_0-2_決定
  6
CONTINUOUS
 62
    7
 10
951.96821928941404
 20
1144.5784735932348
 40
2.991053805340778
 50
128.70477424179205
 51
181.26143880201164
  0
ARC
  8
_0-2_決定
  6
CONTINUOUS
 62
    7
 10
950.79352871968263
 20
1145.8034566712788
 40
1.3092638209321468
 50
90.684379488388444
 51
122.0947011796474
  0
ARC
  8
_0-2_決定
  6
CONTINUOUS
 62
    7
 10
950.72869053765453
 20
1145.6846275371843
 40
1.4288468621515038
 50
48.370450243130151
 51
88.026730784150629
  0
ARC
  8
_0-2_決定
  6
CONTINUOUS
 62
    7
 10
949.7498566575573
 20
1144.6771671237266
 40
2.832816274450551
 50
356.67018354288138
 51
47.108929996921347
  0
ARC
  8
_0-2_決定
  6
CONTINUOUS
 62
    7
 10
917.84740780058178
 20
1101.2083355216575
 40
2.132631248020064
 50
293.50286621336426
 51
357.42781064384496
  0
ARC
  8
_0-2_決定
  6
CONTINUOUS
 62
    7
 10
916.49599231252864
 20
1103.4589298168471
 40
4.7477718576666286
 50
268.57460685358211
 51
297.6309730289438
  0
ARC
  8
_0-2_決定
  6
CONTINUOUS
 62
    7
 10
916.25729860398224
 20
1103.1833445717066
 40
4.4723435848872937
 50
228.91019488245212
 51
271.5451040524066
  0
ARC
  8
_0-2_決定
  6
CONTINUOUS
 62
    7
 10
914.7042910117043
 20
1101.1506704410863
 40
1.9267762626796958
 50
181.13135341496076
 51
223.98313985444909
  0
ARC
  8
_0-2_決定
  6
CONTINUOUS
 62
    7
 10
915.13189077616425
 20
1100.994586420587
 40
2.3569581156335349
 50
117.10819654691534
 51
177.12932412253116
  0
ARC
  8
_0-2_決定
  6
CONTINUOUS
 62
    7
 10
916.30253551741157
 20
1099.34395489234
 40
4.3693220473932479
 50
89.011808131728529
 51
120.91250237691698
  0
ARC
  8
_0-2_決定
  6
CONTINUOUS
 62
    7
 10
916.43404823715684
 20
1099.4491361222817
 40
4.2638608055510705
 50
46.707235056419258
 51
90.754645265125092
  0
ARC
  8
_0-2_決定
  6
CONTINUOUS
 62
    7
 10
917.79221490631016
 20
1101.025044606447
 40
2.1874295146955651
 50
2.2946790177019243
 51
44.294447490093269
  0
ARC
  8
_0-2_決定
  6
CONTINUOUS
 62
    7
 10
952.38636778621435
 20
1110.2963772710589
 40
7.3915404360935932
 50
311.64235955980951
 51
0.1259611584114713
  0
ARC
  8
_0-2_決定
  6
CONTINUOUS
 62
    7
 10
954.28196954631198
 20
1108.5287485808383
 40
4.8170766013203519
 50
271.14098685161235
 51
308.7621945379156
  0
ARC
  8
_0-2_決定
  6
CONTINUOUS
 62
    7
 10
954.50677757987
 20
1108.7894614081981
 40
5.0784701017059639
 50
207.39648595432129
 51
268.54572606504587
  0
ARC
  8
_0-2_決定
  6
CONTINUOUS
 62
    7
 10
956.4922556968952
 20
1110.2335215607472
 40
7.5147817066572351
 50
179.39685581663656
 51
210.20714035023451
  0
ARC
  8
_0-2_決定
  6
CONTINUOUS
 62
    7
 10
956.72188219075792
 20
1110.3725400308545
 40
7.7442235912888329
 50
132.82265611599968
 51
180.44327138162538
  0
ARC
  8
_0-2_決定
  6
CONTINUOUS
 62
    7
 10
954.45438920031029
 20
1112.3500076471832
 40
4.7632337821401451
 50
90.92022548562332
 51
128.98295590390106
  0
ARC
  8
_0-2_決定
  6
CONTINUOUS
 62
    7
 10
954.267897205238
 20
1112.1115776365982
 40
5.0022589062223197
 50
28.163981790605231
 51
88.740038923663377
  0
ARC
  8
_0-2_決定
  6
CONTINUOUS
 62
    7
 10
951.90915545386815
 20
1110.4573846904209
 40
7.8700663140735649
 50
358.94607405284006
 51
30.676598705011223
  0
ARC
  8
_0-2_決定
  6
CONTINUOUS
 62
    7
 10
871.37709387349787
 20
1124.8079490507976
 40
0.8064498054086376
 50
303.1333083602388
 51
353.21179848636604
  0
ARC
  8
_0-2_決定
  6
CONTINUOUS
 62
    7
 10
869.86264621416603
 20
1126.9706811172177
 40
3.4463793047073041
 50
282.99961589154572
 51
304.56444495491445
  0
ARC
  8
_0-2_決定
  6
CONTINUOUS
 62
    7
 10
868.14859602577576
 20
1133.7417035253886
 40
10.430473414264448
 50
269.06225245351618
 51
283.80722584856284
  0
ARC
  8
_0-2_決定
  6
CONTINUOUS
 62
    7
 10
867.8134775939958
 20
1134.1549228362348
 40
10.843542250105543
 50
255.16911754916455
 51
270.86876763717044
  0
ARC
  8
_0-2_決定
  6
CONTINUOUS
 62
    7
 10
865.60481498800095
 20
1126.4064763491476
 40
2.7920127660914544
 50
228.58540418930372
 51
258.28449345655042
  0
ARC
  8
_0-2_決定
  6
CONTINUOUS
 62
    7
 10
864.14170626049724
 20
1124.7258442486718
 40
0.5639707994416051
 50
181.34290028222685
 51
227.11259035366118
  0
ARC
  8
_0-2_決定
  6
CONTINUOUS
 62
    7
 10
864.4506618692983
 20
1124.5802051377711
 40
0.8827602627383718
 50
123.93255925293414
 51
171.37255374815663
  0
ARC
  8
_0-2_決定
  6
CONTINUOUS
 62
    7
 10
866.22718285654287
 20
1122.2040892677544
 40
3.8487265229285779
 50
105.51181976614019
 51
126.13016418226309
  0
ARC
  8
_0-2_決定
  6
CONTINUOUS
 62
    7
 10
867.90770796320487
 20
1116.9398947526142
 40
9.3729950978016348
 50
89.570981028189266
 51
106.80462299560554
  0
ARC
  8
_0-2_決定
  6
CONTINUOUS
 62
    7
 10
868.07406084358399
 20
1117.5768488911456
 40
8.7363075474275789
 50
73.482323763923361
 51
90.630732614912645
  0
ARC
  8
_0-2_決定
  6
CONTINUOUS
 62
    7
 10
869.75087024844981
 20
1122.7020286380391
 40
3.3492792925709187
 50
50.130628571783468
 51
76.057184516320334
  0
ARC
  8
_0-2_決定
  6
CONTINUOUS
 62
    7
 10
871.39569481253011
 20
1124.671529319703
 40
0.7832744741163784
 50
3.0076439878899497
 51
50.122458366312536
  0
ARC
  8
_0-2_決定
  6
CONTINUOUS
 62
    7
 10
878.78303667770729
 20
1026.3458680163162
 40
1.3952496627982633
 50
319.11564369057646
 51
358.63491801726536
  0
ARC
  8
_0-2_決定
  6
CONTINUOUS
 62
    7
 10
877.53545719107342
 20
1027.533280218543
 40
3.1167184100053804
 50
294.29715180378855
 51
317.62388258949193
  0
ARC
  8
_0-2_決定
  6
CONTINUOUS
 62
    7
 10
875.73741102046347
 20
1031.2134435733822
 40
7.2118218532546301
 50
280.06583245674273
 51
295.2863849405814
  0
ARC
  8
_0-2_決定
  6
CONTINUOUS
 62
    7
 10
874.81781250048493
 20
1035.8904933363356
 40
11.977930772725765
 50
269.80903426258851
 51
280.48673538567567
  0
ARC
  8
_0-2_決定
  6
CONTINUOUS
 62
    7
 10
874.54017496122901
 20
1033.5773386479298
 40
9.6676325634400921
 50
242.10998420360704
 51
271.40897596602292
  0
ARC
  8
_0-2_決定
  6
CONTINUOUS
 62
    7
 10
870.90795156700074
 20
1026.5323567605019
 40
1.7439587228261941
 50
187.23813950501693
 51
239.31163646464319
  0
ARC
  8
_0-2_決定
  6
CONTINUOUS
 62
    7
 10
870.63072906021921
 20
1026.2294305313046
 40
1.4552189831924045
 50
137.49642900480291
 51
176.72246768272092
  0
ARC
  8
_0-2_決定
  6
CONTINUOUS
 62
    7
 10
872.21706667825856
 20
1024.8702792189656
 40
3.5437016840374627
 50
116.82537731994704
 51
138.62461276423895
  0
ARC
  8
_0-2_決定
  6
CONTINUOUS
 62
    7
 10
874.45826807381331
 20
1020.1508435382552
 40
8.7676133880712364
 50
87.910826371022281
 51
115.97752800587642
  0
ARC
  8
_0-2_決定
  6
CONTINUOUS
 62
    7
 10
874.94216013161122
 20
1020.3361008348389
 40
8.5781012776742855
 50
60.102681934536243
 51
91.097275451883334
  0
ARC
  8
_0-2_決定
  6
CONTINUOUS
 62
    7
 10
878.1432842089182
 20
1026.020422309135
 40
2.0554821808195061
 50
8.172839636341747
 51
58.479739737890405
  0
ARC
  8
_0-2_決定
  6
CONTINUOUS
 62
    7
 10
909.97468482356771
 20
1049.6199831882618
 40
2.6048536100314439
 50
305.24533522098045
 51
2.0382485664289987
  0
ARC
  8
_0-2_決定
  6
CONTINUOUS
 62
    7
 10
910.77114570792423
 20
1048.789969407926
 40
1.4773557103333743
 50
270.26157644305812
 51
298.57996981194572
  0
ARC
  8
_0-2_決定
  6
CONTINUOUS
 62
    7
 10
910.85705985167374
 20
1049.0670413406051
 40
1.7561976372393189
 50
197.03240408925049
 51
267.4162272988475
  0
ARC
  8
_0-2_決定
  6
CONTINUOUS
 62
    7
 10
912.18247885812332
 20
1049.6679029724896
 40
3.2049006017276547
 50
179.20038045571837
 51
200.36443360790139
  0
ARC
  8
_0-2_決定
  6
CONTINUOUS
 62
    7
 10
911.96821928941381
 20
1049.7784755932346
 40
2.991053805340341
 50
128.70477424178813
 51
181.26143880200775
  0
ARC
  8
_0-2_決定
  6
CONTINUOUS
 62
    7
 10
910.79352871968354
 20
1051.0034586712786
 40
1.3092638209323688
 50
90.684379488421513
 51
122.09470117968047
  0
ARC
  8
_0-2_決定
  6
CONTINUOUS
 62
    7
 10
910.72869053765453
 20
1050.8846295371841
 40
1.4288468621515038
 50
48.370450243130151
 51
88.026730784150629
  0
ARC
  8
_0-2_決定
  6
CONTINUOUS
 62
    7
 10
909.7498566575573
 20
1049.8771691237266
 40
2.832816274450551
 50
356.67018354288138
 51
47.108929996921347
  0
ARC
  8
_0-2_決定
  6
CONTINUOUS
 62
    7
 10
945.78756143097758
 20
1028.0467825938379
 40
2.9910538053402052
 50
308.7047742417937
 51
1.261438802013289
  0
ARC
  8
_0-2_決定
  6
CONTINUOUS
 62
    7
 10
946.96225200070785
 20
1026.8217995157943
 40
1.3092638209323688
 50
270.68437948842148
 51
302.09470117968044
  0
ARC
  8
_0-2_決定
  6
CONTINUOUS
 62
    7
 10
947.02709018273686
 20
1026.9406286498886
 40
1.4288468621515038
 50
228.37045024313016
 51
268.02673078415069
  0
ARC
  8
_0-2_決定
  6
CONTINUOUS
 62
    7
 10
948.00592406283386
 20
1027.9480890633465
 40
2.8328162744506753
 50
176.67018354288766
 51
227.1089299969276
  0
ARC
  8
_0-2_決定
  6
CONTINUOUS
 62
    7
 10
947.78109589682344
 20
1028.2052749988111
 40
2.6048536100314439
 50
125.24533522098045
 51
182.03824856642899
  0
ARC
  8
_0-2_決定
  6
CONTINUOUS
 62
    7
 10
946.98463501246692
 20
1029.0352887791462
 40
1.4773557103339374
 50
90.261576443052519
 51
118.57996981194015
  0
ARC
  8
_0-2_決定
  6
CONTINUOUS
 62
    7
 10
946.89872086871765
 20
1028.7582168464678
 40
1.7561976372393189
 50
17.032404089250484
 51
87.416227298847488
  0
ARC
  8
_0-2_決定
  6
CONTINUOUS
 62
    7
 10
945.57330186226807
 20
1028.1573552145842
 40
3.2049006017275228
 50
359.2003804557047
 51
20.364433607887737
  0
ARC
  8
_0-2_決定
  6
CONTINUOUS
 62
    7
 10
913.82388994422718
 20
984.83066976648593
 40
2.3569581156333808
 50
297.10819654692114
 51
357.12932412253696
  0
ARC
  8
_0-2_決定
  6
CONTINUOUS
 62
    7
 10
912.65324520297872
 20
986.48130129473338
 40
4.3693220473940144
 50
269.01180813173988
 51
300.91250237692833
  0
ARC
  8
_0-2_決定
  6
CONTINUOUS
 62
    7
 10
912.52173248323493
 20
986.37612006479139
 40
4.2638608055516993
 50
226.70723505641163
 51
270.75464526511746
  0
ARC
  8
_0-2_決定
  6
CONTINUOUS
 62
    7
 10
911.1635658140807
 20
984.80021158062584
 40
2.1874295146954088
 50
182.2946790176924
 51
224.29444749008374
  0
ARC
  8
_0-2_決定
  6
CONTINUOUS
 62
    7
 10
911.1083729198092
 20
984.61692066541536
 40
2.1326312480199947
 50
113.50286621335425
 51
177.42781064383493
  0
ARC
  8
_0-2_決定
  6
CONTINUOUS
 62
    7
 10
912.45978840786222
 20
982.36632637022603
 40
4.7477718576659491
 50
88.574606853577023
 51
117.63097302893871
  0
ARC
  8
_0-2_決定
  6
CONTINUOUS
 62
    7
 10
912.6984821164092
 20
982.64191161536587
 40
4.4723435848875956
 50
48.910194882456175
 51
91.545104052410679
  0
ARC
  8
_0-2_決定
  6
CONTINUOUS
 62
    7
 10
914.25148970868747
 20
984.67458574598709
 40
1.9267762626790077
 50
1.131353414956715
 51
43.983139854445064
  0
ARC
  8
_0-2_決定
  6
CONTINUOUS
 62
    7
 10
948.23389852963396
 20
993.85271615621855
 40
7.7442235912883453
 50
312.82265611599809
 51
0.4432713816238226
  0
ARC
  8
_0-2_決定
  6
CONTINUOUS
 62
    7
 10
950.50139152008023
 20
991.87524853988975
 40
4.7632337821404427
 50
270.92022548563318
 51
308.98295590391092
  0
ARC
  8
_0-2_決定
  6
CONTINUOUS
 62
    7
 10
950.68788351515332
 20
992.11367855047479
 40
5.0022589062227807
 50
208.16398179060278
 51
268.74003892366096
  0
ARC
  8
_0-2_決定
  6
CONTINUOUS
 62
    7
 10
953.0466252665226
 20
993.76787149665176
 40
7.870066314072929
 50
178.94607405283736
 51
210.67659870500856
  0
ARC
  8
_0-2_決定
  6
CONTINUOUS
 62
    7
 10
952.56941293417697
 20
993.92887891601413
 40
7.3915404360935932
 50
131.64235955980948
 51
180.12596115841149
  0
ARC
  8
_0-2_決定
  6
CONTINUOUS
 62
    7
 10
950.67381117407933
 20
995.6965076062346
 40
4.8170766013203519
 50
91.140986851612354
 51
128.76219453791558
  0
ARC
  8
_0-2_決定
  6
CONTINUOUS
 62
    7
 10
950.44900314052165
 20
995.43579477887511
 40
5.0784701017058147
 50
27.396485954323978
 51
88.545726065048527
  0
ARC
  8
_0-2_決定
  6
CONTINUOUS
 62
    7
 10
948.46352502349555
 20
993.99173462632552
 40
7.5147817066577538
 50
359.39685581663554
 51
30.207140350233463
  0
ARC
  8
_0-2_決定
  6
CONTINUOUS
 62
    7
 10
867.40773302557363
 20
1008.368995722771
 40
0.9717934198238213
 50
308.89295229984555
 51
356.6748245855153
  0
ARC
  8
_0-2_決定
  6
CONTINUOUS
 62
    7
 10
866.14944957584612
 20
1009.9224234913661
 40
2.9708956772101756
 50
284.99034469319258
 51
308.97011674324546
  0
ARC
  8
_0-2_決定
  6
CONTINUOUS
 62
    7
 10
864.41277485128012
 20
1016.0303246653876
 40
9.320655636479934
 50
268.55596908891454
 51
285.59110626100477
  0
ARC
  8
_0-2_決定
  6
CONTINUOUS
 62
    7
 10
863.94300586911129
 20
1016.0303246653876
 40
9.320655636479934
 50
254.40889373899523
 51
271.44403091108546
  0
ARC
  8
_0-2_決定
  6
CONTINUOUS
 62
    7
 10
862.05459576833073
 20
1009.6539517337891
 40
2.6734257122863623
 50
227.19212602774738
 51
256.66290010053268
  0
ARC
  8
_0-2_決定
  6
CONTINUOUS
 62
    7
 10
860.87544967531221
 20
1008.3245088063277
 40
0.8976379290832106
 50
180.75829825564162
 51
224.743654429961
  0
ARC
  8
_0-2_決定
  6
CONTINUOUS
 62
    7
 10
860.77868684689315
 20
1008.2173071362757
 40
0.8064498054084605
 50
123.13330836025912
 51
173.21179848638633
  0
ARC
  8
_0-2_決定
  6
CONTINUOUS
 62
    7
 10
862.29313450622476
 20
1006.0545750698545
 40
3.4463793047078459
 50
102.99961589153486
 51
124.56444495490358
  0
ARC
  8
_0-2_決定
  6
CONTINUOUS
 62
    7
 10
864.00718469461594
 20
999.28355266168433
 40
10.43047341426451
 50
89.062252453519221
 51
103.80722584856586
  0
ARC
  8
_0-2_決定
  6
CONTINUOUS
 62
    7
 10
864.38463234046344
 20
999.81452371455339
 40
9.9002642560622984
 50
74.454787101869229
 51
91.196564425165704
  0
ARC
  8
_0-2_決定
  6
CONTINUOUS
 62
    7
 10
866.47147559610266
 20
1006.8977240510407
 40
2.5194016060674338
 50
46.744890546034867
 51
77.007638687372435
  0
ARC
  8
_0-2_決定
  6
CONTINUOUS
 62
    7
 10
867.76573216997917
 20
1008.2988470120148
 40
0.612313314913651
 50
1.2897348071659318
 51
45.107446220195953
  0
ARC
  8
_0-2_決定
  6
CONTINUOUS
 62
    7
 10
724.19472630771963
 20
1126.6957931460126
 40
4.5868247042316392
 50
272.28860565918086
 51
357.71139434081914
  0
ARC
  8
_0-2_決定
  6
CONTINUOUS
 62
    7
 10
724.56105841267174
 20
1126.6957931460126
 40
4.5868247042316392
 50
182.28860565918086
 51
267.7113943408192
  0
ARC
  8
_0-2_決定
  6
CONTINUOUS
 62
    7
 10
724.56105841267208
 20
1126.3294610410605
 40
4.5868247042317138
 50
92.288605659181769
 51
177.71139434082008
  0
ARC
  8
_0-2_決定
  6
CONTINUOUS
 62
    7
 10
724.19472630771929
 20
1126.3294610410605
 40
4.5868247042317138
 50
2.2886056591799222
 51
87.711394340818231
  0
ARC
  8
_0-2_決定
  6
CONTINUOUS
 62
    7
 10
713.24829829597434
 20
976.99149858311193
 40
0.932933824352567
 50
307.62860890913754
 51
355.15047175891124
  0
ARC
  8
_0-2_決定
  6
CONTINUOUS
 62
    7
 10
712.06539698720576
 20
978.45761983951638
 40
2.8165979873255016
 50
284.6529230256665
 51
308.47717932848946
  0
ARC
  8
_0-2_決定
  6
CONTINUOUS
 62
    7
 10
711.19000455897867
 20
981.35272219329181
 40
5.8401056599318837
 50
269.88117023752602
 51
285.77698278260743
  0
ARC
  8
_0-2_決定
  6
CONTINUOUS
 62
    7
 10
711.09421523886772
 20
980.78331175282528
 40
5.2713468445512914
 50
248.68250374356316
 51
270.90954881297438
  0
ARC
  8
_0-2_決定
  6
CONTINUOUS
 62
    7
 10
709.59701342906783
 20
977.27639935206753
 40
1.4650028700001692
 50
194.37734331524794
 51
253.37605125660622
  0
ARC
  8
_0-2_決定
  6
CONTINUOUS
 62
    7
 10
709.2565281589907
 20
976.80362686639512
 40
1.0841294535081067
 50
130.12227875526011
 51
174.22952847627565
  0
ARC
  8
_0-2_決定
  6
CONTINUOUS
 62
    7
 10
710.56618345213337
 20
975.38496073983742
 40
3.014174205015129
 50
107.93725269248824
 51
131.78077963732977
  0
ARC
  8
_0-2_決定
  6
CONTINUOUS
 62
    7
 10
711.19454520334557
 20
973.72322379179968
 40
4.7894342527577987
 50
90.199217590543256
 51
108.96667185650934
  0
ARC
  8
_0-2_決定
  6
CONTINUOUS
 62
    7
 10
711.27862438155012
 20
974.55398492707241
 40
3.9599255771800319
 50
46.63080744987343
 51
91.457639088868419
  0
ARC
  8
_0-2_決定
  6
CONTINUOUS
 62
    7
 10
713.32629135057437
 20
976.90899797482166
 40
0.8516087509010582
 50
0.2443004577556297
 51
37.942683543202676
  0
ARC
  8
_0-2_決定
  6
CONTINUOUS
 62
    7
 10
734.24829829597456
 20
1003.5914985831121
 40
0.932933824352736
 50
307.62860890911855
 51
355.15047175889225
  0
ARC
  8
_0-2_決定
  6
CONTINUOUS
 62
    7
 10
733.06539698720576
 20
1005.0576198395163
 40
2.8165979873255016
 50
284.6529230256665
 51
308.47717932848946
  0
ARC
  8
_0-2_決定
  6
CONTINUOUS
 62
    7
 10
732.19000455897776
 20
1007.9527221932915
 40
5.8401056599320249
 50
269.88117023753603
 51
285.77698278261738
  0
ARC
  8
_0-2_決定
  6
CONTINUOUS
 62
    7
 10
732.0942152388684
 20
1007.3833117528244
 40
5.2713468445506972
 50
248.68250374355389
 51
270.90954881296511
  0
ARC
  8
_0-2_決定
  6
CONTINUOUS
 62
    7
 10
730.59701342906783
 20
1003.8763993520678
 40
1.4650028700003692
 50
194.3773433152561
 51
253.37605125661437
  0
ARC
  8
_0-2_決定
  6
CONTINUOUS
 62
    7
 10
730.2565281589907
 20
1003.4036268663948
 40
1.0841294535082833
 50
130.12227875524243
 51
174.22952847625797
  0
ARC
  8
_0-2_決定
  6
CONTINUOUS
 62
    7
 10
731.56618345213337
 20
1001.9849607398379
 40
3.0141742050145326
 50
107.93725269249475
 51
131.78077963733628
  0
ARC
  8
_0-2_決定
  6
CONTINUOUS
 62
    7
 10
732.19454520334557
 20
1000.3232237917996
 40
4.7894342527577987
 50
90.199217590543256
 51
108.96667185650934
  0
ARC
  8
_0-2_決定
  6
CONTINUOUS
 62
    7
 10
732.27862438154966
 20
1001.1539849270724
 40
3.9599255771801651
 50
46.630807449868392
 51
91.457639088863374
  0
ARC
  8
_0-2_決定
  6
CONTINUOUS
 62
    7
 10
734.32629135057482
 20
1003.508997974821
 40
0.8516087509007862
 50
0.2443004577932747
 51
37.942683543240321
  0
ARC
  8
_0-2_決定
  6
CONTINUOUS
 62
    7
 10
744.33559661749746
 20
1167.3482143273372
 40
10.843542250105605
 50
345.1691175491618
 51
0.8687676371676825
  0
ARC
  8
_0-2_決定
  6
CONTINUOUS
 62
    7
 10
752.08404310458377
 20
1165.1395517213418
 40
2.7920127660920739
 50
318.58540418930374
 51
348.28449345655048
  0
ARC
  8
_0-2_決定
  6
CONTINUOUS
 62
    7
 10
753.76467520506026
 20
1163.6764429938378
 40
0.5639707994411967
 50
271.34290028222517
 51
317.11259035365947
  0
ARC
  8
_0-2_決定
  6
CONTINUOUS
 62
    7
 10
753.9103143159607
 20
1163.9853986026392
 40
0.8827602627385211
 50
213.93255925294028
 51
261.37255374816277
  0
ARC
  8
_0-2_決定
  6
CONTINUOUS
 62
    7
 10
756.28643018597722
 20
1165.7619195898828
 40
3.8487265229278749
 50
195.51181976613213
 51
216.13016418225502
  0
ARC
  8
_0-2_決定
  6
CONTINUOUS
 62
    7
 10
761.55062470111886
 20
1167.4424446965465
 40
9.3729950978027095
 50
179.57098102819418
 51
196.80462299561043
  0
ARC
  8
_0-2_決定
  6
CONTINUOUS
 62
    7
 10
761.7202950614211
 20
1167.5755349986339
 40
9.5426100578865363
 50
164.20731390938926
 51
180.37771464467889
  0
ARC
  8
_0-2_決定
  6
CONTINUOUS
 62
    7
 10
756.23942902568217
 20
1169.3052347792791
 40
3.8018078742584294
 50
142.63288690481488
 51
166.81166862409154
  0
ARC
  8
_0-2_決定
  6
CONTINUOUS
 62
    7
 10
753.82180012537538
 20
1171.1579992652014
 40
0.7559041282736322
 50
93.32998112185129
 51
143.02719909810418
  0
ARC
  8
_0-2_決定
  6
CONTINUOUS
 62
    7
 10
753.66956292736916
 20
1171.1146505908016
 40
0.8052960728415714
 50
31.267514771224192
 51
82.269063092821156
  0
ARC
  8
_0-2_決定
  6
CONTINUOUS
 62
    7
 10
751.17926891644174
 20
1169.5301176404107
 40
3.7568192805940153
 50
11.710501188582692
 51
32.210626851589097
  0
ARC
  8
_0-2_決定
  6
CONTINUOUS
 62
    7
 10
743.84276817049249
 20
1167.6162818630664
 40
11.335598118636899
 50
359.47606967650773
 51
13.656527564990263
  0
ARC
  8
_0-2_決定
  6
CONTINUOUS
 62
    7
 10
781.48442973095143
 20
1121.8694320152554
 40
9.2823468478554148
 50
60.054943106213869
 51
76.965859296593308
  0
ARC
  8
_0-2_決定
  6
CONTINUOUS
 62
    7
 10
784.57638415413976
 20
1127.0055077386337
 40
3.2905304273002955
 50
35.420873522757596
 51
62.065103068599811
  0
ARC
  8
_0-2_決定
  6
CONTINUOUS
 62
    7
 10
786.62701144633218
 20
1128.4744509107634
 40
0.7681204948618292
 50
347.83808566807591
 51
34.781779280006283
  0
ARC
  8
_0-2_決定
  6
CONTINUOUS
 62
    7
 10
786.67404627569795
 20
1128.5666403990992
 40
0.7482794064159286
 50
287.40642090512529
 51
340.15582862461798
  0
ARC
  8
_0-2_決定
  6
CONTINUOUS
 62
    7
 10
785.82904673996018
 20
1131.2033920554263
 40
3.517109152375796
 50
266.55810103554677
 51
287.69193166223488
  0
ARC
  8
_0-2_決定
  6
CONTINUOUS
 62
    7
 10
786.04003027899148
 20
1140.3589882587257
 40
12.673393609822941
 50
255.08412694513311
 51
268.09118247401216
  0
ARC
  8
_0-2_決定
  6
CONTINUOUS
 62
    7
 10
784.87135498943985
 20
1137.1558221718178
 40
9.2823468478554148
 50
240.05494310621387
 51
256.96585929659329
  0
ARC
  8
_0-2_決定
  6
CONTINUOUS
 62
    7
 10
781.77940056625118
 20
1132.0197464484399
 40
3.2905304273007601
 50
215.42087352276471
 51
242.0651030686069
  0
ARC
  8
_0-2_決定
  6
CONTINUOUS
 62
    7
 10
779.72877327405877
 20
1130.5508032763089
 40
0.7681204948611646
 50
167.83808566803157
 51
214.78177927996194
  0
ARC
  8
_0-2_決定
  6
CONTINUOUS
 62
    7
 10
779.68173844469356
 20
1130.4586137879733
 40
0.7482794064159286
 50
107.40642090512529
 51
160.15582862461798
  0
ARC
  8
_0-2_決定
  6
CONTINUOUS
 62
    7
 10
780.52673798043111
 20
1127.8218621316475
 40
3.5171091523750269
 50
86.558101035548376
 51
107.69193166223643
  0
ARC
  8
_0-2_決定
  6
CONTINUOUS
 62
    7
 10
780.31575444140174
 20
1118.666265928347
 40
12.673393609822661
 50
75.084126945141477
 51
88.091182474020556
  0
ARC
  8
_0-2_決定
  6
CONTINUOUS
 62
    7
 10
752.63680343953092
 20
1053.0711507485607
 40
5.5412441635261889
 50
321.90820888015719
 51
0.4288849637301069
  0
ARC
  8
_0-2_決定
  6
CONTINUOUS
 62
    7
 10
754.99254554669528
 20
1051.3034069664841
 40
2.5973993586332522
 50
274.09202513363493
 51
320.53919081324972
  0
ARC
  8
_0-2_決定
  6
CONTINUOUS
 62
    7
 10
755.2342667675839
 20
1050.9097917270083
 40
2.1978857367324816
 50
235.76912582821552
 51
268.53023756739788
  0
ARC
  8
_0-2_決定
  6
CONTINUOUS
 62
    7
 10
756.28353894473094
 20
1052.3612256248152
 40
3.9884713354475587
 50
191.6968491120181
 51
235.03588289009178
  0
ARC
  8
_0-2_決定
  6
CONTINUOUS
 62
    7
 10
758.23488875651401
 20
1053.096346580244
 40
6.0570182817334439
 50
179.84597695240032
 51
194.76554211422953
  0
ARC
  8
_0-2_決定
  6
CONTINUOUS
 62
    7
 10
757.68115232494119
 20
1053.2255703553551
 40
5.5044187675168672
 50
141.75919300249052
 51
181.17569393741019
  0
ARC
  8
_0-2_決定
  6
CONTINUOUS
 62
    7
 10
755.30584652238701
 20
1054.9259452883618
 40
2.5898445955007414
 50
92.831914820229287
 51
138.77704791607275
  0
ARC
  8
_0-2_決定
  6
CONTINUOUS
 62
    7
 10
755.07766130120467
 20
1054.9016257785945
 40
2.6129244405102865
 50
30.115047665363903
 51
87.801610373350556
  0
ARC
  8
_0-2_決定
  6
CONTINUOUS
 62
    7
 10
752.86304377163731
 20
1053.3362830243789
 40
5.3195522931992869
 50
357.59036025911098
 51
32.732124897161924
  0
ARC
  8
_0-2_決定
  6
CONTINUOUS
 62
    7
 10
764.19593251787228
 20
1069.0874411702789
 40
26.182928214488616
 50
342.72596831443605
 51
0.492777659059411
  0
ARC
  8
_0-2_決定
  6
CONTINUOUS
 62
    7
 10
779.33500437789974
 20
1064.5887319272563
 40
10.392758162915159
 50
327.68232224685318
 51
341.62532586924516
  0
ARC
  8
_0-2_決定
  6
CONTINUOUS
 62
    7
 10
784.58796217222925
 20
1061.2205281162164
 40
4.1529890460919638
 50
305.81033211763292
 51
328.2087755084205
  0
ARC
  8
_0-2_決定
  6
CONTINUOUS
 62
    7
 10
785.94041612746673
 20
1059.3878485112969
 40
1.8755958609589882
 50
271.14490168923675
 51
305.06262437974499
  0
ARC
  8
_0-2_決定
  6
CONTINUOUS
 62
    7
 10
786.02619937180066
 20
1059.4209779525654
 40
1.9089621705327844
 50
235.24252014541847
 51
268.54995378559988
  0
ARC
  8
_0-2_決定
  6
CONTINUOUS
 62
    7
 10
787.24601949176872
 20
1061.0727493354332
 40
3.9618982960523907
 50
213.38568470582624
 51
234.36770986601289
  0
ARC
  8
_0-2_決定
  6
CONTINUOUS
 62
    7
 10
791.61018939812607
 20
1064.0187995399801
 40
9.2272306673733073
 50
200.33255817751493
 51
213.74848964153813
  0
ARC
  8
_0-2_決定
  6
CONTINUOUS
 62
    7
 10
799.88196852432168
 20
1067.2620188667781
 40
18.111295046293559
 50
191.23727042957017
 51
200.86073915549724
  0
ARC
  8
_0-2_決定
  6
CONTINUOUS
 62
    7
 10
809.33883006696783
 20
1069.1830404199982
 40
27.761240157191086
 50
179.73254809956282
 51
191.32253220375009
  0
ARC
  8
_0-2_決定
  6
CONTINUOUS
 62
    7
 10
807.7598522025196
 20
1069.5378130167937
 40
26.182928214489078
 50
162.72596831443622
 51
180.49277765905956
  0
ARC
  8
_0-2_決定
  6
CONTINUOUS
 62
    7
 10
792.62078034249328
 20
1074.0365222598166
 40
10.392758162916749
 50
147.68232224685732
 51
161.62532586924931
  0
ARC
  8
_0-2_決定
  6
CONTINUOUS
 62
    7
 10
787.36782254816092
 20
1077.4047260708564
 40
4.1529890460911609
 50
125.81033211762261
 51
148.20877550841018
  0
ARC
  8
_0-2_決定
  6
CONTINUOUS
 62
    7
 10
786.01536859292537
 20
1079.237405675776
 40
1.8755958609592152
 50
91.144901689257949
 51
125.06262437976619
  0
ARC
  8
_0-2_決定
  6
CONTINUOUS
 62
    7
 10
785.92958534858985
 20
1079.2042762345077
 40
1.9089621705330155
 50
55.242520145397215
 51
88.549953785578637
  0
ARC
  8
_0-2_決定
  6
CONTINUOUS
 62
    7
 10
784.70976522862372
 20
1077.5525048516397
 40
3.9618982960515465
 50
33.385684705837974
 51
54.367709866024619
  0
ARC
  8
_0-2_決定
  6
CONTINUOUS
 62
    7
 10
780.34559532226353
 20
1074.6064546470927
 40
9.2272306673749309
 50
20.332558177509778
 51
33.748489641532977
  0
ARC
  8
_0-2_決定
  6
CONTINUOUS
 62
    7
 10
772.07381619607213
 20
1071.3632353202947
 40
18.111295046291122
 50
11.237270429572389
 51
20.860739155499441
  0
ARC
  8
_0-2_決定
  6
CONTINUOUS
 62
    7
 10
762.61695465342086
 20
1069.4422137670745
 40
27.761240157193882
 50
359.73254809956222
 51
11.322532203749523
  0
ARC
  8
_0-2_決定
  6
CONTINUOUS
 62
    7
 10
778.2248145561482
 20
974.16865219011811
 40
3.3535457872743564
 50
308.18297755299506
 51
359.04279335566639
  0
ARC
  8
_0-2_決定
  6
CONTINUOUS
 62
    7
 10
776.30397362256167
 20
976.23909516422941
 40
6.1726987418316348
 50
293.8299834651196
 51
310.31801828546327
  0
ARC
  8
_0-2_決定
  6
CONTINUOUS
 62
    7
 10
774.52427509728182
 20
980.46161972383652
 40
10.754570217857498
 50
268.15430078611485
 51
293.41429494900257
  0
ARC
  8
_0-2_決定
  6
CONTINUOUS
 62
    7
 10
774.00675099224429
 20
980.33504223381215
 40
10.623791709673098
 50
242.7226884536687
 51
270.9230322383973
  0
ARC
  8
_0-2_決定
  6
CONTINUOUS
 62
    7
 10
771.17624772847057
 20
974.59444511697575
 40
4.2259122658623403
 50
186.546796420324
 51
241.1612105810585
  0
ARC
  8
_0-2_決定
  6
CONTINUOUS
 62
    7
 10
770.29286750255039
 20
974.00287823215558
 40
3.3167914384241022
 50
126.97578318245253
 51
178.10376704297633
  0
ARC
  8
_0-2_決定
  6
CONTINUOUS
 62
    7
 10
773.14741404420283
 20
970.7697308416158
 40
7.6240640347593231
 50
98.367908048276249
 51
129.50020064547874
  0
ARC
  8
_0-2_決定
  6
CONTINUOUS
 62
    7
 10
774.16602533094215
 20
967.09060630653903
 40
11.422028951682385
 50
89.940471975969842
 51
100.73800163149573
  0
ARC
  8
_0-2_決定
  6
CONTINUOUS
 62
    7
 10
774.32299041271881
 20
967.61237325185277
 40
10.901221530590163
 50
63.083432130272435
 51
90.762644029896293
  0
ARC
  8
_0-2_決定
  6
CONTINUOUS
 62
    7
 10
777.21053860776806
 20
973.41174067563884
 40
4.4232367530108094
 50
9.1172884917981527
 51
62.427977119617751
  0
ARC
  8
_0-2_決定
  6
CONTINUOUS
 62
    7
 10
771.30327606190212
 20
906.58724739182981
 40
7.2749989607813106
 50
270.58766660418212
 51
359.41233339582237
  0
ARC
  8
_0-2_決定
  6
CONTINUOUS
 62
    7
 10
771.58301210662103
 20
906.9262263884732
 40
7.6163578845442252
 50
183.11289561014524
 51
268.45675359583709
  0
ARC
  8
_0-2_決定
  6
CONTINUOUS
 62
    7
 10
771.59900617009703
 20
906.29151728363559
 40
7.6243207579689534
 50
91.661874554674469
 51
178.33812544532555
  0
ARC
  8
_0-2_決定
  6
CONTINUOUS
 62
    7
 10
771.26818069433034
 20
906.60318190512726
 40
7.3102725043302872
 50
359.29027105154728
 51
89.140079742465915
  0
ARC
  8
_0-2_決定
  6
CONTINUOUS
 62
    7
 10
716.3377742623311
 20
1094.8141326981913
 40
2.841931420283287
 50
276.87354844119227
 51
357.95312442450569
  0
ARC
  8
_0-2_決定
  6
CONTINUOUS
 62
    7
 10
715.81146229942021
 20
1096.6374652772706
 40
4.7249574393098772
 50
269.59292077379075
 51
280.56629494621444
  0
ARC
  8
_0-2_決定
  6
CONTINUOUS
 62
    7
 10
715.78233469562917
 20
1095.3823070722774
 40
3.4696828225672127
 50
191.12843776971238
 51
269.9266425336013
  0
ARC
  8
_0-2_決定
  6
CONTINUOUS
 62
    7
 10
714.78703401207349
 20
1094.5905062284667
 40
2.4122348568284044
 50
117.37409736399924
 51
177.0981256548348
  0
ARC
  8
_0-2_決定
  6
CONTINUOUS
 62
    7
 10
715.76013765465723
 20
1093.2851872342792
 40
4.027478994296855
 50
89.747416934951076
 51
121.13187413568664
  0
ARC
  8
_0-2_決定
  6
CONTINUOUS
 62
    7
 10
715.85464463770393
 20
1093.4445932536883
 40
3.8687952515366044
 50
44.8406791884371
 51
91.136754415729143
  0
ARC
  8
_0-2_決定
  6
CONTINUOUS
 62
    7
 10
716.90644056353506
 20
1094.6554750099315
 40
2.2721706857569641
 50
1.4413171471418458
 51
41.890600299433444
  0
ARC
  8
_0-2_決定
  6
CONTINUOUS
 62
    7
 10
867.40383452349329
 20
822.86444887452717
 40
5.728171384723125
 50
321.67938402193118
 51
37.011055173531794
  0
ARC
  8
_0-2_決定
  6
CONTINUOUS
 62
    7
 10
861.6083299063132
 20
826.56742521618867
 40
12.589959971984628
 50
300.07664908794641
 51
324.81373082035691
  0
ARC
  8
_0-2_決定
  6
CONTINUOUS
 62
    7
 10
856.00616139415911
 20
835.1461301303616
 40
22.827756168698123
 50
277.48002348488967
 51
301.45367507080061
  0
ARC
  8
_0-2_決定
  6
CONTINUOUS
 62
    7
 10
849.22761594888493
 20
834.51310615745172
 40
24.064263008324517
 50
267.45219851114655
 51
293.90218944403381
  0
ARC
  8
_0-2_決定
  6
CONTINUOUS
 62
    7
 10
849.01523225775009
 20
822.59528975411286
 40
12.152937428051832
 50
241.72260688848525
 51
265.95464809807532
  0
ARC
  8
_0-2_決定
  6
CONTINUOUS
 62
    7
 10
846.03708629464791
 20
816.61746732042025
 40
5.4816062803659138
 50
174.81730010468959
 51
239.53553162467196
  0
ARC
  8
_0-2_決定
  6
CONTINUOUS
 62
    7
 10
844.96919771957346
 20
820.60415792329673
 40
5.6101996334766877
 50
142.84420314905509
 51
218.4881967913081
  0
ARC
  8
_0-2_決定
  6
CONTINUOUS
 62
    7
 10
850.53604558372081
 20
817.09747187307016
 40
12.178168210661449
 50
121.03258093953413
 51
145.51501976283635
  0
ARC
  8
_0-2_決定
  6
CONTINUOUS
 62
    7
 10
856.52610153632338
 20
808.24377660788173
 40
22.859766246198706
 50
97.410044074890067
 51
122.45741721894392
  0
ARC
  8
_0-2_決定
  6
CONTINUOUS
 62
    7
 10
863.25034423535442
 20
809.16280664094393
 40
23.803596948479854
 50
86.94754495681201
 51
113.97538992496908
  0
ARC
  8
_0-2_決定
  6
CONTINUOUS
 62
    7
 10
863.59475758441818
 20
821.19872699816119
 40
11.770160552905926
 50
60.794723005702707
 51
85.501676690024752
  0
ARC
  8
_0-2_決定
  6
CONTINUOUS
 62
    7
 10
866.38132455046934
 20
826.70462067925791
 40
5.6102767042198725
 50
355.99348409760648
 51
58.197620889894566
  0
ARC
  8
_0-2_決定
  6
CONTINUOUS
 62
    7
 10
895.16642003821119
 20
777.69722729093132
 40
3.9913117427568556
 50
273.3246508217585
 51
342.73490311169536
  0
ARC
  8
_0-2_決定
  6
CONTINUOUS
 62
    7
 10
894.60567346796779
 20
781.48725875782907
 40
7.8148839930098273
 50
260.81240185880091
 51
275.81822950542295
  0
ARC
  8
_0-2_決定
  6
CONTINUOUS
 62
    7
 10
895.47973610824192
 20
787.11123282254221
 40
13.506312306071388
 50
237.8769086224994
 51
260.96137272184444
  0
ARC
  8
_0-2_決定
  6
CONTINUOUS
 62
    7
 10
898.56106688644616
 20
792.97228685327491
 40
20.114940035103395
 50
225.95973505082918
 51
239.32107847122933
  0
ARC
  8
_0-2_決定
  6
CONTINUOUS
 62
    7
 10
893.83614375881939
 20
794.47766080143742
 40
18.455280157916029
 50
218.72386943965242
 51
239.89019493234923
  0
ARC
  8
_0-2_決定
  6
CONTINUOUS
 62
    7
 10
887.25277023509761
 20
789.15504204947695
 40
9.9895305532398719
 50
191.32924025155373
 51
218.52770801936882
  0
ARC
  8
_0-2_決定
  6
CONTINUOUS
 62
    7
 10
881.68747134447869
 20
787.79718885335933
 40
4.2725686617470382
 50
119.58736085350282
 51
188.13448196395746
  0
ARC
  8
_0-2_決定
  6
CONTINUOUS
 62
    7
 10
883.32434838650693
 20
790.2685126734641
 40
3.9476294641312974
 50
92.416683477734836
 51
161.62977894720757
  0
ARC
  8
_0-2_決定
  6
CONTINUOUS
 62
    7
 10
884.03311443456971
 20
785.09203534385938
 40
9.1624933292959625
 50
67.103867055858984
 51
95.481392401103875
  0
ARC
  8
_0-2_決定
  6
CONTINUOUS
 62
    7
 10
881.35599441736508
 20
777.16303485769367
 40
17.519273554735154
 50
43.90771612262143
 51
69.127634890932114
  0
ARC
  8
_0-2_決定
  6
CONTINUOUS
 62
    7
 10
885.43352523371573
 20
774.42205860663739
 40
17.167857303758119
 50
28.799604507858181
 51
60.152348496294827
  0
ARC
  8
_0-2_決定
  6
CONTINUOUS
 62
    7
 10
894.80855198987001
 20
779.92782197342933
 40
6.3075810012331548
 50
352.20777557844588
 51
25.997469398133152
  0
ARC
  8
_0-2_決定
  6
CONTINUOUS
 62
    7
 10
897.45264382603921
 20
779.87689590253865
 40
3.6938653519033053
 50
294.38798246023379
 51
347.42429976730148
  0
ARC
  8
_0-2_決定
  6
CONTINUOUS
 62
    7
 10
845.23314091616135
 20
759.77269792433503
 40
13.656046715454874
 50
342.79182231820869
 51
7.3200288601985806
  0
ARC
  8
_0-2_決定
  6
CONTINUOUS
 62
    7
 10
853.05325500696631
 20
757.49699619272178
 40
5.5145073868822889
 50
322.66556758923122
 51
341.3401376882864
  0
ARC
  8
_0-2_決定
  6
CONTINUOUS
 62
    7
 10
855.71729354995909
 20
755.45605108608152
 40
2.1585531836594631
 50
244.20195424031783
 51
322.85467669243712
  0
ARC
  8
_0-2_決定
  6
CONTINUOUS
 62
    7
 10
853.78375756178593
 20
755.24626054709586
 40
1.9984404340906892
 50
232.8859088372931
 51
299.83172064688517
  0
ARC
  8
_0-2_決定
  6
CONTINUOUS
 62
    7
 10
854.83290060541458
 20
756.45302637795226
 40
3.5954518149243491
 50
209.31539207378574
 51
231.15732454474787
  0
ARC
  8
_0-2_決定
  6
CONTINUOUS
 62
    7
 10
857.617267006205
 20
758.18120936395928
 40
6.8708939936427296
 50
194.91591348260496
 51
210.51291122373178
  0
ARC
  8
_0-2_決定
  6
CONTINUOUS
 62
    7
 10
862.59036554332988
 20
759.42194584581671
 40
11.996063651045796
 50
169.96317432216972
 51
194.52831080962281
  0
ARC
  8
_0-2_決定
  6
CONTINUOUS
 62
    7
 10
863.43228441243525
 20
763.57477662707936
 40
12.821315251653724
 50
163.51674899360793
 51
189.25548950238479
  0
ARC
  8
_0-2_決定
  6
CONTINUOUS
 62
    7
 10
856.854349835329
 20
765.36249697358903
 40
6.0084034978667002
 50
144.25319139076299
 51
162.06578954280005
  0
ARC
  8
_0-2_決定
  6
CONTINUOUS
 62
    7
 10
853.89405561477759
 20
767.57208224493127
 40
2.3158414869489565
 50
67.564239868435237
 51
145.83424859956369
  0
ARC
  8
_0-2_決定
  6
CONTINUOUS
 62
    7
 10
855.70968795735496
 20
768.08122655625652
 40
1.8787586465410144
 50
51.552679146398738
 51
119.73337084188297
  0
ARC
  8
_0-2_決定
  6
CONTINUOUS
 62
    7
 10
854.66510049844055
 20
766.80595606917507
 40
3.527133914163199
 50
30.058353594698112
 51
51.144235695302591
  0
ARC
  8
_0-2_決定
  6
CONTINUOUS
 62
    7
 10
851.42310351148637
 20
764.95277470450014
 40
7.2613852829441763
 50
14.351332967406826
 51
29.90133665134903
  0
ARC
  8
_0-2_決定
  6
CONTINUOUS
 62
    7
 10
845.36265406098266
 20
763.3231530141959
 40
13.536858843425321
 50
352.31380460536604
 51
14.675473249136729
  0
ARC
  8
_0-2_決定
  6
CONTINUOUS
 62
    7
 10
798.05843739465615
 20
767.86481967864779
 40
5.8546964056950657
 50
279.63051750096508
 51
317.54231473390269
  0
ARC
  8
_0-2_決定
  6
CONTINUOUS
 62
    7
 10
797.15933937100488
 20
772.15799880791963
 40
10.239167363486015
 50
253.65537375058318
 51
280.57178916168738
  0
ARC
  8
_0-2_決定
  6
CONTINUOUS
 62
    7
 10
799.37086369046881
 20
781.33670345071721
 40
19.674680356022638
 50
226.29967481857884
 51
254.99762019153349
  0
ARC
  8
_0-2_決定
  6
CONTINUOUS
 62
    7
 10
800.91520626464876
 20
783.63764228150046
 40
22.410136119717016
 50
199.4033422162
 51
227.50955155553402
  0
ARC
  8
_0-2_決定
  6
CONTINUOUS
 62
    7
 10
789.48229778406755
 20
779.17897242132517
 40
10.153507138500144
 50
170.16886170657878
 51
197.10471605581563
  0
ARC
  8
_0-2_決定
  6
CONTINUOUS
 62
    7
 10
785.18450255884204
 20
779.68432799421316
 40
5.8373053180656509
 50
139.01705801187498
 51
167.85283963396907
  0
ARC
  8
_0-2_決定
  6
CONTINUOUS
 62
    7
 10
785.07924909684471
 20
779.58320527203091
 40
5.8259825592202574
 50
99.298561913197361
 51
137.58729533553182
  0
ARC
  8
_0-2_決定
  6
CONTINUOUS
 62
    7
 10
786.02351011225096
 20
775.0268726127299
 40
10.476843675201952
 50
73.506856386425838
 51
100.36856944277147
  0
ARC
  8
_0-2_決定
  6
CONTINUOUS
 62
    7
 10
783.81662648552924
 20
766.20887075389169
 40
19.562388547173416
 50
45.295115326625272
 51
74.641451983273853
  0
ARC
  8
_0-2_決定
  6
CONTINUOUS
 62
    7
 10
783.40878348037961
 20
764.14893399477273
 40
21.344866721625245
 50
20.066642595998005
 51
48.40828295771626
  0
ARC
  8
_0-2_決定
  6
CONTINUOUS
 62
    7
 10
793.72302983255338
 20
768.29444592428899
 40
10.240528409943419
 50
352.58376280577107
 51
18.080554957555904
  0
ARC
  8
_0-2_決定
  6
CONTINUOUS
 62
    7
 10
797.95346563038947
 20
767.97911678461844
 40
6.0093128972669803
 50
317.41393307807698
 51
350.35824166133739
  0
ARC
  8
_0-2_決定
  6
CONTINUOUS
 62
    7
 10
764.83143433388386
 20
827.15674951360916
 40
3.9476294641314484
 50
272.41668347773771
 51
341.62977894721047
  0
ARC
  8
_0-2_決定
  6
CONTINUOUS
 62
    7
 10
764.1226682858221
 20
832.33322684321388
 40
9.1624933292960495
 50
247.1038670558554
 51
275.48139240110027
  0
ARC
  8
_0-2_決定
  6
CONTINUOUS
 62
    7
 10
766.79978830302559
 20
840.26222732937924
 40
17.519273554734792
 50
223.90771612262321
 51
249.1276348909339
  0
ARC
  8
_0-2_決定
  6
CONTINUOUS
 62
    7
 10
762.07805308459058
 20
842.59779434504458
 40
16.499469503414538
 50
209.50173854467269
 51
241.39209324166242
  0
ARC
  8
_0-2_決定
  6
CONTINUOUS
 62
    7
 10
753.55279860098733
 20
837.38304957019636
 40
6.5204805457966897
 50
173.22185062223258
 51
206.50976326394286
  0
ARC
  8
_0-2_決定
  6
CONTINUOUS
 62
    7
 10
750.9286833580444
 20
837.40159446473854
 40
3.92334644492546
 50
116.50330277336278
 51
168.96389342468296
  0
ARC
  8
_0-2_決定
  6
CONTINUOUS
 62
    7
 10
752.98936268217994
 20
839.72803689614182
 40
3.9913117427570519
 50
93.324650821756251
 51
162.73490311169317
  0
ARC
  8
_0-2_決定
  6
CONTINUOUS
 62
    7
 10
753.62603695501377
 20
835.94800542924531
 40
7.8130075351352888
 50
81.373783462616203
 51
96.379611109238255
  0
ARC
  8
_0-2_決定
  6
CONTINUOUS
 62
    7
 10
752.62707981480219
 20
830.3240313645307
 40
13.523961765416576
 50
57.678686653334921
 51
80.763150752679962
  0
ARC
  8
_0-2_決定
  6
CONTINUOUS
 62
    7
 10
749.59471583394497
 20
824.45297733379812
 40
20.114940035103395
 50
45.959735050829181
 51
59.321078471229328
  0
ARC
  8
_0-2_決定
  6
CONTINUOUS
 62
    7
 10
754.31963896157208
 20
822.94760338563515
 40
18.455280157916615
 50
38.723869439654003
 51
59.890194932350809
  0
ARC
  8
_0-2_決定
  6
CONTINUOUS
 62
    7
 10
760.90301248529386
 20
828.27022213759619
 40
9.9895305532398719
 50
11.329240251553733
 51
38.527708019368802
  0
ARC
  8
_0-2_決定
  6
CONTINUOUS
 62
    7
 10
766.46829746907201
 20
829.62808043825476
 40
4.2725817063950497
 50
299.58747598698432
 51
8.1343878121409929
  0
ARC
  8
_0-2_決定
  6
CONTINUOUS
 62
    7
 10
715.98636346910916
 20
809.07209038445694
 40
12.558415291908423
 50
343.34445235147922
 51
9.3511020879073392
  0
ARC
  8
_0-2_決定
  6
CONTINUOUS
 62
    7
 10
722.36939099858296
 20
807.33064398606928
 40
5.9462407906979644
 50
323.96544960779278
 51
341.7919435839006
  0
ARC
  8
_0-2_決定
  6
CONTINUOUS
 62
    7
 10
725.16871014364654
 20
805.22666392651331
 40
2.4454326240393445
 50
251.13220213521771
 51
325.24588926406858
  0
ARC
  8
_0-2_決定
  6
CONTINUOUS
 62
    7
 10
723.49609290742046
 20
804.76706396459065
 40
2.0534097370372413
 50
230.06210421523471
 51
295.43150655933346
  0
ARC
  8
_0-2_決定
  6
CONTINUOUS
 62
    7
 10
724.68856341748142
 20
806.13688158465857
 40
3.8693772253898393
 50
208.8027678038363
 51
229.54454813706425
  0
ARC
  8
_0-2_決定
  6
CONTINUOUS
 62
    7
 10
727.45971772800112
 20
807.84131745262835
 40
7.1206470347085897
 50
194.88113736151632
 51
210.07773143268992
  0
ARC
  8
_0-2_決定
  6
CONTINUOUS
 62
    7
 10
732.24733862685866
 20
809.02417800595435
 40
12.051779577151088
 50
170.02083699900604
 51
194.4706481327801
  0
ARC
  8
_0-2_決定
  6
CONTINUOUS
 62
    7
 10
732.76942125128267
 20
813.15317180261582
 40
12.558415291909055
 50
163.34445235147945
 51
189.35110208790755
  0
ARC
  8
_0-2_決定
  6
CONTINUOUS
 62
    7
 10
726.38639372180842
 20
814.89461820100382
 40
5.9462407906979644
 50
143.96544960779281
 51
161.79194358390063
  0
ARC
  8
_0-2_決定
  6
CONTINUOUS
 62
    7
 10
723.58707457674484
 20
816.9985982605599
 40
2.4454326240393445
 50
71.132202135217696
 51
145.24588926406855
  0
ARC
  8
_0-2_決定
  6
CONTINUOUS
 62
    7
 10
725.25969181297091
 20
817.45819822248245
 40
2.0534097370372413
 50
50.06210421523469
 51
115.43150655933344
  0
ARC
  8
_0-2_決定
  6
CONTINUOUS
 62
    7
 10
724.06722130290996
 20
816.08838060241533
 40
3.869377225389341
 50
28.802767803827237
 51
49.544548137055166
  0
ARC
  8
_0-2_決定
  6
CONTINUOUS
 62
    7
 10
721.29606699238877
 20
814.38394473444441
 40
7.1206470347095818
 50
14.881137361513018
 51
30.077731432686594
  0
ARC
  8
_0-2_決定
  6
CONTINUOUS
 62
    7
 10
716.50844609353248
 20
813.20108418111795
 40
12.051779577151114
 50
350.02083699900919
 51
14.470648132783294
  0
ARC
  8
_0-2_決定
  6
CONTINUOUS
 62
    7
 10
914.9355946174984
 20
823.34821832733633
 40
10.843542250104445
 50
345.16911754916657
 51
0.8687676371724719
  0
ARC
  8
_0-2_決定
  6
CONTINUOUS
 62
    7
 10
922.68404110458334
 20
821.13955572134216
 40
2.7920127660925704
 50
318.5854041893088
 51
348.28449345655554
  0
ARC
  8
_0-2_決定
  6
CONTINUOUS
 62
    7
 10
924.3646732050604
 20
819.67644699383777
 40
0.5639707994411218
 50
271.34290028220823
 51
317.11259035364253
  0
ARC
  8
_0-2_決定
  6
CONTINUOUS
 62
    7
 10
924.51031231596085
 20
819.98540260263951
 40
0.8827602627388195
 50
213.93255925295253
 51
261.37255374817505
  0
ARC
  8
_0-2_決定
  6
CONTINUOUS
 62
    7
 10
926.88642818597691
 20
821.76192358988203
 40
3.848726522927171
 50
195.51181976612406
 51
216.13016418224697
  0
ARC
  8
_0-2_決定
  6
CONTINUOUS
 62
    7
 10
932.15062270111866
 20
823.44244869654744
 40
9.3729950978028427
 50
179.57098102819992
 51
196.8046229956162
  0
ARC
  8
_0-2_決定
  6
CONTINUOUS
 62
    7
 10
932.32029306142158
 20
823.57553899863262
 40
9.5426100578871704
 50
164.20731390938366
 51
180.37771464467329
  0
ARC
  8
_0-2_決定
  6
CONTINUOUS
 62
    7
 10
926.83942702568231
 20
825.30523877927953
 40
3.8018078742584294
 50
142.63288690481488
 51
166.81166862409154
  0
ARC
  8
_0-2_決定
  6
CONTINUOUS
 62
    7
 10
924.42179812537552
 20
827.15800326520139
 40
0.7559041282736322
 50
93.32998112185129
 51
143.02719909810418
  0
ARC
  8
_0-2_決定
  6
CONTINUOUS
 62
    7
 10
924.2695609273693
 20
827.11465459080182
 40
0.8052960728412952
 50
31.267514771211317
 51
82.269063092808281
  0
ARC
  8
_0-2_決定
  6
CONTINUOUS
 62
    7
 10
921.77926691644166
 20
825.5301216404107
 40
3.7568192805940153
 50
11.710501188582692
 51
32.210626851589097
  0
ARC
  8
_0-2_決定
  6
CONTINUOUS
 62
    7
 10
914.44276617049184
 20
823.61628586306642
 40
11.335598118637471
 50
359.47606967650745
 51
13.656527564989931
  0
ARC
  8
_0-2_決定
  6
CONTINUOUS
 62
    7
 10
945.63548765897076
 20
785.24972518843947
 40
9.5426100578860336
 50
344.20731390938886
 51
0.3777146446784747
  0
ARC
  8
_0-2_決定
  6
CONTINUOUS
 62
    7
 10
951.11635369470923
 20
783.52002540779381
 40
3.8018078742584294
 50
322.63288690481488
 51
346.81166862409151
  0
ARC
  8
_0-2_決定
  6
CONTINUOUS
 62
    7
 10
953.53398259501603
 20
781.66726092187196
 40
0.7559041282736322
 50
273.32998112185129
 51
323.02719909810418
  0
ARC
  8
_0-2_決定
  6
CONTINUOUS
 62
    7
 10
953.68621979302225
 20
781.71060959627141
 40
0.8052960728412952
 50
211.26751477121132
 51
262.26906309280827
  0
ARC
  8
_0-2_決定
  6
CONTINUOUS
 62
    7
 10
956.17651380394818
 20
783.29514254666321
 40
3.7568192805928327
 50
191.7105011886031
 51
212.2106268516095
  0
ARC
  8
_0-2_決定
  6
CONTINUOUS
 62
    7
 10
963.51301454990084
 20
785.20897832400522
 40
11.335598118638483
 50
179.476069676501
 51
193.65652756498349
  0
ARC
  8
_0-2_決定
  6
CONTINUOUS
 62
    7
 10
963.02018610289394
 20
785.4770458597377
 40
10.843542250105351
 50
165.16911754917274
 51
180.86876763717862
  0
ARC
  8
_0-2_決定
  6
CONTINUOUS
 62
    7
 10
955.27173584416778
 20
787.68570746573027
 40
2.7920092760766213
 50
138.58536837938365
 51
168.28445764663039
  0
ARC
  8
_0-2_決定
  6
CONTINUOUS
 62
    7
 10
953.59110751533137
 20
789.14881519323535
 40
0.5639707994412717
 50
91.342900282242098
 51
137.11259035367641
  0
ARC
  8
_0-2_決定
  6
CONTINUOUS
 62
    7
 10
953.44546840443058
 20
788.83985958443395
 40
0.8827602627385211
 50
33.932559252940266
 51
81.372553748162758
  0
ARC
  8
_0-2_決定
  6
CONTINUOUS
 62
    7
 10
951.06935803205488
 20
787.06333959719018
 40
3.8487214929747382
 50
15.511855998750328
 51
36.130200414873222
  0
ARC
  8
_0-2_決定
  6
CONTINUOUS
 62
    7
 10
945.80515801927334
 20
785.38281549052613
 40
9.3729950978017698
 50
359.57098102819498
 51
16.804622995611268
  0
ARC
  8
_0-2_決定
  6
CONTINUOUS
 62
    7
 10
778.2797973365391
 20
1325.8291005126912
 40
3.3001511744526368
 50
306.39402508176028
 51
357.97734996912385
  0
ARC
  8
_0-2_決定
  6
CONTINUOUS
 62
    7
 10
775.36070026780237
 20
1329.1707418362716
 40
7.7307442827699351
 50
277.85992195765664
 51
309.11526959765956
  0
ARC
  8
_0-2_決定
  6
CONTINUOUS
 62
    7
 10
774.20061242895054
 20
1333.7021603234928
 40
12.389556062097277
 50
269.89493047426424
 51
280.30940003044202
  0
ARC
  8
_0-2_決定
  6
CONTINUOUS
 62
    7
 10
774.05886497485142
 20
1331.6632905715942
 40
10.351349832612014
 50
242.36730880160047
 51
270.65884326505932
  0
ARC
  8
_0-2_決定
  6
CONTINUOUS
 62
    7
 10
771.35672533111745
 20
1326.3959606650812
 40
4.4318312720495188
 50
188.86973699182914
 51
241.73297310019913
  0
ARC
  8
_0-2_決定
  6
CONTINUOUS
 62
    7
 10
770.36608518349817
 20
1325.6481137321775
 40
3.3888068793578405
 50
127.61128312850359
 51
178.90925109056158
  0
ARC
  8
_0-2_決定
  6
CONTINUOUS
 62
    7
 10
772.35225965886707
 20
1323.491776233195
 40
6.3144035757792674
 50
113.26773105732755
 51
129.94727343517027
  0
ARC
  8
_0-2_決定
  6
CONTINUOUS
 62
    7
 10
773.92306514117331
 20
1319.6656152718012
 40
10.450115278739959
 50
88.602697563935848
 51
112.89275463281086
  0
ARC
  8
_0-2_決定
  6
CONTINUOUS
 62
    7
 10
774.38591832940097
 20
1318.8969413640862
 40
11.217610773252478
 50
63.461751061574013
 51
91.062587530682762
  0
ARC
  8
_0-2_決定
  6
CONTINUOUS
 62
    7
 10
777.39899076215715
 20
1325.2313791544921
 40
4.2065204498438273
 50
6.5692659751940301
 51
61.628198718738076
  0
ARC
  8
_0-2_決定
  6
CONTINUOUS
 62
    7
 10
771.12026516345986
 20
1258.5702522902718
 40
7.4620757955134493
 50
271.97852252727694
 51
358.02147747272755
  0
ARC
  8
_0-2_決定
  6
CONTINUOUS
 62
    7
 10
771.58301210662103
 20
1258.7262203884732
 40
7.6163578845442252
 50
183.11289561014524
 51
268.45675359583709
  0
ARC
  8
_0-2_決定
  6
CONTINUOUS
 62
    7
 10
771.59900617009703
 20
1258.0915112836353
 40
7.6243207579689534
 50
91.661874554674469
 51
178.33812544532555
  0
ARC
  8
_0-2_決定
  6
CONTINUOUS
 62
    7
 10
771.2620282880772
 20
1258.3971897801239
 40
7.3163528009474224
 50
359.33774277188593
 51
89.092608022127237
  0
ARC
  8
_0-2_決定
  6
CONTINUOUS
 62
    7
 10
809.96212607285202
 20
640.87723882781324
 40
5.1569533516237653
 50
339.04144564693718
 51
38.857470521476685
  0
ARC
  8
_0-2_決定
  6
CONTINUOUS
 62
    7
 10
806.36161838005569
 20
642.25199319896183
 40
9.0109896415294237
 50
310.03421834700623
 51
339.06735576740061
  0
ARC
  8
_0-2_決定
  6
CONTINUOUS
 62
    7
 10
800.55923397244237
 20
648.34810619494965
 40
17.418701029166098
 50
291.05763267671057
 51
311.74940359108945
  0
ARC
  8
_0-2_決定
  6
CONTINUOUS
 62
    7
 10
797.63955876109776
 20
654.84461923186268
 40
24.533540100991718
 50
277.34942097093483
 51
291.96954502632667
  0
ARC
  8
_0-2_決定
  6
CONTINUOUS
 62
    7
 10
790.86405185431909
 20
651.80834474174901
 40
23.490242293278119
 50
267.98447305585535
 51
294.9634985374966
  0
ARC
  8
_0-2_決定
  6
CONTINUOUS
 62
    7
 10
790.77499112013265
 20
639.91181878525356
 40
11.602620805164431
 50
241.9440670301959
 51
266.3576240088064
  0
ARC
  8
_0-2_決定
  6
CONTINUOUS
 62
    7
 10
788.17439847670471
 20
634.52142677721918
 40
5.6276467537866406
 50
173.96970675849647
 51
239.4969337148132
  0
ARC
  8
_0-2_決定
  6
CONTINUOUS
 62
    7
 10
786.77502201655079
 20
638.55263072369996
 40
5.4267363385188467
 50
142.01377397363063
 51
219.33827607269495
  0
ARC
  8
_0-2_決定
  6
CONTINUOUS
 62
    7
 10
792.5272598271838
 20
635.006809761368
 40
12.165640233584732
 50
121.01977945176952
 51
145.52782125059201
  0
ARC
  8
_0-2_決定
  6
CONTINUOUS
 62
    7
 10
798.03681241610343
 20
626.84448420296769
 40
22.005960810971771
 50
96.415560542664664
 51
122.36157488668766
  0
ARC
  8
_0-2_決定
  6
CONTINUOUS
 62
    7
 10
805.49786396556215
 20
627.39433487622671
 40
23.51331029027229
 50
87.952635114999197
 51
114.9538104835879
  0
ARC
  8
_0-2_決定
  6
CONTINUOUS
 62
    7
 10
805.57562135843057
 20
639.14281080371256
 40
11.774524530607358
 50
62.140627624539505
 51
86.288132335993396
  0
ARC
  8
_0-2_決定
  6
CONTINUOUS
 62
    7
 10
808.16480740205839
 20
644.50672583276491
 40
5.8264280859946744
 50
356.12163949773316
 51
60.001465756105837
  0
ARC
  8
_0-2_決定
  6
CONTINUOUS
 62
    7
 10
860.74828454110104
 20
697.55995008143429
 40
26.346556037011311
 50
283.22981481161838
 51
300.89889105669477
  0
ARC
  8
_0-2_決定
  6
CONTINUOUS
 62
    7
 10
871.32698202378856
 20
679.63919791176613
 40
5.5382081764178999
 50
302.19668177245592
 51
321.77774321918639
  0
ARC
  8
_0-2_決定
  6
CONTINUOUS
 62
    7
 10
874.60433250178312
 20
677.09633069128563
 40
1.390484778638942
 50
320.54054555488659
 51
8.9492170389928489
  0
ARC
  8
_0-2_決定
  6
CONTINUOUS
 62
    7
 10
874.86979528631332
 20
676.95691894217794
 40
1.1637900370081125
 50
17.797363002159067
 51
60.781450722865841
  0
ARC
  8
_0-2_決定
  6
CONTINUOUS
 62
    7
 10
873.62877834367339
 20
674.79157995456319
 40
3.6595061635822681
 50
60.372469261127648
 51
81.686715121894323
  0
ARC
  8
_0-2_決定
  6
CONTINUOUS
 62
    7
 10
872.39178578449105
 20
666.94590977134317
 40
11.601933852597943
 50
81.244108378914532
 51
92.934215968749498
  0
ARC
  8
_0-2_決定
  6
CONTINUOUS
 62
    7
 10
873.09044644480309
 20
649.68301538453773
 40
28.87855853721279
 50
92.565320477822326
 51
105.48990542360863
  0
ARC
  8
_0-2_決定
  6
CONTINUOUS
 62
    7
 10
871.5067065368587
 20
651.2944007592157
 40
26.92504585815513
 50
103.15729149231103
 51
120.75551290737603
  0
ARC
  8
_0-2_決定
  6
CONTINUOUS
 62
    7
 10
860.45509076376084
 20
670.15227136710337
 40
5.0699777654589271
 50
122.40763579446909
 51
143.15305309913887
  0
ARC
  8
_0-2_決定
  6
CONTINUOUS
 62
    7
 10
857.23701315341259
 20
672.51535239523207
 40
1.0783488333519562
 50
141.09197969196626
 51
190.83553337215469
  0
ARC
  8
_0-2_決定
  6
CONTINUOUS
 62
    7
 10
857.34424916474438
 20
672.68444743832561
 40
1.2241890245951264
 50
197.68135211901645
 51
239.22606631441101
  0
ARC
  8
_0-2_決定
  6
CONTINUOUS
 62
    7
 10
858.60135154157865
 20
674.86269898955788
 40
3.7390843417092419
 50
239.75340949555243
 51
260.71225315085195
  0
ARC
  8
_0-2_決定
  6
CONTINUOUS
 62
    7
 10
860.12806487900548
 20
682.28469241548453
 40
11.314393746687273
 50
259.14808927013775
 51
271.16390997969557
  0
ARC
  8
_0-2_決定
  6
CONTINUOUS
 62
    7
 10
859.80912256228544
 20
697.11421741543461
 40
26.14734359270421
 50
271.20258439810891
 51
285.45724051765831
  0
ARC
  8
_0-2_決定
  6
CONTINUOUS
 62
    7
 10
843.64829629597443
 20
733.19150258311174
 40
0.932933824352567
 50
307.62860890913754
 51
355.15047175891124
  0
ARC
  8
_0-2_決定
  6
CONTINUOUS
 62
    7
 10
842.46539498720585
 20
734.65762383951619
 40
2.8165979873255016
 50
284.6529230256665
 51
308.47717932848946
  0
ARC
  8
_0-2_決定
  6
CONTINUOUS
 62
    7
 10
841.59000255897945
 20
737.55272619329276
 40
5.8401056599327603
 50
269.88117023751465
 51
285.77698278259606
  0
ARC
  8
_0-2_決定
  6
CONTINUOUS
 62
    7
 10
841.49421323886691
 20
736.98331575282452
 40
5.2713468445504352
 50
248.68250374356967
 51
270.90954881298092
  0
ARC
  8
_0-2_決定
  6
CONTINUOUS
 62
    7
 10
839.99701142906792
 20
733.47640335206734
 40
1.4650028700001692
 50
194.37734331524794
 51
253.37605125660622
  0
ARC
  8
_0-2_決定
  6
CONTINUOUS
 62
    7
 10
839.5074844244175
 20
733.03376360396101
 40
0.9329338243531863
 50
127.62860890915829
 51
175.15047175893201
  0
ARC
  8
_0-2_決定
  6
CONTINUOUS
 62
    7
 10
840.69038573318608
 20
731.56764234755713
 40
2.8165979873258093
 50
104.65292302567906
 51
128.47717932850196
  0
ARC
  8
_0-2_決定
  6
CONTINUOUS
 62
    7
 10
841.56577816141066
 20
728.67253999378136
 40
5.8401056599316048
 50
89.881170237506041
 51
105.77698278258744
  0
ARC
  8
_0-2_決定
  6
CONTINUOUS
 62
    7
 10
841.66156748152446
 20
729.24195043424788
 40
5.2713468445511609
 50
68.682503743571047
 51
90.909548812982294
  0
ARC
  8
_0-2_決定
  6
CONTINUOUS
 62
    7
 10
843.15876929132287
 20
732.74886283500541
 40
1.4650028700005848
 50
14.377343315232292
 51
73.376051256590571
  0
ARC
  8
_0-2_決定
  6
CONTINUOUS
 62
    7
 10
740.2552976543393
 20
726.60806554451278
 40
7.6301291120122059
 50
154.33588923376522
 51
186.73946635018481
  0
ARC
  8
_0-2_決定
  6
CONTINUOUS
 62
    7
 10
733.19580902786333
 20
725.78857059428685
 40
0.5234540845843183
 50
188.34133460117056
 51
245.39846069043932
  0
ARC
  8
_0-2_決定
  6
CONTINUOUS
 62
    7
 10
733.26469893184537
 20
726.07988975762282
 40
0.8191097595110661
 50
249.50386171648819
 51
300.29432319108469
  0
ARC
  8
_0-2_決定
  6
CONTINUOUS
 62
    7
 10
732.06415534937469
 20
728.23383739888777
 40
3.2849105341020985
 50
299.42326844145265
 51
321.58242832922485
  0
ARC
  8
_0-2_決定
  6
CONTINUOUS
 62
    7
 10
726.48623047217393
 20
732.90475980288306
 40
10.559461941734995
 50
320.53175634213198
 51
336.60911242819412
  0
ARC
  8
_0-2_決定
  6
CONTINUOUS
 62
    7
 10
725.63930276294764
 20
732.78291142164392
 40
11.297302172088887
 50
338.88213802582845
 51
354.15608234430869
  0
ARC
  8
_0-2_決定
  6
CONTINUOUS
 62
    7
 10
734.26920405968303
 20
732.0436401449067
 40
2.6408675554648835
 50
351.04646997652713
 51
21.993133526783577
  0
ARC
  8
_0-2_決定
  6
CONTINUOUS
 62
    7
 10
736.25235247198566
 20
732.81376322928168
 40
0.5144233713522958
 50
25.180189118478442
 51
75.874891184780211
  0
ARC
  8
_0-2_決定
  6
CONTINUOUS
 62
    7
 10
736.13380702711538
 20
732.78982775666032
 40
0.5769775299709424
 50
64.97325211846595
 51
123.19798144145901
  0
ARC
  8
_0-2_決定
  6
CONTINUOUS
 62
    7
 10
737.58837342020911
 20
730.40972526590394
 40
3.3661319661280502
 50
121.73349870751251
 51
143.06137688751892
  0
ARC
  8
_0-2_決定
  6
CONTINUOUS
 62
    7
 10
743.82336020693265
 20
725.3306048685206
 40
11.406260613893284
 50
141.49060239243906
 51
156.31477183600262
  0
ARC
  8
_0-2_決定
  6
CONTINUOUS
 62
    7
 10
938.17696139296254
 20
672.30140007670138
 40
8.2112330693835922
 50
2.8706744522555776
 51
89.993517916075263
  0
ARC
  8
_0-2_決定
  6
CONTINUOUS
 62
    7
 10
938.42070210764462
 20
672.04711305134629
 40
8.4690015426507053
 50
91.642932162690599
 51
175.49287546897656
  0
ARC
  8
_0-2_決定
  6
CONTINUOUS
 62
    7
 10
938.09213764501635
 20
673.03273921347659
 40
8.1205589048566758
 50
182.25914042068385
 51
270.60505194764687
  0
ARC
  8
_0-2_決定
  6
CONTINUOUS
 62
    7
 10
937.91887450600007
 20
673.39518822230639
 40
8.4865087477327705
 50
271.74899015980429
 51
355.38681747186695
  0
ARC
  8
_0-2_決定
  6
CONTINUOUS
 62
    7
 10
908.68933644436174
 20
730.37733742907506
 40
3.2891904031819026
 50
307.63673253486593
 51
358.87281548423476
  0
ARC
  8
_0-2_決定
  6
CONTINUOUS
 62
    7
 10
906.60465117761282
 20
732.6925517717558
 40
6.4000161567079283
 50
293.70749837923705
 51
309.75953992759673
  0
ARC
  8
_0-2_決定
  6
CONTINUOUS
 62
    7
 10
904.82042643937802
 20
736.65995269762334
 40
10.750055926463457
 50
268.70721854960698
 51
293.91264639843621
  0
ARC
  8
_0-2_決定
  6
CONTINUOUS
 62
    7
 10
904.40674899224427
 20
736.53504623381195
 40
10.623791709673098
 50
242.7226884536687
 51
270.9230322383973
  0
ARC
  8
_0-2_決定
  6
CONTINUOUS
 62
    7
 10
901.57624572847089
 20
730.79444911697578
 40
4.2259122658625978
 50
186.54679642032164
 51
241.16121058105614
  0
ARC
  8
_0-2_決定
  6
CONTINUOUS
 62
    7
 10
900.51390450571853
 20
730.21404013740209
 40
3.1375635916934281
 50
125.36601365723499
 51
178.19927463330643
  0
ARC
  8
_0-2_決定
  6
CONTINUOUS
 62
    7
 10
903.40019059412816
 20
726.7623748403912
 40
7.6311749920666596
 50
97.24435244824744
 51
128.03888221378864
  0
ARC
  8
_0-2_決定
  6
CONTINUOUS
 62
    7
 10
904.55398088064271
 20
721.98577912820383
 40
12.526876782821059
 50
89.890642087069892
 51
99.72526583897637
  0
ARC
  8
_0-2_決定
  6
CONTINUOUS
 62
    7
 10
904.69492170261617
 20
723.15310224402288
 40
11.360133690065407
 50
63.420498661649859
 51
90.590267754522614
  0
ARC
  8
_0-2_決定
  6
CONTINUOUS
 62
    7
 10
907.90110996861722
 20
729.62966080637921
 40
4.1335928084637263
 50
9.5102972047979115
 51
62.997378270089342
  0
ARC
  8
_0-2_決定
  6
CONTINUOUS
 62
    7
 10
803.14563755744359
 20
741.74676569497001
 40
25.064920438963512
 50
147.44985663559558
 51
157.56446946132934
  0
ARC
  8
_0-2_決定
  6
CONTINUOUS
 62
    7
 10
789.59644387398589
 20
750.67912165370694
 40
8.8413183111926372
 50
132.54786460692458
 51
149.0007871983926
  0
ARC
  8
_0-2_決定
  6
CONTINUOUS
 62
    7
 10
784.32414741620596
 20
756.57777733551166
 40
0.9363993845130735
 50
86.709682102369769
 51
138.95762625344616
  0
ARC
  8
_0-2_決定
  6
CONTINUOUS
 62
    7
 10
783.71989236019567
 20
756.92863309353675
 40
0.8797840644156855
 50
356.35054286044112
 51
41.590272756521991
  0
ARC
  8
_0-2_決定
  6
CONTINUOUS
 62
    7
 10
776.91060208255067
 20
756.78086427118296
 40
7.6878380140018896
 50
346.24278344679669
 51
0.6839492556147329
  0
ARC
  8
_0-2_決定
  6
CONTINUOUS
 62
    7
 10
757.59581677786264
 20
761.12174898852231
 40
27.483405237043893
 50
336.38598242199197
 51
347.02846564887932
  0
ARC
  8
_0-2_決定
  6
CONTINUOUS
 62
    7
 10
756.78547301950425
 20
761.46015031109391
 40
28.36145289270484
 50
326.9499719468435
 51
336.41534964536078
  0
ARC
  8
_0-2_決定
  6
CONTINUOUS
 62
    7
 10
774.66905062004344
 20
749.44234092048362
 40
6.8248766385819053
 50
310.24037930887187
 51
329.63805177536898
  0
ARC
  8
_0-2_決定
  6
CONTINUOUS
 62
    7
 10
778.7467477766711
 20
744.51073552488788
 40
0.4324323039750837
 50
247.01573818426655
 51
319.97572837738176
  0
ARC
  8
_0-2_決定
  6
CONTINUOUS
 62
    7
 10
778.82186029937145
 20
744.62365426861516
 40
0.5662711335786647
 50
185.16937486859223
 51
244.47960344530065
  0
ARC
  8
_0-2_決定
  6
CONTINUOUS
 62
    7
 10
782.66294951931877
 20
745.17082595022771
 40
4.44548796747201
 50
169.08443785943612
 51
187.73328159818223
  0
ARC
  8
_0-2_決定
  6
CONTINUOUS
 62
    7
 10
798.4648104607669
 20
742.53636471448772
 40
20.464335501508938
 50
154.60497162438296
 51
170.21976288918697
  0
ARC
  8
_0-2_決定
  6
CONTINUOUS
 62
    7
 10
901.52026316345996
 20
662.97026029027188
 40
7.4620757955135968
 50
271.9785225272758
 51
358.02147747272642
  0
ARC
  8
_0-2_決定
  6
CONTINUOUS
 62
    7
 10
901.98301010662078
 20
663.12622838847324
 40
7.6163578845440743
 50
183.11289561014414
 51
268.45675359583595
  0
ARC
  8
_0-2_決定
  6
CONTINUOUS
 62
    7
 10
901.70074588032799
 20
662.78977757340408
 40
7.3232618579089523
 50
89.396425398007921
 51
180.60357460199208
  0
ARC
  8
_0-2_決定
  6
CONTINUOUS
 62
    7
 10
901.66144211991934
 20
662.79662940029448
 40
7.3169303831724273
 50
359.34224608807148
 51
89.088104705946151
  0
ARC
  8
_0-2_決定
  6
CONTINUOUS
 62
    7
 10
812.19004111040499
 20
688.53327819419462
 40
8.718794545442206
 50
315.96288467159002
 51
15.836878658385153
  0
ARC
  8
_0-2_決定
  6
CONTINUOUS
 62
    7
 10
810.1046773749456
 20
690.0244334505046
 40
11.260812103099209
 50
287.96486888962232
 51
317.88455394399108
  0
ARC
  8
_0-2_決定
  6
CONTINUOUS
 62
    7
 10
810.07350002229123
 20
689.91084397398117
 40
11.162564200233673
 50
236.77915346180561
 51
288.29692596654252
  0
ARC
  8
_0-2_決定
  6
CONTINUOUS
 62
    7
 10
808.82382885369736
 20
687.34991500994113
 40
8.3431941205522477
 50
199.881225745563
 51
234.32250044872103
  0
ARC
  8
_0-2_決定
  6
CONTINUOUS
 62
    7
 10
809.36574360998634
 20
686.89198799287828
 40
8.7187945454424796
 50
135.96288467159047
 51
195.83687865838561
  0
ARC
  8
_0-2_決定
  6
CONTINUOUS
 62
    7
 10
811.45110734544483
 20
685.40083273656842
 40
11.260812103098912
 50
107.96486888961996
 51
137.88455394398872
  0
ARC
  8
_0-2_決定
  6
CONTINUOUS
 62
    7
 10
811.48228469809987
 20
685.51442221309173
 40
11.162564200233673
 50
56.779153461805578
 51
108.29692596654252
  0
ARC
  8
_0-2_決定
  6
CONTINUOUS
 62
    7
 10
812.73195586669374
 20
688.07535117713178
 40
8.3431941205522477
 50
19.881225745562983
 51
54.32250044872103
  0
ARC
  8
_0-2_決定
  6
CONTINUOUS
 62
    7
 10
834.84309286940345
 20
603.66343547956819
 40
3.4676931350211389
 50
344.08636059157311
 51
33.405963933541614
  0
ARC
  8
_0-2_決定
  6
CONTINUOUS
 62
    7
 10
831.42016505169977
 20
601.81864816278471
 40
7.3488822925573682
 50
30.718745012752223
 51
45.861488486027127
  0
ARC
  8
_0-2_決定
  6
CONTINUOUS
 62
    7
 10
826.44132117267736
 20
596.65402482267461
 40
14.522580147190371
 50
45.954244496919458
 51
68.355638897526731
  0
ARC
  8
_0-2_決定
  6
CONTINUOUS
 62
    7
 10
822.67950077250953
 20
588.89065299880474
 40
23.134756271529568
 50
66.787492826484154
 51
75.740557839481866
  0
ARC
  8
_0-2_決定
  6
CONTINUOUS
 62
    7
 10
823.04668353370766
 20
591.0926346654926
 40
20.911006787376465
 50
75.229525913943462
 51
95.34741219384874
  0
ARC
  8
_0-2_決定
  6
CONTINUOUS
 62
    7
 10
821.98730875495676
 20
602.2601949257014
 40
9.6933308370706559
 50
95.264607644635333
 51
122.0887958197449
  0
ARC
  8
_0-2_決定
  6
CONTINUOUS
 62
    7
 10
818.83518489805601
 20
607.71173248120465
 40
3.4076033684356033
 50
125.8827344812439
 51
162.91882560080668
  0
ARC
  8
_0-2_決定
  6
CONTINUOUS
 62
    7
 10
819.28128745224683
 20
607.89929236409012
 40
3.7916568414578107
 50
167.61330464477899
 51
215.5897184192514
  0
ARC
  8
_0-2_決定
  6
CONTINUOUS
 62
    7
 10
823.17645536490454
 20
610.17605660998095
 40
8.2946615425111183
 50
212.71897111315181
 51
227.17337678672678
  0
ARC
  8
_0-2_決定
  6
CONTINUOUS
 62
    7
 10
828.33638058885549
 20
615.62541593735193
 40
15.799125988990028
 50
226.88331055329874
 51
248.23436332859751
  0
ARC
  8
_0-2_決定
  6
CONTINUOUS
 62
    7
 10
832.2584642003485
 20
623.66211426319603
 40
24.726100171227685
 50
246.69930839610149
 51
253.84292362735295
  0
ARC
  8
_0-2_決定
  6
CONTINUOUS
 62
    7
 10
830.77445933568185
 20
620.60340889200484
 40
21.382961803741853
 50
255.38178664992205
 51
275.32227196729917
  0
ARC
  8
_0-2_決定
  6
CONTINUOUS
 62
    7
 10
831.8202481607733
 20
608.3974284054417
 40
9.1330524012923622
 50
275.89264987067577
 51
303.62629159974915
  0
ARC
  8
_0-2_決定
  6
CONTINUOUS
 62
    7
 10
834.67620427770134
 20
603.68346191846786
 40
3.6337735405970228
 50
307.29332968160327
 51
344.50420377496499
  0
ARC
  8
_0-2_決定
  6
CONTINUOUS
 62
    7
 10
854.59472430771962
 20
531.0958011460126
 40
4.5868247042316392
 50
272.28860565918086
 51
357.71139434081914
  0
ARC
  8
_0-2_決定
  6
CONTINUOUS
 62
    7
 10
854.96105641267172
 20
531.0958011460126
 40
4.5868247042316392
 50
182.28860565918086
 51
267.7113943408192
  0
ARC
  8
_0-2_決定
  6
CONTINUOUS
 62
    7
 10
854.96105641267172
 20
530.72946904106027
 40
4.5868247042314918
 50
92.288605659178998
 51
177.71139434081729
  0
ARC
  8
_0-2_決定
  6
CONTINUOUS
 62
    7
 10
854.59472430771962
 20
530.72946904106027
 40
4.5868247042314918
 50
2.288605659182696
 51
87.711394340821002
  0
ARC
  8
_0-2_決定
  6
CONTINUOUS
 62
    7
 10
874.73559461749824
 20
571.74822232733641
 40
10.843542250104445
 50
345.16911754916657
 51
0.8687676371724719
  0
ARC
  8
_0-2_決定
  6
CONTINUOUS
 62
    7
 10
882.48404110458318
 20
569.53955972134213
 40
2.7920127660925704
 50
318.5854041893088
 51
348.28449345655554
  0
ARC
  8
_0-2_決定
  6
CONTINUOUS
 62
    7
 10
884.16467320506035
 20
568.07645099383785
 40
0.5639707994411218
 50
271.34290028220823
 51
317.11259035364253
  0
ARC
  8
_0-2_決定
  6
CONTINUOUS
 62
    7
 10
884.3103123159608
 20
568.38540660263925
 40
0.8827602627385211
 50
213.93255925294028
 51
261.37255374816277
  0
ARC
  8
_0-2_決定
  6
CONTINUOUS
 62
    7
 10
886.68642818597709
 20
570.16192758988291
 40
3.8487265229275156
 50
195.51181976613469
 51
216.1301641822576
  0
ARC
  8
_0-2_決定
  6
CONTINUOUS
 62
    7
 10
891.95062270111862
 20
571.84245269654741
 40
9.3729950978028427
 50
179.57098102819992
 51
196.8046229956162
  0
ARC
  8
_0-2_決定
  6
CONTINUOUS
 62
    7
 10
892.12029306142142
 20
571.97554299863259
 40
9.5426100578871704
 50
164.20731390938366
 51
180.37771464467329
  0
ARC
  8
_0-2_決定
  6
CONTINUOUS
 62
    7
 10
886.63942702568249
 20
573.70524277927859
 40
3.8018078742587198
 50
142.63288690480564
 51
166.8116686240823
  0
ARC
  8
_0-2_決定
  6
CONTINUOUS
 62
    7
 10
884.22179812537502
 20
575.55800726520135
 40
0.7559041282730147
 50
93.329981121818221
 51
143.02719909807109
  0
ARC
  8
_0-2_決定
  6
CONTINUOUS
 62
    7
 10
884.06956092736982
 20
575.51465859080156
 40
0.8052960728409335
 50
31.267514771250617
 51
82.269063092847588
  0
ARC
  8
_0-2_決定
  6
CONTINUOUS
 62
    7
 10
881.5792669164415
 20
573.93012564040976
 40
3.7568192805943141
 50
11.710501188593989
 51
32.210626851600395
  0
ARC
  8
_0-2_決定
  6
CONTINUOUS
 62
    7
 10
874.24276617049168
 20
572.01628986306775
 40
11.335598118637339
 50
359.47606967650165
 51
13.656527564984151
  0
ARC
  8
_0-2_決定
  6
CONTINUOUS
 62
    7
 10
905.39560741901801
 20
533.77797153836173
 40
9.5832291341632665
 50
344.2247751909689
 51
0.8051469082971587
  0
ARC
  8
_0-2_決定
  6
CONTINUOUS
 62
    7
 10
911.30634390393061
 20
531.94687537633388
 40
3.4008510622357524
 50
320.69550911120905
 51
346.84061102247142
  0
ARC
  8
_0-2_決定
  6
CONTINUOUS
 62
    7
 10
913.34023550783911
 20
530.2879447982499
 40
0.7762235671046657
 50
272.78052777934693
 51
320.34957457480903
  0
ARC
  8
_0-2_決定
  6
CONTINUOUS
 62
    7
 10
913.46899302779798
 20
530.30663383578451
 40
0.7992081698379283
 50
212.89054707001748
 51
263.45455977661254
  0
ARC
  8
_0-2_決定
  6
CONTINUOUS
 62
    7
 10
915.72984106152512
 20
531.84313867115225
 40
3.5325938436823039
 50
192.26603391535266
 51
213.90423343026276
  0
ARC
  8
_0-2_決定
  6
CONTINUOUS
 62
    7
 10
923.41350752528626
 20
533.70323266429091
 40
11.437534232686906
 50
178.95094995603293
 51
193.19396285838246
  0
ARC
  8
_0-2_決定
  6
CONTINUOUS
 62
    7
 10
922.82018610289185
 20
534.07704785973772
 40
10.843542250103283
 50
165.1691175491714
 51
180.86876763717726
  0
ARC
  8
_0-2_決定
  6
CONTINUOUS
 62
    7
 10
915.07173961580725
 20
536.28571046573018
 40
2.7920127660923217
 50
138.58540418929357
 51
168.2844934565403
  0
ARC
  8
_0-2_決定
  6
CONTINUOUS
 62
    7
 10
913.39110751533121
 20
537.74881919323479
 40
0.5639707994416051
 50
91.342900282226864
 51
137.11259035366118
  0
ARC
  8
_0-2_決定
  6
CONTINUOUS
 62
    7
 10
913.24546840443077
 20
537.43986358443397
 40
0.8827602627380336
 50
33.932559252947364
 51
81.372553748169864
  0
ARC
  8
_0-2_決定
  6
CONTINUOUS
 62
    7
 10
910.86935253441288
 20
535.66334259719008
 40
3.8487265229289469
 50
15.511819766124397
 51
36.130164182247292
  0
ARC
  8
_0-2_決定
  6
CONTINUOUS
 62
    7
 10
905.60515801927431
 20
533.98281749052637
 40
9.3729950978008301
 50
359.57098102819583
 51
16.804622995612092
  0
ARC
  8
_0-2_決定
  6
CONTINUOUS
 62
    7
 10
931.62368007731288
 20
633.43344172180787
 40
3.7550454642025639
 50
1.2084493885610872
 51
49.590169752995557
  0
ARC
  8
_0-2_決定
  6
CONTINUOUS
 62
    7
 10
929.78876731983087
 20
631.49123310536845
 40
6.4248636239034198
 50
48.358394616625141
 51
91.880900654082367
  0
ARC
  8
_0-2_決定
  6
CONTINUOUS
 62
    7
 10
929.56321799141335
 20
630.88728674722336
 40
7.025363667843382
 50
89.880338519461958
 51
139.04002404504465
  0
ARC
  8
_0-2_決定
  6
CONTINUOUS
 62
    7
 10
927.0517207180086
 20
633.42637012216665
 40
3.4749012935833976
 50
143.51405948216365
 51
178.57747711882385
  0
ARC
  8
_0-2_決定
  6
CONTINUOUS
 62
    7
 10
927.21362621524918
 20
633.61743928934027
 40
3.6372460910941138
 50
181.65115837102681
 51
230.45583224995508
  0
ARC
  8
_0-2_決定
  6
CONTINUOUS
 62
    7
 10
929.38980587849244
 20
635.88673193214186
 40
6.7767074417491813
 50
228.48268849654522
 51
271.59042294645417
  0
ARC
  8
_0-2_決定
  6
CONTINUOUS
 62
    7
 10
929.6350524516356
 20
635.76551087743428
 40
6.6531213502138318
 50
269.50772175780446
 51
319.8161500740315
  0
ARC
  8
_0-2_決定
  6
CONTINUOUS
 62
    7
 10
931.7517582893646
 20
633.55903076351149
 40
3.6264288705697982
 50
324.87720907431321
 51
359.26695140166765
  0
ARC
  8
_0-2_決定
  6
CONTINUOUS
 62
    7
 10
772.97744442726753
 20
542.5130830264643
 40
1.2004480164985518
 50
270.02137924052232
 51
359.97862075949126
  0
ARC
  8
_0-2_決定
  6
CONTINUOUS
 62
    7
 10
772.88471247084203
 20
542.62059188929038
 40
1.3112717000450425
 50
184.72249793392766
 51
274.07491277604237
  0
ARC
  8
_0-2_決定
  6
CONTINUOUS
 62
    7
 10
772.91269358582042
 20
542.37203366364065
 40
1.3421859312398694
 50
87.215672419020777
 51
173.98691687098244
  0
ARC
  8
_0-2_決定
  6
CONTINUOUS
 62
    7
 10
772.86463944341472
 20
542.39938217675524
 40
1.3181272497726098
 50
4.9289053857577798
 51
85.071094614255756
  0
ARC
  8
_0-2_決定
  6
CONTINUOUS
 62
    7
 10
882.58303667770747
 20
596.7458740163155
 40
1.3952496627981121
 50
319.11564369059261
 51
358.63491801728151
  0
ARC
  8
_0-2_決定
  6
CONTINUOUS
 62
    7
 10
881.33545719107303
 20
597.9332862185438
 40
3.1167184100061562
 50
294.29715180378622
 51
317.6238825894896
  0
ARC
  8
_0-2_決定
  6
CONTINUOUS
 62
    7
 10
879.53741102046502
 20
601.61344957338224
 40
7.2118218532541398
 50
280.06583245673056
 51
295.28638494056923
  0
ARC
  8
_0-2_決定
  6
CONTINUOUS
 62
    7
 10
878.6178125004833
 20
606.29049933633576
 40
11.977930772725902
 50
269.80903426259579
 51
280.48673538568295
  0
ARC
  8
_0-2_決定
  6
CONTINUOUS
 62
    7
 10
878.34017496122988
 20
603.97734464792984
 40
9.6676325634402875
 50
242.10998420360221
 51
271.40897596601809
  0
ARC
  8
_0-2_決定
  6
CONTINUOUS
 62
    7
 10
874.70795156700001
 20
596.93236276050209
 40
1.7439587228257882
 50
187.23813950502569
 51
239.31163646465194
  0
ARC
  8
_0-2_決定
  6
CONTINUOUS
 62
    7
 10
874.43072906021916
 20
596.62943653130458
 40
1.4552189831924045
 50
137.49642900480291
 51
176.72246768272092
  0
ARC
  8
_0-2_決定
  6
CONTINUOUS
 62
    7
 10
876.01706667825988
 20
595.27028521896557
 40
3.543701684038381
 50
116.82537731996625
 51
138.62461276425816
  0
ARC
  8
_0-2_決定
  6
CONTINUOUS
 62
    7
 10
878.25826807381213
 20
590.55084953825531
 40
8.7676133880709948
 50
87.910826371014792
 51
115.97752800586895
  0
ARC
  8
_0-2_決定
  6
CONTINUOUS
 62
    7
 10
878.74216013161094
 20
590.73610683483867
 40
8.5781012776743495
 50
60.102681934534509
 51
91.0972754518816
  0
ARC
  8
_0-2_決定
  6
CONTINUOUS
 62
    7
 10
881.94328420891816
 20
596.42042830913476
 40
2.0554821808193666
 50
8.172839636344305
 51
58.479739737892963
  0
ARC
  8
_0-2_決定
  6
CONTINUOUS
 62
    7
 10
913.77468482356812
 20
620.01998918826212
 40
2.6048536100311752
 50
305.24533522097016
 51
2.0382485664187286
  0
ARC
  8
_0-2_決定
  6
CONTINUOUS
 62
    7
 10
914.57114570792328
 20
619.18997540792611
 40
1.4773557103335917
 50
270.26157644309086
 51
298.57996981197846
  0
ARC
  8
_0-2_決定
  6
CONTINUOUS
 62
    7
 10
914.65705985167403
 20
619.46704734060506
 40
1.7561976372395454
 50
197.03240408924097
 51
267.41622729883795
  0
ARC
  8
_0-2_決定
  6
CONTINUOUS
 62
    7
 10
915.98247885812214
 20
620.0679089724897
 40
3.2049006017265107
 50
179.2003804557219
 51
200.36443360790491
  0
ARC
  8
_0-2_決定
  6
CONTINUOUS
 62
    7
 10
915.76821928941422
 20
620.17848159323444
 40
2.9910538053409135
 50
128.70477424178645
 51
181.26143880200607
  0
ARC
  8
_0-2_決定
  6
CONTINUOUS
 62
    7
 10
914.59352871968292
 20
621.40346467127915
 40
1.3092638209316427
 50
90.684379488394924
 51
122.09470117965388
  0
ARC
  8
_0-2_決定
  6
CONTINUOUS
 62
    7
 10
914.52869053765482
 20
621.28463553718427
 40
1.4288468621514261
 50
48.370450243137945
 51
88.026730784158431
  0
ARC
  8
_0-2_決定
  6
CONTINUOUS
 62
    7
 10
913.54985665755726
 20
620.27717512372635
 40
2.8328162744508303
 50
356.67018354288638
 51
47.108929996926342
  0
ARC
  8
_0-2_決定
  6
CONTINUOUS
 62
    7
 10
949.58756143097708
 20
598.44678859383794
 40
2.9910538053406421
 50
308.70477424179762
 51
1.2614388020171878
  0
ARC
  8
_0-2_決定
  6
CONTINUOUS
 62
    7
 10
950.76225200070871
 20
597.22180551579436
 40
1.3092638209321468
 50
270.68437948838846
 51
302.09470117964742
  0
ARC
  8
_0-2_決定
  6
CONTINUOUS
 62
    7
 10
950.82709018273613
 20
597.34063464988867
 40
1.4288468621512704
 50
228.37045024315353
 51
268.02673078417399
  0
ARC
  8
_0-2_決定
  6
CONTINUOUS
 62
    7
 10
951.80592406283438
 20
598.34809506334659
 40
2.8328162744511398
 50
176.67018354288388
 51
227.10892999692382
  0
ARC
  8
_0-2_決定
  6
CONTINUOUS
 62
    7
 10
951.58109589682317
 20
598.60528099881117
 40
2.604853610031042
 50
125.24533522097607
 51
182.03824856642461
  0
ARC
  8
_0-2_決定
  6
CONTINUOUS
 62
    7
 10
950.78463501246779
 20
599.43529477914626
 40
1.4773557103341544
 50
90.261576443085247
 51
118.57996981197287
  0
ARC
  8
_0-2_決定
  6
CONTINUOUS
 62
    7
 10
950.69872086871726
 20
599.15822284646788
 40
1.7561976372395454
 50
17.032404089240956
 51
87.416227298837953
  0
ARC
  8
_0-2_決定
  6
CONTINUOUS
 62
    7
 10
949.37330186226916
 20
598.55736121458415
 40
3.2049006017263793
 50
359.20038045570823
 51
20.364433607891264
  0
ARC
  8
_0-2_決定
  6
CONTINUOUS
 62
    7
 10
917.62388994422713
 20
555.23067576648566
 40
2.3569581156333808
 50
297.10819654692114
 51
357.12932412253696
  0
ARC
  8
_0-2_決定
  6
CONTINUOUS
 62
    7
 10
916.45324520297982
 20
556.88130729473289
 40
4.3693220473932479
 50
269.01180813172851
 51
300.91250237691696
  0
ARC
  8
_0-2_決定
  6
CONTINUOUS
 62
    7
 10
916.3217324832342
 20
556.77612606479147
 40
4.263860805551424
 50
226.7072350564211
 51
270.75464526512695
  0
ARC
  8
_0-2_決定
  6
CONTINUOUS
 62
    7
 10
914.96356581408099
 20
555.20021758062592
 40
2.1874295146955651
 50
182.29467901770192
 51
224.29444749009326
  0
ARC
  8
_0-2_決定
  6
CONTINUOUS
 62
    7
 10
914.90837291980938
 20
555.0169266654151
 40
2.1326312480202163
 50
113.50286621335835
 51
177.42781064383902
  0
ARC
  8
_0-2_決定
  6
CONTINUOUS
 62
    7
 10
916.25978840786274
 20
552.76633237022588
 40
4.7477718576666286
 50
88.574606853582125
 51
117.63097302894383
  0
ARC
  8
_0-2_決定
  6
CONTINUOUS
 62
    7
 10
916.49848211640938
 20
553.04191761536651
 40
4.4723435848872279
 50
48.910194882454469
 51
91.545104052408973
  0
ARC
  8
_0-2_決定
  6
CONTINUOUS
 62
    7
 10
918.05148970868686
 20
555.07459174598716
 40
1.926776262679726
 50
1.1313534149478413
 51
43.983139854436189
  0
ARC
  8
_0-2_決定
  6
CONTINUOUS
 62
    7
 10
952.03389852963392
 20
564.2527221562184
 40
7.7442235912883453
 50
312.82265611599809
 51
0.4432713816238226
  0
ARC
  8
_0-2_決定
  6
CONTINUOUS
 62
    7
 10
954.3013915200811
 20
562.27525453988949
 40
4.7632337821397357
 50
270.92022548562511
 51
308.98295590390285
  0
ARC
  8
_0-2_決定
  6
CONTINUOUS
 62
    7
 10
954.48788351515304
 20
562.5136845504752
 40
5.0022589062227274
 50
208.16398179060997
 51
268.74003892366812
  0
ARC
  8
_0-2_決定
  6
CONTINUOUS
 62
    7
 10
956.84662526652255
 20
564.1678774966515
 40
7.870066314072929
 50
178.94607405283736
 51
210.67659870500856
  0
ARC
  8
_0-2_決定
  6
CONTINUOUS
 62
    7
 10
956.36941293417692
 20
564.32888491601398
 40
7.3915404360935932
 50
131.64235955980948
 51
180.12596115841149
  0
ARC
  8
_0-2_決定
  6
CONTINUOUS
 62
    7
 10
954.47381117407986
 20
566.09651360623411
 40
4.8170766013209159
 50
91.14098685161548
 51
128.76219453791873
  0
ARC
  8
_0-2_決定
  6
CONTINUOUS
 62
    7
 10
954.24900314052138
 20
565.83580077887507
 40
5.0784701017057259
 50
27.396485954319637
 51
88.545726065044178
  0
ARC
  8
_0-2_決定
  6
CONTINUOUS
 62
    7
 10
952.2635250234955
 20
564.39174062632526
 40
7.5147817066577538
 50
359.39685581663554
 51
30.207140350233463
  0
ARC
  8
_0-2_決定
  6
CONTINUOUS
 62
    7
 10
871.20773302557404
 20
578.76900172277112
 40
0.971793419823197
 50
308.89295229982662
 51
356.67482458549637
  0
ARC
  8
_0-2_決定
  6
CONTINUOUS
 62
    7
 10
869.94944957584551
 20
580.32242949136639
 40
2.970895677210486
 50
284.99034469320435
 51
308.97011674325722
  0
ARC
  8
_0-2_決定
  6
CONTINUOUS
 62
    7
 10
868.21277485127916
 20
586.43033066538771
 40
9.320655636480053
 50
268.55596908892039
 51
285.59110626101062
  0
ARC
  8
_0-2_決定
  6
CONTINUOUS
 62
    7
 10
867.80092251875908
 20
587.24727946433768
 40
10.136189330291721
 50
254.65097305341004
 51
271.00037847361375
  0
ARC
  8
_0-2_決定
  6
CONTINUOUS
 62
    7
 10
865.75255558729191
 20
580.28244475938311
 40
2.8805954781554211
 50
228.8727266122703
 51
257.27191768565558
  0
ARC
  8
_0-2_決定
  6
CONTINUOUS
 62
    7
 10
864.43145224861178
 20
578.74563064146389
 40
0.8541993933148011
 50
182.21374084403558
 51
227.82004611217042
  0
ARC
  8
_0-2_決定
  6
CONTINUOUS
 62
    7
 10
864.37586686293059
 20
578.60430566070977
 40
0.8052960728412952
 50
121.26751477121131
 51
172.2690630928083
  0
ARC
  8
_0-2_決定
  6
CONTINUOUS
 62
    7
 10
865.9603998133224
 20
576.11401164978292
 40
3.7568192805935743
 50
101.71050118859856
 51
122.21062685160496
  0
ARC
  8
_0-2_決定
  6
CONTINUOUS
 62
    7
 10
867.87423559066588
 20
568.77751090383265
 40
11.335598118637471
 50
89.476069676507436
 51
103.65652756498994
  0
ARC
  8
_0-2_決定
  6
CONTINUOUS
 62
    7
 10
868.18463234046339
 20
570.21452971455312
 40
9.9002642560622984
 50
74.454787101869229
 51
91.196564425165704
  0
ARC
  8
_0-2_決定
  6
CONTINUOUS
 62
    7
 10
870.27147559610262
 20
577.29773005104039
 40
2.5194016060674338
 50
46.744890546034867
 51
77.007638687372435
  0
ARC
  8
_0-2_決定
  6
CONTINUOUS
 62
    7
 10
871.56573216997913
 20
578.69885301201452
 40
0.612313314913651
 50
1.2897348071659318
 51
45.107446220195953
  0
ARC
  8
_0-2_決定
  6
CONTINUOUS
 62
    7
 10
724.19472630771963
 20
580.49580114601258
 40
4.5868247042314918
 50
272.28860565917898
 51
357.71139434081732
  0
ARC
  8
_0-2_決定
  6
CONTINUOUS
 62
    7
 10
724.56105841267174
 20
580.49580114601258
 40
4.5868247042314918
 50
182.28860565918271
 51
267.71139434082102
  0
ARC
  8
_0-2_決定
  6
CONTINUOUS
 62
    7
 10
724.56105841267174
 20
580.12946904106025
 40
4.5868247042316392
 50
92.288605659180845
 51
177.71139434081917
  0
ARC
  8
_0-2_決定
  6
CONTINUOUS
 62
    7
 10
724.19472630771963
 20
580.12946904106025
 40
4.5868247042316392
 50
2.2886056591808512
 51
87.711394340819155
  0
ARC
  8
_0-2_決定
  6
CONTINUOUS
 62
    7
 10
744.35742102713243
 20
621.2377895409337
 40
10.823961379616488
 50
345.52705763643507
 51
1.4550294825522048
  0
ARC
  8
_0-2_決定
  6
CONTINUOUS
 62
    7
 10
752.22280082140117
 20
619.09407505587376
 40
2.6746810253902882
 50
318.23797085438952
 51
347.88297301803732
  0
ARC
  8
_0-2_決定
  6
CONTINUOUS
 62
    7
 10
753.75873085232627
 20
617.7387904108499
 40
0.6264484374502881
 50
271.75280953864188
 51
317.13510002214099
  0
ARC
  8
_0-2_決定
  6
CONTINUOUS
 62
    7
 10
753.88332542415867
 20
618.00810314813862
 40
0.9016535741568554
 50
216.4323594360346
 51
263.28486945976027
  0
ARC
  8
_0-2_決定
  6
CONTINUOUS
 62
    7
 10
755.99148033619883
 20
619.59795799699657
 40
3.5420641244507816
 50
195.47897516786514
 51
216.87160479568411
  0
ARC
  8
_0-2_決定
  6
CONTINUOUS
 62
    7
 10
761.49150926058724
 20
621.35726682785662
 40
9.3149127245101155
 50
179.04428962764331
 51
196.8792121543681
  0
ARC
  8
_0-2_決定
  6
CONTINUOUS
 62
    7
 10
761.72029506142167
 20
621.57554299863386
 40
9.5426100578870372
 50
164.20731390938965
 51
180.37771464467929
  0
ARC
  8
_0-2_決定
  6
CONTINUOUS
 62
    7
 10
756.23942902568217
 20
623.30524277927952
 40
3.8018078742584294
 50
142.63288690481488
 51
166.81166862409154
  0
ARC
  8
_0-2_決定
  6
CONTINUOUS
 62
    7
 10
753.82180012537503
 20
625.15800726520149
 40
0.7559041282734726
 50
93.329981121828695
 51
143.02719909808158
  0
ARC
  8
_0-2_決定
  6
CONTINUOUS
 62
    7
 10
753.66956292736916
 20
625.11465859080135
 40
0.8052960728415714
 50
31.267514771224192
 51
82.269063092821156
  0
ARC
  8
_0-2_決定
  6
CONTINUOUS
 62
    7
 10
751.17926891644174
 20
623.53012564041046
 40
3.7568192805940153
 50
11.710501188582692
 51
32.210626851589097
  0
ARC
  8
_0-2_決定
  6
CONTINUOUS
 62
    7
 10
743.84276817049317
 20
621.61628986306641
 40
11.335598118636327
 50
359.47606967650808
 51
13.656527564990595
  0
ARC
  8
_0-2_決定
  6
CONTINUOUS
 62
    7
 10
780.36768593837849
 20
574.60441825983298
 40
10.796516084428569
 50
56.936685338569824
 51
72.702257720608984
  0
ARC
  8
_0-2_決定
  6
CONTINUOUS
 62
    7
 10
784.67532239611296
 20
581.03006512945331
 40
3.0630705032248646
 50
31.108562848698092
 51
58.891437151317568
  0
ARC
  8
_0-2_決定
  6
CONTINUOUS
 62
    7
 10
786.69904545615054
 20
582.26041958888902
 40
0.6947469871820402
 50
347.71837687438921
 51
30.462176967273226
  0
ARC
  8
_0-2_決定
  6
CONTINUOUS
 62
    7
 10
786.64947626466358
 20
582.53149682250512
 40
0.8402589816390566
 50
282.95794107614427
 51
330.09976965778424
  0
ARC
  8
_0-2_決定
  6
CONTINUOUS
 62
    7
 10
785.57770469831951
 20
586.38441788136095
 40
4.8387629989241336
 50
266.92208264043779
 51
285.09592927454565
  0
ARC
  8
_0-2_決定
  6
CONTINUOUS
 62
    7
 10
785.6621484498578
 20
593.12210861504093
 40
11.574594153578929
 50
255.57050128745902
 51
268.29563525295362
  0
ARC
  8
_0-2_決定
  6
CONTINUOUS
 62
    7
 10
785.98809878201052
 20
592.22085192724069
 40
10.796516084428626
 50
236.93668533858212
 51
252.70225772062128
  0
ARC
  8
_0-2_決定
  6
CONTINUOUS
 62
    7
 10
781.68046232427855
 20
585.795205057619
 40
3.0630705032248646
 50
211.10856284868245
 51
238.89143715130194
  0
ARC
  8
_0-2_決定
  6
CONTINUOUS
 62
    7
 10
779.65673926424051
 20
584.56485059818328
 40
0.6947469871815934
 50
167.71837687436255
 51
210.46217696724656
  0
ARC
  8
_0-2_決定
  6
CONTINUOUS
 62
    7
 10
779.70630845572805
 20
584.29377336456832
 40
0.8402589816386971
 50
102.95794107619258
 51
150.09976965783255
  0
ARC
  8
_0-2_決定
  6
CONTINUOUS
 62
    7
 10
780.77808002207144
 20
580.44085230571102
 40
4.8387629989250289
 50
86.922082640436713
 51
105.09592927454453
  0
ARC
  8
_0-2_決定
  6
CONTINUOUS
 62
    7
 10
780.69363627053463
 20
573.70316157203195
 40
11.574594153578751
 50
75.570501287465305
 51
88.295635252959897
  0
ARC
  8
_0-2_決定
  6
CONTINUOUS
 62
    7
 10
716.75576818704883
 20
548.5899743855889
 40
2.4233585942317251
 50
298.11858862324857
 51
358.17114661185576
  0
ARC
  8
_0-2_決定
  6
CONTINUOUS
 62
    7
 10
715.87891122103633
 20
549.94752401023607
 40
4.0361532899966335
 50
268.56582284685095
 51
300.01482731678323
  0
ARC
  8
_0-2_決定
  6
CONTINUOUS
 62
    7
 10
715.76402437068759
 20
549.83915396606835
 40
3.9265433624857948
 50
224.38489740096219
 51
270.20236091842514
  0
ARC
  8
_0-2_決定
  6
CONTINUOUS
 62
    7
 10
714.59142511876678
 20
548.58830340337522
 40
2.2148257191890584
 50
181.95785998143356
 51
222.47732855759918
  0
ARC
  8
_0-2_決定
  6
CONTINUOUS
 62
    7
 10
714.78703401207349
 20
548.3905142284666
 40
2.4122348568284044
 50
117.37409736399924
 51
177.0981256548348
  0
ARC
  8
_0-2_決定
  6
CONTINUOUS
 62
    7
 10
715.76013765465723
 20
547.08519523427913
 40
4.027478994296855
 50
89.747416934951076
 51
121.13187413568664
  0
ARC
  8
_0-2_決定
  6
CONTINUOUS
 62
    7
 10
715.85464463770427
 20
547.24460125368853
 40
3.8687952515365369
 50
44.840679188439594
 51
91.13675441573163
  0
ARC
  8
_0-2_決定
  6
CONTINUOUS
 62
    7
 10
716.90644056353472
 20
548.45548300993175
 40
2.2721706857571551
 50
1.4413171471399311
 51
41.890600299431526
  0
ARC
  8
_0-2_決定
  6
CONTINUOUS
 62
    7
 10
770.90443497264823
 20
712.57599703817732
 40
7.6779755695002283
 50
273.53535005356855
 51
358.03429915241821
  0
ARC
  8
_0-2_決定
  6
CONTINUOUS
 62
    7
 10
771.63999388277034
 20
712.57473461611107
 40
7.6665831339896737
 50
181.95918281513281
 51
268.04081718486719
  0
ARC
  8
_0-2_決定
  6
CONTINUOUS
 62
    7
 10
771.44740529929322
 20
712.03841146168634
 40
7.4745448724801324
 50
90.532855914775382
 51
177.8974948792378
  0
ARC
  8
_0-2_決定
  6
CONTINUOUS
 62
    7
 10
771.30881564992762
 20
712.24355638326847
 40
7.2694049145484616
 50
0.5444549549613604
 51
89.455545045038633
  0
ARC
  8
_0-2_決定
  6
CONTINUOUS
 62
    7
 10
1056.203832523493
 20
604.66445287452723
 40
5.7281713847233542
 50
321.67938402193352
 51
37.011055173534146
  0
ARC
  8
_0-2_決定
  6
CONTINUOUS
 62
    7
 10
1050.4083279063134
 20
608.36742921618873
 40
12.589959971984628
 50
300.07664908794641
 51
324.81373082035691
  0
ARC
  8
_0-2_決定
  6
CONTINUOUS
 62
    7
 10
1044.8061593941586
 20
616.94613413036132
 40
22.827756168698347
 50
277.48002348489126
 51
301.45367507080221
  0
ARC
  8
_0-2_決定
  6
CONTINUOUS
 62
    7
 10
1038.1054344850368
 20
616.06245954612962
 40
23.803596948480447
 50
266.94754495681173
 51
293.97538992496879
  0
ARC
  8
_0-2_決定
  6
CONTINUOUS
 62
    7
 10
1037.7610211359729
 20
604.02653918891122
 40
11.770160552905294
 50
240.79472300570177
 51
265.50167669002383
  0
ARC
  8
_0-2_決定
  6
CONTINUOUS
 62
    7
 10
1034.974454169922
 20
598.52064550781495
 40
5.6102767042198725
 50
175.99348409760648
 51
238.19762088989455
  0
ARC
  8
_0-2_決定
  6
CONTINUOUS
 62
    7
 10
1033.951944196898
 20
602.36081731254581
 40
5.728171384723125
 50
141.67938402193121
 51
217.01105517353182
  0
ARC
  8
_0-2_決定
  6
CONTINUOUS
 62
    7
 10
1039.747448814079
 20
598.65784097088431
 40
12.589959971985078
 50
120.07664908794864
 51
144.8137308203591
  0
ARC
  8
_0-2_決定
  6
CONTINUOUS
 62
    7
 10
1045.3496173262317
 20
590.07913605671172
 40
22.827756168697896
 50
97.480023484888036
 51
121.45367507079898
  0
ARC
  8
_0-2_決定
  6
CONTINUOUS
 62
    7
 10
1052.2687217973935
 20
590.50075153442822
 40
24.314529757446728
 50
87.526931989076104
 51
114.00315528441332
  0
ARC
  8
_0-2_決定
  6
CONTINUOUS
 62
    7
 10
1052.4762212560383
 20
603.16395711746418
 40
11.659097520194683
 50
61.732219392060664
 51
85.860232178164509
  0
ARC
  8
_0-2_決定
  6
CONTINUOUS
 62
    7
 10
1055.1064258297706
 20
608.53532948553254
 40
5.6871924341487627
 50
355.73762308631149
 51
59.441588265987583
  0
ARC
  8
_0-2_決定
  6
CONTINUOUS
 62
    7
 10
1107.3687600440983
 20
662.25128172046595
 40
27.107216866988555
 50
283.67629472941456
 51
301.06876747027604
  0
ARC
  8
_0-2_決定
  6
CONTINUOUS
 62
    7
 10
1118.5175542306201
 20
643.46235866196844
 40
5.2621229080115643
 50
302.66793200019742
 51
322.96046638623051
  0
ARC
  8
_0-2_決定
  6
CONTINUOUS
 62
    7
 10
1121.6850220943572
 20
641.09905147502423
 40
1.3103877181881414
 50
322.01879957678386
 51
9.3806455248649812
  0
ARC
  8
_0-2_決定
  6
CONTINUOUS
 62
    7
 10
1121.9287961200403
 20
640.91145387739687
 40
1.12318150811533
 50
20.927288062752034
 51
63.047136928854314
  0
ARC
  8
_0-2_決定
  6
CONTINUOUS
 62
    7
 10
1120.5320001062048
 20
638.15309865204051
 40
4.2150345986821867
 50
63.117400973595579
 51
82.558761420693443
  0
ARC
  8
_0-2_決定
  6
CONTINUOUS
 62
    7
 10
1119.1533562904665
 20
628.97539523781427
 40
13.49517219425454
 50
81.801166531368693
 51
92.954030547536561
  0
ARC
  8
_0-2_決定
  6
CONTINUOUS
 62
    7
 10
1119.6798784528287
 20
612.84081558105117
 40
29.63702278425513
 50
92.363086320918271
 51
104.66275215475667
  0
ARC
  8
_0-2_決定
  6
CONTINUOUS
 62
    7
 10
1118.5870136762928
 20
615.17399500450745
 40
27.107210750893536
 50
103.67630005046551
 51
121.06877279132699
  0
ARC
  8
_0-2_決定
  6
CONTINUOUS
 62
    7
 10
1107.4382204897729
 20
633.96291152510537
 40
5.2621229080120688
 50
122.6679320002163
 51
142.96046638624935
  0
ARC
  8
_0-2_決定
  6
CONTINUOUS
 62
    7
 10
1104.2707526260342
 20
636.32621871204856
 40
1.3103877181881414
 50
142.01879957678383
 51
189.38064552486497
  0
ARC
  8
_0-2_決定
  6
CONTINUOUS
 62
    7
 10
1104.0840794157498
 20
636.46679141171705
 40
1.1615013340907931
 50
197.7529019852241
 51
240.82591173977121
  0
ARC
  8
_0-2_決定
  6
CONTINUOUS
 62
    7
 10
1105.3273065677677
 20
638.63457897010949
 40
3.6604318165420082
 50
240.3751957461551
 51
261.68398863686684
  0
ARC
  8
_0-2_決定
  6
CONTINUOUS
 62
    7
 10
1106.5893604783701
 20
646.78208759914241
 40
11.905015104228504
 50
261.34522921474939
 51
272.92995557028132
  0
ARC
  8
_0-2_決定
  6
CONTINUOUS
 62
    7
 10
1105.8304499581423
 20
665.4476660009002
 40
30.585614201182892
 50
272.56246151063863
 51
285.0607051122422
  0
ARC
  8
_0-2_決定
  6
CONTINUOUS
 62
    7
 10
990.67419455816002
 20
689.31620629277631
 40
11.275684487293029
 50
155.9432930302857
 51
171.65526097676695
  0
ARC
  8
_0-2_決定
  6
CONTINUOUS
 62
    7
 10
981.90282263545578
 20
690.46952205378352
 40
2.4333737431890214
 50
168.54866867959223
 51
200.11595928677849
  0
ARC
  8
_0-2_決定
  6
CONTINUOUS
 62
    7
 10
980.12536582837902
 20
689.84104524524264
 40
0.5486064214830975
 50
202.32710155500095
 51
254.40581977184178
  0
ARC
  8
_0-2_決定
  6
CONTINUOUS
 62
    7
 10
980.24838442914586
 20
689.99717633508476
 40
0.7360486212655714
 50
248.43863241167253
 51
301.95022540379711
  0
ARC
  8
_0-2_決定
  6
CONTINUOUS
 62
    7
 10
979.04685506678391
 20
691.96227857914869
 40
3.039350371690686
 50
301.56584466334971
 51
324.39142545595763
  0
ARC
  8
_0-2_決定
  6
CONTINUOUS
 62
    7
 10
971.64094686308522
 20
697.59792459583196
 40
12.344728250200927
 50
323.13906796692243
 51
336.68792292506828
  0
ARC
  8
_0-2_決定
  6
CONTINUOUS
 62
    7
 10
973.69222574953733
 20
697.09470644911505
 40
10.267721120708771
 50
334.73652164853826
 51
350.45807008875909
  0
ARC
  8
_0-2_決定
  6
CONTINUOUS
 62
    7
 10
980.63519052024958
 20
696.05829448447162
 40
3.2515643354820245
 50
348.18687086404003
 51
14.868180020378588
  0
ARC
  8
_0-2_決定
  6
CONTINUOUS
 62
    7
 10
983.20379489617153
 20
696.74635360399009
 40
0.5924364898426821
 50
14.294836321054813
 51
72.910801624338902
  0
ARC
  8
_0-2_決定
  6
CONTINUOUS
 62
    7
 10
983.09064140738678
 20
696.55051420963991
 40
0.8144544217388882
 50
69.348287753328094
 51
120.44989715424877
  0
ARC
  8
_0-2_決定
  6
CONTINUOUS
 62
    7
 10
984.20318507743332
 20
694.61522702053855
 40
3.0467098433395994
 50
120.04217516047908
 51
143.37933948254457
  0
ARC
  8
_0-2_決定
  6
CONTINUOUS
 62
    7
 10
988.5677530231527
 20
691.06556434953654
 40
8.6706218710431173
 50
141.7572427679724
 51
160.8308521452299
  0
ARC
  8
_0-2_決定
  6
CONTINUOUS
 62
    7
 10
1185.4636390753751
 20
623.5925289735967
 40
8.120558904856388
 50
2.2591404206839192
 51
90.605051947646913
  0
ARC
  8
_0-2_決定
  6
CONTINUOUS
 62
    7
 10
1185.6369022143915
 20
623.23007996476679
 40
8.4865087477326266
 50
91.748990159803242
 51
175.3868174718659
  0
ARC
  8
_0-2_決定
  6
CONTINUOUS
 62
    7
 10
1185.325864830817
 20
624.26820220367654
 40
8.1557330220844833
 50
182.49872745170418
 51
270.3654649166225
  0
ARC
  8
_0-2_決定
  6
CONTINUOUS
 62
    7
 10
1185.1734001403643
 20
624.53786419643609
 40
8.4277102495547975
 50
271.39033579895533
 51
355.74547183271807
  0
ARC
  8
_0-2_決定
  6
CONTINUOUS
 62
    7
 10
1054.1759735025382
 20
703.38552061218024
 40
29.698347555933914
 50
147.109813524928
 51
156.3212201165727
  0
ARC
  8
_0-2_決定
  6
CONTINUOUS
 62
    7
 10
1035.687163546344
 20
715.74043750930628
 40
7.4714530014152523
 50
131.07687223954406
 51
149.67653861656092
  0
ARC
  8
_0-2_決定
  6
CONTINUOUS
 62
    7
 10
1031.0917494280841
 20
721.11731575671251
 40
0.4045932678862835
 50
77.707497369346854
 51
140.87259506903786
  0
ARC
  8
_0-2_決定
  6
CONTINUOUS
 62
    7
 10
1030.7219303021245
 20
720.90920651177555
 40
0.75632095719723
 50
1.7749858324324508
 51
52.924765727714956
  0
ARC
  8
_0-2_決定
  6
CONTINUOUS
 62
    7
 10
1026.3722972763885
 20
720.62041410115569
 40
5.1151286410271997
 50
346.11172731603455
 51
3.4994148684882265
  0
ARC
  8
_0-2_決定
  6
CONTINUOUS
 62
    7
 10
1004.8327741289645
 20
725.29433783728086
 40
27.154211446715696
 50
335.68296684378441
 51
347.44713551036972
  0
ARC
  8
_0-2_決定
  6
CONTINUOUS
 62
    7
 10
1003.8657117139422
 20
724.51383521709317
 40
27.736276489522073
 50
328.04087721785334
 51
337.97546780419071
  0
ARC
  8
_0-2_決定
  6
CONTINUOUS
 62
    7
 10
1021.5708698388969
 20
713.25684856427051
 40
6.7586534485485386
 50
310.69677292595526
 51
329.55960915772715
  0
ARC
  8
_0-2_決定
  6
CONTINUOUS
 62
    7
 10
1025.4603610997335
 20
708.61588925843171
 40
0.7080755512162019
 50
263.31132124986152
 51
316.96128560673196
  0
ARC
  8
_0-2_決定
  6
CONTINUOUS
 62
    7
 10
1026.0358842002156
 20
708.49663166354333
 40
0.8797800038951186
 50
176.35043267629371
 51
221.59038294071493
  0
ARC
  8
_0-2_決定
  6
CONTINUOUS
 62
    7
 10
1032.8451786378409
 20
708.64440191588869
 40
7.6878380140020166
 50
166.24278344678834
 51
180.68394925560636
  0
ARC
  8
_0-2_決定
  6
CONTINUOUS
 62
    7
 10
1052.159963942529
 20
704.3035171985523
 40
27.48340523704341
 50
156.38598242199498
 51
167.02846564888236
  0
CIRCLE
  8
_0-2_決定
  6
CONTINUOUS
 62
    7
 10
1148.5978863601954
 20
626.73263509353626
 40
7.3399999999999999
  0
ARC
  8
_0-2_決定
  6
CONTINUOUS
 62
    7
 10
1059.8433603033266
 20
652.37601006598425
 40
7.9500672590650581
 50
330.42897376240217
 51
18.606654244640602
  0
ARC
  8
_0-2_決定
  6
CONTINUOUS
 62
    7
 10
1057.154960663112
 20
653.71335360870694
 40
10.94949220974515
 50
288.21663003012264
 51
331.2849949284103
  0
ARC
  8
_0-2_決定
  6
CONTINUOUS
 62
    7
 10
1056.9948835458135
 20
653.99628533984128
 40
11.268465116654387
 50
237.1226893111558
 51
288.54004769145092
  0
ARC
  8
_0-2_決定
  6
CONTINUOUS
 62
    7
 10
1055.7554688469215
 20
651.13318368939213
 40
8.2071939888576324
 50
198.62053493113947
 51
233.5368617599762
  0
ARC
  8
_0-2_決定
  6
CONTINUOUS
 62
    7
 10
1055.6319172055871
 20
651.00364857908994
 40
8.0491804397272926
 50
134.62272016375098
 51
198.02754477235422
  0
ARC
  8
_0-2_決定
  6
CONTINUOUS
 62
    7
 10
1058.5297812050899
 20
648.80707830596657
 40
11.65972941029634
 50
107.73585090935805
 51
137.17686979543578
  0
ARC
  8
_0-2_決定
  6
CONTINUOUS
 62
    7
 10
1058.5566944123193
 20
649.18270965495162
 40
11.3110171848782
 50
57.597313045866159
 51
108.44535236569423
  0
ARC
  8
_0-2_決定
  6
CONTINUOUS
 62
    7
 10
1060.1793739140649
 20
652.61868024764112
 40
7.5551856291122998
 50
17.675536211965373
 51
54.021671752714653
  0
ARC
  8
_0-2_決定
  6
CONTINUOUS
 62
    7
 10
1082.2153582441774
 20
567.44263509353652
 40
3.0511448160183372
 50
346.15745792574324
 51
13.842542074256777
  0
ARC
  8
_0-2_決定
  6
CONTINUOUS
 62
    7
 10
1080.5012864150985
 20
567.04832467849508
 40
4.8098523534779893
 50
13.518042007514611
 51
32.499698158134755
  0
ARC
  8
_0-2_決定
  6
CONTINUOUS
 62
    7
 10
1077.4710880072971
 20
565.05856479798433
 40
8.4347411525485061
 50
32.839621211046818
 51
47.052726688819824
  0
ARC
  8
_0-2_決定
  6
CONTINUOUS
 62
    7
 10
1072.7153266037576
 20
560.07441231250789
 40
15.323502833192519
 50
46.733784958964911
 51
68.714926411885543
  0
ARC
  8
_0-2_決定
  6
CONTINUOUS
 62
    7
 10
1070.0386503630461
 20
554.32347864381643
 40
21.657611845746686
 50
67.6395860064153
 51
75.727765613352588
  0
ARC
  8
_0-2_決定
  6
CONTINUOUS
 62
    7
 10
1069.9814405645598
 20
554.62332720722191
 40
21.381513267908151
 50
75.381104292674095
 51
95.322954324547439
  0
ARC
  8
_0-2_決定
  6
CONTINUOUS
 62
    7
 10
1068.981517693484
 20
566.42179509366417
 40
9.5416754591887898
 50
95.917001662932947
 51
122.90597205443434
  0
ARC
  8
_0-2_決定
  6
CONTINUOUS
 62
    7
 10
1066.1366632598056
 20
571.21781199070017
 40
3.9755446939475982
 50
126.03578559161772
 51
160.99219026788663
  0
ARC
  8
_0-2_決定
  6
CONTINUOUS
 62
    7
 10
1065.3304968876498
 20
571.78263509353644
 40
3.0415123074538783
 50
166.11274075160148
 51
193.88725924839849
  0
ARC
  8
_0-2_決定
  6
CONTINUOUS
 62
    7
 10
1067.019252335745
 20
572.16198143931751
 40
4.7720969047605299
 50
193.44225052170088
 51
212.5754896439376
  0
ARC
  8
_0-2_決定
  6
CONTINUOUS
 62
    7
 10
1070.0297389416069
 20
574.19170808773595
 40
8.4022851061639834
 50
213.18607126338773
 51
227.54300188280641
  0
ARC
  8
_0-2_決定
  6
CONTINUOUS
 62
    7
 10
1074.8416249414086
 20
579.29713264780491
 40
15.417535395085714
 50
227.15730722614276
 51
249.32373260423634
  0
ARC
  8
_0-2_決定
  6
CONTINUOUS
 62
    7
 10
1077.7389859240875
 20
585.65958378145035
 40
22.398016526565915
 50
248.13608209532285
 51
256.15147139004762
  0
ARC
  8
_0-2_決定
  6
CONTINUOUS
 62
    7
 10
1077.659819346829
 20
583.92234486734844
 40
20.695102806696344
 50
255.21301521199194
 51
275.20672334327645
  0
ARC
  8
_0-2_決定
  6
CONTINUOUS
 62
    7
 10
1078.6309830773257
 20
572.94518953754152
 40
9.6751528312901378
 50
275.37854449590139
 51
302.13875619978381
  0
ARC
  8
_0-2_決定
  6
CONTINUOUS
 62
    7
 10
1081.6670144092507
 20
567.74040220135441
 40
3.6582155660016258
 50
305.24141664602757
 51
343.68322777001737
  0
ARC
  8
_0-2_決定
  6
CONTINUOUS
 62
    7
 10
1121.5355906174975
 20
535.74822232733732
 40
10.843542250105605
 50
345.1691175491618
 51
0.8687676371676825
  0
ARC
  8
_0-2_決定
  6
CONTINUOUS
 62
    7
 10
1129.2840371045838
 20
533.5395597213419
 40
2.7920127660920739
 50
318.58540418930374
 51
348.28449345655048
  0
ARC
  8
_0-2_決定
  6
CONTINUOUS
 62
    7
 10
1130.9646692050603
 20
532.07645099383785
 40
0.5639707994411218
 50
271.34290028220823
 51
317.11259035364253
  0
ARC
  8
_0-2_決定
  6
CONTINUOUS
 62
    7
 10
1131.0862157930223
 20
532.31061159627154
 40
0.8052960728412952
 50
211.26751477121132
 51
262.26906309280827
  0
ARC
  8
_0-2_決定
  6
CONTINUOUS
 62
    7
 10
1133.5765098039483
 20
533.89514454666335
 40
3.7568192805928327
 50
191.7105011886031
 51
212.2106268516095
  0
ARC
  8
_0-2_決定
  6
CONTINUOUS
 62
    7
 10
1140.9130105499005
 20
535.80898032400648
 40
11.335598118638616
 50
179.47606967650677
 51
193.65652756498929
  0
ARC
  8
_0-2_決定
  6
CONTINUOUS
 62
    7
 10
1140.4201821028917
 20
536.07704785973647
 40
10.843542250103413
 50
165.16911754916592
 51
180.8687676371718
  0
ARC
  8
_0-2_決定
  6
CONTINUOUS
 62
    7
 10
1132.6717356158078
 20
538.28571046573063
 40
2.7920127660925704
 50
138.58540418930883
 51
168.28449345655557
  0
ARC
  8
_0-2_決定
  6
CONTINUOUS
 62
    7
 10
1130.9911035153309
 20
539.74881919323468
 40
0.5639707994414552
 50
91.342900282193
 51
137.1125903536273
  0
ARC
  8
_0-2_決定
  6
CONTINUOUS
 62
    7
 10
1130.8695569273698
 20
539.51465859080167
 40
0.8052960728409335
 50
31.267514771250617
 51
82.269063092847588
  0
ARC
  8
_0-2_決定
  6
CONTINUOUS
 62
    7
 10
1128.3792629164416
 20
537.93012564041067
 40
3.7568192805940153
 50
11.710501188582692
 51
32.210626851589097
  0
ARC
  8
_0-2_決定
  6
CONTINUOUS
 62
    7
 10
1121.0427621704916
 20
536.01628986306525
 40
11.3355981186376
 50
359.47606967651319
 51
13.656527564995713
  0
ARC
  8
_0-2_決定
  6
CONTINUOUS
 62
    7
 10
1178.6848177882723
 20
597.43320309330488
 40
3.6939227008142783
 50
1.2321506297637477
 51
48.801636326450847
  0
ARC
  8
_0-2_決定
  6
CONTINUOUS
 62
    7
 10
1176.698923136106
 20
595.34964351578162
 40
6.5708388399936046
 50
47.738816441793084
 51
92.800461048740615
  0
ARC
  8
_0-2_決定
  6
CONTINUOUS
 62
    7
 10
1176.3207242687554
 20
595.25975930963898
 40
6.6531213502136914
 50
89.50772175780186
 51
139.81615007402885
  0
ARC
  8
_0-2_決定
  6
CONTINUOUS
 62
    7
 10
1174.204018431027
 20
597.46623942356155
 40
3.6264288705702565
 50
144.87720907431552
 51
179.26695140166998
  0
ARC
  8
_0-2_決定
  6
CONTINUOUS
 62
    7
 10
1174.3320966430788
 20
597.59182846526551
 40
3.7550454642030262
 50
181.20844938856359
 51
229.59016975299807
  0
ARC
  8
_0-2_決定
  6
CONTINUOUS
 62
    7
 10
1176.1670094005599
 20
599.53403708170435
 40
6.424863623902799
 50
228.35839461663039
 51
271.88090065408761
  0
ARC
  8
_0-2_決定
  6
CONTINUOUS
 62
    7
 10
1176.4667216459475
 20
600.5850068076935
 40
7.4728997546152618
 50
269.31887125467222
 51
302.64537666468391
  0
ARC
  8
_0-2_決定
  6
CONTINUOUS
 62
    7
 10
1178.1055091392072
 20
597.84824663870972
 40
4.2855387324902958
 50
303.93446052165541
 51
355.50842130830114
  0
ARC
  8
_0-2_決定
  6
CONTINUOUS
 62
    7
 10
1129.3830326777074
 20
560.7458740163155
 40
1.3952496627981121
 50
319.11564369059261
 51
358.63491801728151
  0
ARC
  8
_0-2_決定
  6
CONTINUOUS
 62
    7
 10
1128.1354531910731
 20
561.9332862185438
 40
3.1167184100061562
 50
294.29715180378622
 51
317.6238825894896
  0
ARC
  8
_0-2_決定
  6
CONTINUOUS
 62
    7
 10
1126.337407020465
 20
565.61344957338224
 40
7.2118218532541398
 50
280.06583245673056
 51
295.28638494056923
  0
ARC
  8
_0-2_決定
  6
CONTINUOUS
 62
    7
 10
1125.4178085004833
 20
570.29049933633553
 40
11.977930772725902
 50
269.80903426259579
 51
280.48673538568295
  0
ARC
  8
_0-2_決定
  6
CONTINUOUS
 62
    7
 10
1125.1283647502967
 20
567.4257660739612
 40
9.1165463471748893
 50
241.78254521564088
 51
271.56839226057082
  0
ARC
  8
_0-2_決定
  6
CONTINUOUS
 62
    7
 10
1121.748249914923
 20
560.91195735563576
 40
1.7815488991534656
 50
186.42378391737506
 51
238.5186006643155
  0
ARC
  8
_0-2_決定
  6
CONTINUOUS
 62
    7
 10
1121.4701064017286
 20
560.66312974451296
 40
1.4930410014243449
 50
140.50922555769523
 51
178.09987297418877
  0
ARC
  8
_0-2_決定
  6
CONTINUOUS
 62
    7
 10
1122.8871215805516
 20
559.46114738041206
 40
3.3510996698460009
 50
117.53604334132002
 51
140.05706085532481
  0
ARC
  8
_0-2_決定
  6
CONTINUOUS
 62
    7
 10
1124.5559566161437
 20
556.32294188967501
 40
6.9053839297706778
 50
102.18974044137859
 51
117.77647260239762
  0
ARC
  8
_0-2_決定
  6
CONTINUOUS
 62
    7
 10
1125.3083400855419
 20
553.0233247027478
 40
10.289545422529983
 50
89.612739125542063
 51
102.405272789447
  0
ARC
  8
_0-2_決定
  6
CONTINUOUS
 62
    7
 10
1125.5421561316109
 20
554.73610683483878
 40
8.5781012776743495
 50
60.102681934534509
 51
91.0972754518816
  0
ARC
  8
_0-2_決定
  6
CONTINUOUS
 62
    7
 10
1128.7432802089183
 20
560.42042830913476
 40
2.0554821808193666
 50
8.172839636344305
 51
58.479739737892963
  0
ARC
  8
_0-2_決定
  6
CONTINUOUS
 62
    7
 10
1160.387557430977
 20
584.04678859383853
 40
2.9910538053409135
 50
308.70477424178648
 51
1.2614388020060463
  0
ARC
  8
_0-2_決定
  6
CONTINUOUS
 62
    7
 10
1161.5622480007085
 20
582.82180551579438
 40
1.3092638209321468
 50
270.68437948838846
 51
302.09470117964742
  0
ARC
  8
_0-2_決定
  6
CONTINUOUS
 62
    7
 10
1161.6270861827365
 20
582.94063464988847
 40
1.4288468621510373
 50
228.3704502431317
 51
268.02673078415216
  0
ARC
  8
_0-2_決定
  6
CONTINUOUS
 62
    7
 10
1162.6059200628342
 20
583.94809506334661
 40
2.8328162744508303
 50
176.67018354288641
 51
227.10892999692635
  0
ARC
  8
_0-2_決定
  6
CONTINUOUS
 62
    7
 10
1162.3810918968231
 20
584.20528099881085
 40
2.6048536100311752
 50
125.24533522097019
 51
182.03824856641873
  0
ARC
  8
_0-2_決定
  6
CONTINUOUS
 62
    7
 10
1161.5846310124678
 20
585.03529477914742
 40
1.4773557103330293
 50
90.261576443096459
 51
118.57996981198409
  0
ARC
  8
_0-2_決定
  6
CONTINUOUS
 62
    7
 10
1161.4987168687173
 20
584.75822284646756
 40
1.7561976372397401
 50
17.03240408924588
 51
87.416227298842884
  0
ARC
  8
_0-2_決定
  6
CONTINUOUS
 62
    7
 10
1160.1732978622692
 20
584.15736121458326
 40
3.2049006017265107
 50
359.20038045572187
 51
20.364433607904896
  0
ARC
  8
_0-2_決定
  6
CONTINUOUS
 62
    7
 10
1196.7746808235684
 20
562.21998918826182
 40
2.6048536100311752
 50
305.24533522097016
 51
2.0382485664187286
  0
ARC
  8
_0-2_決定
  6
CONTINUOUS
 62
    7
 10
1197.5711417079244
 20
561.38997540792639
 40
1.4773557103335837
 50
270.26157644304442
 51
298.57996981193202
  0
ARC
  8
_0-2_決定
  6
CONTINUOUS
 62
    7
 10
1197.6570558516735
 20
561.66704734060511
 40
1.7561976372391457
 50
197.0324040892512
 51
267.41622729884818
  0
ARC
  8
_0-2_決定
  6
CONTINUOUS
 62
    7
 10
1198.9824748581223
 20
562.26790897248941
 40
3.2049006017265107
 50
179.2003804557219
 51
200.36443360790491
  0
ARC
  8
_0-2_決定
  6
CONTINUOUS
 62
    7
 10
1198.768215289414
 20
562.37848159323414
 40
2.991053805340846
 50
128.70477424178927
 51
181.26143880200883
  0
ARC
  8
_0-2_決定
  6
CONTINUOUS
 62
    7
 10
1197.593524719684
 20
563.6034646712792
 40
1.3092638209319396
 50
90.684379488439021
 51
122.09470117969798
  0
ARC
  8
_0-2_決定
  6
CONTINUOUS
 62
    7
 10
1197.5286865376547
 20
563.4846355371842
 40
1.4288468621516206
 50
48.370450243141065
 51
88.026730784161543
  0
ARC
  8
_0-2_決定
  6
CONTINUOUS
 62
    7
 10
1196.5498526575566
 20
562.4771751237264
 40
2.8328162744514485
 50
356.67018354288138
 51
47.108929996921319
  0
ARC
  8
_0-2_決定
  6
CONTINUOUS
 62
    7
 10
1199.1863637862141
 20
528.09638527105892
 40
7.3915404360935213
 50
311.6423595598107
 51
0.1259611584126956
  0
ARC
  8
_0-2_決定
  6
CONTINUOUS
 62
    7
 10
1201.0819655463117
 20
526.32875658083879
 40
4.8170766013205588
 50
271.14098685161144
 51
308.7621945379147
  0
ARC
  8
_0-2_決定
  6
CONTINUOUS
 62
    7
 10
1201.3067735798695
 20
526.58946940819783
 40
5.0784701017055465
 50
207.39648595432584
 51
268.54572606505036
  0
ARC
  8
_0-2_決定
  6
CONTINUOUS
 62
    7
 10
1203.2922516968961
 20
528.03352956074741
 40
7.5147817066582707
 50
179.39685581663448
 51
210.20714035023241
  0
ARC
  8
_0-2_決定
  6
CONTINUOUS
 62
    7
 10
1203.521878190757
 20
528.1725480308545
 40
7.7442235912879536
 50
132.82265611599829
 51
180.44327138162399
  0
ARC
  8
_0-2_決定
  6
CONTINUOUS
 62
    7
 10
1201.2543852003109
 20
530.15001564718307
 40
4.7632337821404427
 50
90.920225485633168
 51
128.98295590391092
  0
ARC
  8
_0-2_決定
  6
CONTINUOUS
 62
    7
 10
1201.0678932052379
 20
529.91158563659803
 40
5.0022589062226608
 50
28.163981790601948
 51
88.740038923660094
  0
ARC
  8
_0-2_決定
  6
CONTINUOUS
 62
    7
 10
1198.709151453869
 20
528.25739269042106
 40
7.870066314072492
 50
358.94607405284012
 51
30.676598705011333
  0
ARC
  8
_0-2_決定
  6
CONTINUOUS
 62
    7
 10
1118.3799098574607
 20
542.62096452636308
 40
0.8052960728412952
 50
301.26751477121132
 51
352.26906309280827
  0
ARC
  8
_0-2_決定
  6
CONTINUOUS
 62
    7
 10
1116.7953769070689
 20
545.11125853728993
 40
3.7568192805935743
 50
281.71050118859853
 51
302.21062685160496
  0
ARC
  8
_0-2_決定
  6
CONTINUOUS
 62
    7
 10
1114.8815411297255
 20
552.4477592832402
 40
11.335598118637471
 50
269.47606967650745
 51
283.65652756498991
  0
ARC
  8
_0-2_決定
  6
CONTINUOUS
 62
    7
 10
1114.6584283345023
 20
551.10404256178549
 40
9.9921215673392592
 50
254.5579282665044
 51
270.68500004813541
  0
ARC
  8
_0-2_決定
  6
CONTINUOUS
 62
    7
 10
1112.5947279979396
 20
544.15026576666708
 40
2.7433421154193871
 50
227.9666186551886
 51
257.43423692218062
  0
ARC
  8
_0-2_決定
  6
CONTINUOUS
 62
    7
 10
1111.1451469048711
 20
542.5274023386404
 40
0.5674527267303586
 50
181.49121911006836
 51
226.96427152581967
  0
ARC
  8
_0-2_決定
  6
CONTINUOUS
 62
    7
 10
1111.5363389452823
 20
542.46228804977727
 40
0.9597740268807375
 50
128.57473234015472
 51
176.99304454518725
  0
ARC
  8
_0-2_決定
  6
CONTINUOUS
 62
    7
 10
1112.8389092214159
 20
540.73055148734647
 40
3.1264399797530111
 50
104.84525106432584
 51
127.44843140681994
  0
ARC
  8
_0-2_決定
  6
CONTINUOUS
 62
    7
 10
1114.5945273789703
 20
534.90097845064656
 40
9.2134813519370482
 50
88.859672152500906
 51
106.11040574825796
  0
ARC
  8
_0-2_決定
  6
CONTINUOUS
 62
    7
 10
1114.9548542016323
 20
533.97799072273517
 40
10.136189330291721
 50
74.650973053409999
 51
91.000378473613736
  0
ARC
  8
_0-2_決定
  6
CONTINUOUS
 62
    7
 10
1117.0032211330999
 20
540.94282542768997
 40
2.880595478155159
 50
48.872726612280537
 51
77.271917685665841
  0
ARC
  8
_0-2_決定
  6
CONTINUOUS
 62
    7
 10
1118.3243244717792
 20
542.47963954560896
 40
0.8541993933151332
 50
2.2137408440251836
 51
47.820046112160007
  0
ARC
  8
_0-2_決定
  6
CONTINUOUS
 62
    7
 10
971.19472330771964
 20
544.49580006275528
 40
4.5868236617713638
 50
272.28861868095112
 51
357.7114073625894
  0
ARC
  8
_0-2_決定
  6
CONTINUOUS
 62
    7
 10
971.49119495911634
 20
544.42593969245729
 40
4.5147266068695115
 50
181.43808419711451
 51
268.56191580288913
  0
ARC
  8
_0-2_決定
  6
CONTINUOUS
 62
    7
 10
971.50804076338886
 20
544.18248469034313
 40
4.5320196163524802
 50
91.64564472752545
 51
178.35435527247455
  0
ARC
  8
_0-2_決定
  6
CONTINUOUS
 62
    7
 10
971.19472330771941
 20
544.12947012431766
 40
4.5868236617715121
 50
2.2885926374087453
 51
87.711381319047049
  0
ARC
  8
_0-2_決定
  6
CONTINUOUS
 62
    7
 10
992.63548565896963
 20
585.24972718843901
 40
9.5426100578870372
 50
344.20731390938965
 51
0.3777146446792875
  0
ARC
  8
_0-2_決定
  6
CONTINUOUS
 62
    7
 10
998.11635169470924
 20
583.52002740779335
 40
3.8018078742584294
 50
322.63288690481488
 51
346.81166862409151
  0
ARC
  8
_0-2_決定
  6
CONTINUOUS
 62
    7
 10
1000.5339805950166
 20
581.66726292187172
 40
0.7559041282733127
 50
273.3299811218061
 51
323.02719909805899
  0
ARC
  8
_0-2_決定
  6
CONTINUOUS
 62
    7
 10
1000.6862177930219
 20
581.71061159627152
 40
0.8052960728411142
 50
211.26751477123096
 51
262.26906309282793
  0
ARC
  8
_0-2_決定
  6
CONTINUOUS
 62
    7
 10
1003.1765118039499
 20
583.29514454666332
 40
3.7568192805943141
 50
191.71050118859401
 51
212.21062685160041
  0
ARC
  8
_0-2_決定
  6
CONTINUOUS
 62
    7
 10
1010.5130125498986
 20
585.20898032400532
 40
11.335598118636197
 50
179.47606967650231
 51
193.65652756498483
  0
ARC
  8
_0-2_決定
  6
CONTINUOUS
 62
    7
 10
1010.0201841028939
 20
585.47704785973758
 40
10.843542250105351
 50
165.16911754917274
 51
180.86876763717862
  0
ARC
  8
_0-2_決定
  6
CONTINUOUS
 62
    7
 10
1002.2717376158073
 20
587.68571046573038
 40
2.7920127660923217
 50
138.58540418929357
 51
168.2844934565403
  0
ARC
  8
_0-2_決定
  6
CONTINUOUS
 62
    7
 10
1000.591105515331
 20
589.148819193235
 40
0.5639707994411218
 50
91.342900282208234
 51
137.11259035364256
  0
ARC
  8
_0-2_決定
  6
CONTINUOUS
 62
    7
 10
1000.4454664044306
 20
588.8398635844336
 40
0.8827602627385211
 50
33.932559252940266
 51
81.372553748162758
  0
ARC
  8
_0-2_決定
  6
CONTINUOUS
 62
    7
 10
998.0693505344143
 20
587.06334259718994
 40
3.8487265229275156
 50
15.511819766134696
 51
36.130164182257587
  0
ARC
  8
_0-2_決定
  6
CONTINUOUS
 62
    7
 10
992.80515601927254
 20
585.38281749052624
 40
9.3729950978027095
 50
359.57098102819418
 51
16.804622995610444
  0
ARC
  8
_0-2_決定
  6
CONTINUOUS
 62
    7
 10
1028.0020728095403
 20
538.53844944182856
 40
10.447897070997085
 50
61.184336538349115
 51
76.856157056173871
  0
ARC
  8
_0-2_決定
  6
CONTINUOUS
 62
    7
 10
1031.4362450710157
 20
544.55066314652038
 40
3.5266484006219083
 50
37.39940515163012
 51
62.989452663844851
  0
ARC
  8
_0-2_決定
  6
CONTINUOUS
 62
    7
 10
1033.670611745169
 20
546.24880970370236
 40
0.7202664330769996
 50
349.10198392278653
 51
38.038884847558393
  0
ARC
  8
_0-2_決定
  6
CONTINUOUS
 62
    7
 10
1033.4456920125062
 20
546.70065507160916
 40
1.1021603899877506
 50
284.2980590261119
 51
327.7566877440953
  0
ARC
  8
_0-2_決定
  6
CONTINUOUS
 62
    7
 10
1032.5833208101894
 20
549.826758465034
 40
4.3448721938474586
 50
265.96894109691118
 51
285.13700096914744
  0
ARC
  8
_0-2_決定
  6
CONTINUOUS
 62
    7
 10
1032.9720093125004
 20
558.84341264406794
 40
13.36880941221777
 50
255.29255897223209
 51
267.02381190738453
  0
ARC
  8
_0-2_決定
  6
CONTINUOUS
 62
    7
 10
1033.2960385531944
 20
557.54946837210741
 40
12.216404119500714
 50
236.4129759709711
 51
252.28050605934936
  0
ARC
  8
_0-2_決定
  6
CONTINUOUS
 62
    7
 10
1027.1625832401455
 20
548.61243168017029
 40
1.3882864507238846
 50
184.12224666326674
 51
243.25788838871921
  0
ARC
  8
_0-2_決定
  6
CONTINUOUS
 62
    7
 10
1026.5788817128432
 20
548.20000200678317
 40
0.8598428914160433
 50
109.07443019225425
 51
158.67896437958487
  0
ARC
  8
_0-2_決定
  6
CONTINUOUS
 62
    7
 10
1027.4697555006878
 20
545.70868539438345
 40
3.505617807106256
 50
88.232397340698085
 51
109.52892096032842
  0
ARC
  8
_0-2_決定
  6
CONTINUOUS
 62
    7
 10
1027.5973655274629
 20
541.23170723023316
 40
7.9809516299307557
 50
69.610828678611483
 51
90.139828010590477
  0
ARC
  8
_0-2_決定
  6
CONTINUOUS
 62
    7
 10
1018.0702533200222
 20
676.42603577371517
 40
7.5141736163323847
 50
270.82074819678382
 51
357.60960259722935
  0
ARC
  8
_0-2_決定
  6
CONTINUOUS
 62
    7
 10
1018.4412523048363
 20
676.58609048108383
 40
7.6779755695002283
 50
183.53535005356858
 51
268.03429915241821
  0
ARC
  8
_0-2_決定
  6
CONTINUOUS
 62
    7
 10
1018.1418777602454
 20
676.14864369348652
 40
7.3640774471318
 50
89.71982048902953
 51
180.28017951097047
  0
ARC
  8
_0-2_決定
  6
CONTINUOUS
 62
    7
 10
1018.2378629967618
 20
676.17260773010253
 40
7.3402703828184457
 50
359.5318521513442
 51
90.468147848655775
  0
ARC
  8
_0-2_決定
  6
CONTINUOUS
 62
    7
 10
1336.3003477291259
 20
539.33128651364791
 40
3.7675543553490125
 50
347.45009591474235
 51
35.752927149288034
  0
ARC
  8
_0-2_決定
  6
CONTINUOUS
 62
    7
 10
1332.6166681666828
 20
537.10538571177995
 40
8.0650190859006265
 50
33.294644207716892
 51
48.146428731779416
  0
ARC
  8
_0-2_決定
  6
CONTINUOUS
 62
    7
 10
1327.7914665873664
 20
531.90850994609571
 40
15.155968595673418
 50
47.667989276095845
 51
69.586000443690594
  0
ARC
  8
_0-2_決定
  6
CONTINUOUS
 62
    7
 10
1324.339009272069
 20
524.32712232034271
 40
23.472888714362785
 50
68.142679683048257
 51
76.099927125271222
  0
ARC
  8
_0-2_決定
  6
CONTINUOUS
 62
    7
 10
1324.3030740453473
 20
528.05409071337681
 40
19.885461674299162
 50
73.418744515629001
 51
93.93660369049185
  0
ARC
  8
_0-2_決定
  6
CONTINUOUS
 62
    7
 10
1323.6668137998145
 20
538.23205785414439
 40
9.688038538641738
 50
94.315020676967663
 51
121.27099165686909
  0
ARC
  8
_0-2_決定
  6
CONTINUOUS
 62
    7
 10
1320.6995264115135
 20
543.4747363960746
 40
3.6714025172683629
 50
124.16241662460673
 51
163.57869508891588
  0
ARC
  8
_0-2_決定
  6
CONTINUOUS
 62
    7
 10
1320.8741944091778
 20
543.69783781882393
 40
3.7850498777539192
 50
167.56879331357464
 51
215.63422975044537
  0
ARC
  8
_0-2_決定
  6
CONTINUOUS
 62
    7
 10
1324.5892127683621
 20
545.89414146502054
 40
8.09292282712385
 50
212.94754831571166
 51
227.65509064970027
  0
ARC
  8
_0-2_決定
  6
CONTINUOUS
 62
    7
 10
1329.3670965924453
 20
551.00135497094175
 40
15.086301449061676
 50
227.30883097312943
 51
249.47616453437092
  0
ARC
  8
_0-2_決定
  6
CONTINUOUS
 62
    7
 10
1332.7141225645123
 20
558.10106300241011
 40
22.917913556952229
 50
247.86231856323434
 51
255.50503305653854
  0
ARC
  8
_0-2_決定
  6
CONTINUOUS
 62
    7
 10
1332.40304035234
 20
556.95505379690439
 40
21.7305246698498
 50
255.54284268045845
 51
275.16121593676257
  0
ARC
  8
_0-2_決定
  6
CONTINUOUS
 62
    7
 10
1333.4408686699994
 20
544.99440049050395
 40
9.7250963480054651
 50
275.41067152431089
 51
302.72189192082078
  0
ARC
  8
_0-2_決定
  6
CONTINUOUS
 62
    7
 10
1336.5082180324428
 20
539.79320738737351
 40
3.6984388362773446
 50
306.30272570233211
 51
339.7420815923341
  0
ARC
  8
_0-2_決定
  6
CONTINUOUS
 62
    7
 10
1245.9355886174994
 20
557.14822232733627
 40
10.843542250103413
 50
345.16911754916595
 51
0.8687676371718036
  0
ARC
  8
_0-2_決定
  6
CONTINUOUS
 62
    7
 10
1253.6840351045839
 20
554.93955972134233
 40
2.7920127660921983
 50
318.58540418929863
 51
348.28449345654536
  0
ARC
  8
_0-2_決定
  6
CONTINUOUS
 62
    7
 10
1255.3646672050604
 20
553.47645099383772
 40
0.5639707994409552
 50
271.34290028221585
 51
317.11259035365015
  0
ARC
  8
_0-2_決定
  6
CONTINUOUS
 62
    7
 10
1255.51030631596
 20
553.78540660263945
 40
0.8827602627382922
 50
213.93255925298516
 51
261.37255374820768
  0
ARC
  8
_0-2_決定
  6
CONTINUOUS
 62
    7
 10
1257.8864221859785
 20
555.5619275898822
 40
3.8487265229287737
 50
195.51181976611909
 51
216.13016418224197
  0
ARC
  8
_0-2_決定
  6
CONTINUOUS
 62
    7
 10
1263.1506167011171
 20
557.24245269654739
 40
9.3729950978009686
 50
179.57098102820157
 51
196.80462299561785
  0
ARC
  8
_0-2_決定
  6
CONTINUOUS
 62
    7
 10
1263.3202870614236
 20
557.37554299863314
 40
9.5426100578891067
 50
164.20731390938829
 51
180.37771464467792
  0
ARC
  8
_0-2_決定
  6
CONTINUOUS
 62
    7
 10
1257.839421025682
 20
559.10524277927971
 40
3.8018078742584294
 50
142.63288690481488
 51
166.81166862409154
  0
ARC
  8
_0-2_決定
  6
CONTINUOUS
 62
    7
 10
1255.4217921253749
 20
560.95800726520133
 40
0.7559041282734618
 50
93.329981121800046
 51
143.02719909805293
  0
ARC
  8
_0-2_決定
  6
CONTINUOUS
 62
    7
 10
1255.2695549273694
 20
560.91465859080154
 40
0.8052960728412952
 50
31.267514771211317
 51
82.269063092808281
  0
ARC
  8
_0-2_決定
  6
CONTINUOUS
 62
    7
 10
1252.7792609164426
 20
559.33012564040996
 40
3.7568192805934242
 50
11.710501188592895
 51
32.210626851599301
  0
ARC
  8
_0-2_決定
  6
CONTINUOUS
 62
    7
 10
1245.4427601704906
 20
557.41628986306682
 40
11.335598118638551
 50
359.47606967650387
 51
13.656527564986375
  0
ARC
  8
_0-2_決定
  6
CONTINUOUS
 62
    7
 10
716.33777426233087
 20
1446.6141286981911
 40
2.8419314202835282
 50
276.87354844119676
 51
357.95312442451018
  0
ARC
  8
_0-2_決定
  6
CONTINUOUS
 62
    7
 10
715.81146229942021
 20
1448.4374612772704
 40
4.7249574393098772
 50
269.59292077379075
 51
280.56629494621444
  0
ARC
  8
_0-2_決定
  6
CONTINUOUS
 62
    7
 10
715.78233469562952
 20
1447.1823030722774
 40
3.4696828225674259
 50
191.12843776970809
 51
269.92664253359703
  0
ARC
  8
_0-2_決定
  6
CONTINUOUS
 62
    7
 10
714.78703401207349
 20
1446.3905022284666
 40
2.4122348568284044
 50
117.37409736399924
 51
177.0981256548348
  0
ARC
  8
_0-2_決定
  6
CONTINUOUS
 62
    7
 10
715.76013765465723
 20
1445.0851832342792
 40
4.027478994296855
 50
89.747416934951076
 51
121.13187413568664
  0
ARC
  8
_0-2_決定
  6
CONTINUOUS
 62
    7
 10
715.85464463770393
 20
1445.2445892536887
 40
3.8687952515366044
 50
44.8406791884371
 51
91.136754415729143
  0
ARC
  8
_0-2_決定
  6
CONTINUOUS
 62
    7
 10
716.90644056353506
 20
1446.4554710099319
 40
2.2721706857569641
 50
1.4413171471418458
 51
41.890600299433444
  0
LINE
  8
_0-2_決定
  6
CONTINUOUS
 62
    7
 10
971.77788836019567
 20
1486.1126210935363
 11
971.77788836019567
 21
762.11263309353626
  0
LINE
  8
_0-2_決定
  6
CONTINUOUS
 62
    7
 10
971.77788836019567
 20
762.11263309353626
 11
1387.1778823601958
 21
522.11263509353637
  0
LINE
  8
_0-2_決定
  6
CONTINUOUS
 62
    7
 10
971.77788836019567
 20
1545.9126210935365
 11
971.77788836019567
 21
762.11263309353626
  0
LINE
  8
_0-2_決定
  6
CONTINUOUS
 62
    7
 10
971.77788836019567
 20
762.11263309353626
 11
1151.5778863601954
 21
872.11263109353672
  0
LINE
  8
_0-2_決定
  6
CONTINUOUS
 62
    7
 10
1262.1778843601955
 20
806.11263109353649
 11
1571.3778803601954
 21
984.71262909353663
  0
ARC
  8
_0-2_決定
  6
CONTINUOUS
 62
    7
 10
1261.2604437005155
 20
864.91919736190027
 40
18.776893296111602
 50
239.66784078350105
 51
261.41620119332111
  0
ARC
  8
_0-2_決定
  6
CONTINUOUS
 62
    7
 10
1262.4508450388564
 20
870.38586606754166
 40
24.362678799694237
 50
260.56685718747173
 51
297.17596517974022
  0
ARC
  8
_0-2_決定
  6
CONTINUOUS
 62
    7
 10
1268.7614865375988
 20
857.66724048871481
 40
10.16772921579506
 50
298.27438569977642
 51
326.88659586691551
  0
ARC
  8
_0-2_決定
  6
CONTINUOUS
 62
    7
 10
1272.2656740991974
 20
854.97553449910379
 40
5.7722151389274128
 50
330.26560496129491
 51
41.663369241213324
  0
ARC
  8
_0-2_決定
  6
CONTINUOUS
 62
    7
 10
1268.1797973104767
 20
851.78492663387374
 40
10.950639071169013
 50
39.923336150389737
 51
60.465521665079358
  0
ARC
  8
_0-2_決定
  6
CONTINUOUS
 62
    7
 10
1264.2057313877913
 20
844.27182845585492
 40
19.448038612532535
 50
61.18995093951213
 51
82.043108762518614
  0
ARC
  8
_0-2_決定
  6
CONTINUOUS
 62
    7
 10
1262.8970651475581
 20
838.18172410934176
 40
25.66466518958525
 50
81.031685736066734
 51
115.67390313326658
  0
ARC
  8
_0-2_決定
  6
CONTINUOUS
 62
    7
 10
1257.0177070261796
 20
852.10745616975123
 40
10.592024685981485
 50
119.64964661578654
 51
148.17679047821102
  0
ARC
  8
_0-2_決定
  6
CONTINUOUS
 62
    7
 10
1253.1109459487589
 20
854.94026159269708
 40
5.7891980631217006
 50
151.61252453777931
 51
222.72195291925817
  0
ARC
  8
_0-2_決定
  6
CONTINUOUS
 62
    7
 10
1256.7629883832292
 20
858.04511098364856
 40
10.580474612219108
 50
221.65669352800637
 51
241.89033229004912
  0
ARC
  8
_0-2_決定
  6
CONTINUOUS
 62
    7
 10
1262.5778843601959
 20
864.28668754543219
 40
11.166565251895495
 50
241.08009603642455
 51
298.91990396357545
  0
ARC
  8
_0-2_決定
  6
CONTINUOUS
 62
    7
 10
1265.7485063684348
 20
858.59580187124402
 40
4.652140349352031
 50
298.63418081370241
 51
341.40874127069839
  0
ARC
  8
_0-2_決定
  6
CONTINUOUS
 62
    7
 10
1267.5394735000873
 20
857.69327888411885
 40
2.6820192559044291
 50
347.4966613208108
 51
39.871378183694297
  0
ARC
  8
_0-2_決定
  6
CONTINUOUS
 62
    7
 10
1265.7692590124404
 20
856.30095950633381
 40
4.9336469391393836
 50
39.102092394097703
 51
63.405973093741729
  0
ARC
  8
_0-2_決定
  6
CONTINUOUS
 62
    7
 10
1262.5778843601959
 20
850.93857464164103
 40
11.166565251895495
 50
61.080096036424578
 51
118.91990396357544
  0
ARC
  8
_0-2_決定
  6
CONTINUOUS
 62
    7
 10
1259.0137643906371
 20
856.85495673255218
 40
4.2722484667408986
 50
115.44993185346242
 51
160.05023849636362
  0
ARC
  8
_0-2_決定
  6
CONTINUOUS
 62
    7
 10
1257.6703824244028
 20
857.68926110749453
 40
2.7442368780204922
 50
166.87030637761345
 51
217.65924107817105
  0
ARC
  8
_0-2_決定
  6
CONTINUOUS
 62
    7
 10
1259.7522903828203
 20
859.08676583887711
 40
5.2488355887620326
 50
215.850999227214
 51
240.62840136500103
  0
ARC
  8
_0-2_決定
  6
CONTINUOUS
 62
    7
 10
1262.5126035445551
 20
858.90856399409984
 40
2.2959389736887132
 50
240.38109002490063
 51
270.1317843021277
  0
ARC
  8
_0-2_決定
  6
CONTINUOUS
 62
    7
 10
1262.6193229149999
 20
859.82163012681895
 40
3.2106019024487322
 50
268.18944589224276
 51
295.03352695555634
  0
ARC
  8
_0-2_決定
  6
CONTINUOUS
 62
    7
 10
1263.4398894271694
 20
857.93119890284117
 40
1.1519196717275415
 50
297.84246072768383
 51
351.0821836883436
  0
ARC
  8
_0-2_決定
  6
CONTINUOUS
 62
    7
 10
1263.7434031519429
 20
857.71067224491594
 40
0.8355354163077342
 50
2.878485441613607
 51
73.701840942845422
  0
ARC
  8
_0-2_決定
  6
CONTINUOUS
 62
    7
 10
1262.6778843601958
 20
855.72961196065478
 40
3.0716763328816636
 50
64.961847007175294
 51
115.03815299282471
  0
ARC
  8
_0-2_決定
  6
CONTINUOUS
 62
    7
 10
1261.7407777597568
 20
857.71263109353663
 40
0.8784597995610068
 50
114.39983992549435
 51
245.60016007450571
  0
LINE
  8
_0-2_決定
  6
CONTINUOUS
 62
    7
 10
1566.3778803601954
 20
989.51262909353636
 11
1270.1778843601958
 21
818.31263109353642
  0
LINE
  8
_0-2_決定
  6
CONTINUOUS
 62
    7
 10
1164.9778863601957
 20
879.31263109353631
 11
1370.7778843601955
 21
995.71262909353663
  0
LINE
  8
_0-2_決定
  6
CONTINUOUS
 62
    7
 10
1260.1778843601958
 20
813.51263109353658
 11
1227.3778863601956
 21
832.51263109353658
  0
LINE
  8
_0-2_決定
  6
CONTINUOUS
 62
    7
 10
1227.3778863601956
 20
832.51263109353658
 11
1155.9778863601957
 21
873.7126310935364
  0
LINE
  8
_0-2_決定
  6
CONTINUOUS
 62
    7
 10
1155.9778863601957
 20
873.7126310935364
 11
1156.3778863601956
 21
956.11262909353627
  0
LINE
  8
_0-2_決定
  6
CONTINUOUS
 62
    7
 10
1156.3778863601956
 20
956.11262909353627
 11
1156.5778863601954
 21
994.11262909353638
  0
ARC
  8
_0-2_決定
  6
CONTINUOUS
 62
    7
 10
1152.2324467444457
 20
993.94789634416384
 40
4.3485609496525175
 50
2.1710056074142474
 51
24.231168743979733
  0
ARC
  8
_0-2_決定
  6
CONTINUOUS
 62
    7
 10
1148.8822743329135
 20
992.49546166249024
 40
7.9998395177869641
 50
23.869449724343422
 51
55.80835420893829
  0
ARC
  8
_0-2_決定
  6
CONTINUOUS
 62
    7
 10
1151.4892542096418
 20
995.66008754777818
 40
3.9353493523820142
 50
61.320166479660266
 51
87.835510882862394
  0
ARC
  8
_0-2_決定
  6
CONTINUOUS
 62
    7
 10
1151.6076304345715
 20
997.96240578195068
 40
1.6305040529458656
 50
88.936748215305727
 51
181.74942058373486
  0
LINE
  8
_0-2_決定
  6
CONTINUOUS
 62
    7
 10
1149.9778863601957
 20
997.91262909353668
 11
1149.9778863601957
 21
984.11262909353638
  0
LINE
  8
_0-2_決定
  6
CONTINUOUS
 62
    7
 10
1149.9778863601957
 20
984.11262909353638
 11
1152.3778863601958
 21
982.51262909353636
  0
LINE
  8
_0-2_決定
  6
CONTINUOUS
 62
    7
 10
1152.3778863601958
 20
982.51262909353636
 11
1152.3778863601958
 21
996.51262909353648
  0
ARC
  8
_0-2_決定
  6
CONTINUOUS
 62
    7
 10
1152.8154422408259
 20
996.46240557101669
 40
0.440428826132154
 50
34.620353440578427
 51
173.45213349529368
  0
ARC
  8
_0-2_決定
  6
CONTINUOUS
 62
    7
 10
1152.6635397434804
 20
995.26734024627422
 40
1.5340835355833284
 50
9.2006715601015259
 51
70.410470624423496
  0
LINE
  8
_0-2_決定
  6
CONTINUOUS
 62
    7
 10
1154.1778863601958
 20
995.51262909353659
 11
1153.9778863601955
 21
957.51262909353636
  0
LINE
  8
_0-2_決定
  6
CONTINUOUS
 62
    7
 10
1153.9778863601955
 20
957.51262909353636
 11
1153.7778863601957
 21
872.11263109353672
  0
LINE
  8
_0-2_決定
  6
CONTINUOUS
 62
    7
 10
1153.7778863601957
 20
872.11263109353672
 11
1227.1778863601958
 21
829.71263109353663
  0
LINE
  8
_0-2_決定
  6
CONTINUOUS
 62
    7
 10
1227.1778863601958
 20
829.71263109353663
 11
1260.1778843601958
 21
810.71263109353652
  0
ARC
  8
_0-2_決定
  6
CONTINUOUS
 62
    7
 10
1259.5744096494882
 20
809.76919494029494
 40
1.1199345970666803
 50
14.660010087940689
 51
57.394736682266512
  0
ARC
  8
_0-2_決定
  6
CONTINUOUS
 62
    7
 10
1258.2806064851559
 20
809.28739684353047
 40
2.497405364079976
 50
0.5789371033249088
 51
17.843115978284647
  0
ARC
  8
_0-2_決定
  6
CONTINUOUS
 62
    7
 10
1260.348535926159
 20
809.14197952757286
 40
0.4620195177429165
 50
248.32384283120635
 51
21.676157168807208
  0
LINE
  8
_0-2_決定
  6
CONTINUOUS
 62
    7
 10
1260.1778843601958
 20
808.7126310935364
 11
1248.1778843601955
 21
815.71263109353652
  0
LINE
  8
_0-2_決定
  6
CONTINUOUS
 62
    7
 10
1248.1778843601955
 20
815.71263109353652
 11
1248.1778843601955
 21
812.91263109353679
  0
LINE
  8
_0-2_決定
  6
CONTINUOUS
 62
    7
 10
1248.1778843601955
 20
812.91263109353679
 11
1260.1778843601958
 21
805.91263109353667
  0
ARC
  8
_0-2_決定
  6
CONTINUOUS
 62
    7
 10
1260.9870480614027
 20
807.3444709508808
 40
1.6446614461434503
 50
240.52826861701254
 51
348.35964094382763
  0
ARC
  8
_0-2_決定
  6
CONTINUOUS
 62
    7
 10
1258.2139091706795
 20
808.28210458131593
 40
4.5640772778805765
 50
343.8504996882329
 51
0.3832216783031246
  0
ARC
  8
_0-2_決定
  6
CONTINUOUS
 62
    7
 10
1255.9329972775888
 20
808.1401875522331
 40
6.8470589269098063
 50
1.4431498274101959
 51
51.686952526743298
  0
LINE
  8
_0-2_決定
  6
CONTINUOUS
 62
    7
 10
1151.1778863601958
 20
999.51262909353636
 11
1368.9778843601957
 21
1123.1126270935365
  0
ARC
  8
_0-2_決定
  6
CONTINUOUS
 62
    7
 10
1201.5732336750166
 20
968.89192502426431
 40
18.996629435162081
 50
157.85535939028773
 51
179.33431895223868
  0
ARC
  8
_0-2_決定
  6
CONTINUOUS
 62
    7
 10
1207.2938403321091
 20
966.99501036416314
 40
25.013479699295971
 50
123.2533756376715
 51
158.77019546612857
  0
ARC
  8
_0-2_決定
  6
CONTINUOUS
 62
    7
 10
1198.8590259791079
 20
979.01003287970809
 40
10.351166843448942
 50
92.331735635515088
 51
120.67698712799587
  0
ARC
  8
_0-2_決定
  6
CONTINUOUS
 62
    7
 10
1198.3734864460748
 20
983.44537092118821
 40
5.9076092003209268
 50
19.040303947874328
 51
89.375395995268278
  0
ARC
  8
_0-2_決定
  6
CONTINUOUS
 62
    7
 10
1194.0052036887987
 20
981.79421892351968
 40
10.576431898442934
 50
358.4743611392438
 51
19.775656156623558
  0
ARC
  8
_0-2_決定
  6
CONTINUOUS
 62
    7
 10
1185.582539045374
 20
981.73333316280832
 40
18.996629435162834
 50
337.85535939028819
 51
359.33431895223913
  0
ARC
  8
_0-2_決定
  6
CONTINUOUS
 62
    7
 10
1179.8619323882831
 20
983.63024782290972
 40
25.013479699294884
 50
303.25337563766948
 51
338.77019546612655
  0
ARC
  8
_0-2_決定
  6
CONTINUOUS
 62
    7
 10
1188.2967467412834
 20
971.61522530736511
 40
10.351166843448665
 50
272.33173563551554
 51
300.67698712799631
  0
ARC
  8
_0-2_決定
  6
CONTINUOUS
 62
    7
 10
1188.7822862743164
 20
967.17988726588487
 40
5.9076092003206826
 50
199.04030394787557
 51
269.37539599526951
  0
ARC
  8
_0-2_決定
  6
CONTINUOUS
 62
    7
 10
1193.1504570035193
 20
968.83102126940776
 40
10.576320389184637
 50
178.47424753477119
 51
199.77576976110572
  0
ARC
  8
_0-2_決定
  6
CONTINUOUS
 62
    7
 10
1200.7784703671168
 20
970.6646710834525
 40
10.403539342925116
 50
150.34161977012809
 51
178.63428277475086
  0
ARC
  8
_0-2_決定
  6
CONTINUOUS
 62
    7
 10
1202.5800442785367
 20
970.14229176240406
 40
12.235404111637763
 50
123.77552552211469
 51
152.39089449771205
  0
ARC
  8
_0-2_決定
  6
CONTINUOUS
 62
    7
 10
1198.1961745905007
 20
975.95318387767043
 40
4.9852663474454326
 50
78.173645920449786
 51
119.0181769533893
  0
ARC
  8
_0-2_決定
  6
CONTINUOUS
 62
    7
 10
1198.3308795207099
 20
978.10984803741462
 40
2.8636197046519971
 50
21.355151441883788
 51
71.955821636361463
  0
ARC
  8
_0-2_決定
  6
CONTINUOUS
 62
    7
 10
1196.3163089828845
 20
977.22517840560613
 40
5.0628285467864025
 50
358.72618008436899
 51
22.377438928014943
  0
ARC
  8
_0-2_決定
  6
CONTINUOUS
 62
    7
 10
1191.1172763476866
 20
977.34263516259693
 40
10.263187644226456
 50
330.13906358397196
 51
358.71584922240186
  0
ARC
  8
_0-2_決定
  6
CONTINUOUS
 62
    7
 10
1189.6269001191527
 20
977.73125335504596
 40
11.756167055243843
 50
301.54805994678486
 51
332.11343734926498
  0
ARC
  8
_0-2_決定
  6
CONTINUOUS
 62
    7
 10
1193.3084260560408
 20
971.42005760156508
 40
4.454577458742337
 50
260.03904327021985
 51
303.666965065282
  0
ARC
  8
_0-2_決定
  6
CONTINUOUS
 62
    7
 10
1193.3114963179744
 20
969.62005492262108
 40
2.7006008197785478
 50
201.44647653900358
 51
253.35395238270291
  0
ARC
  8
_0-2_決定
  6
CONTINUOUS
 62
    7
 10
1195.8268920602709
 20
970.73770909091854
 40
5.4518125542581295
 50
178.16136411098947
 51
202.71358659124255
  0
ARC
  8
_0-2_決定
  6
CONTINUOUS
 62
    7
 10
1197.4317409126863
 20
973.05621393791682
 40
2.8544121069943733
 50
120.61960433124298
 51
178.86752134169512
  0
ARC
  8
_0-2_決定
  6
CONTINUOUS
 62
    7
 10
1196.4384400251092
 20
974.69359800713505
 40
0.9396390789857576
 50
1.1605259053180397
 51
119.34971150080753
  0
ARC
  8
_0-2_決定
  6
CONTINUOUS
 62
    7
 10
1194.7079356640245
 20
974.85261398429884
 40
2.6736178652952454
 50
328.92572071422609
 51
356.99874369451953
  0
ARC
  8
_0-2_決定
  6
CONTINUOUS
 62
    7
 10
1193.6136609473317
 20
975.41996523243392
 40
3.9044973662341445
 50
307.26579365051037
 51
330.0832053911476
  0
ARC
  8
_0-2_決定
  6
CONTINUOUS
 62
    7
 10
1195.5173326952822
 20
973.13166017993808
 40
0.9396390789858293
 50
181.16052590532055
 51
299.34971150081003
  0
LINE
  8
_0-2_決定
  6
CONTINUOUS
 62
    7
 10
1370.7778843601955
 20
1117.1126270935365
 11
1165.7778863601957
 21
1000.5126290935366
  0
LINE
  8
_0-2_決定
  6
CONTINUOUS
 62
    7
 10
1466.3778823601956
 20
1046.7126290935366
 11
1374.9778823601957
 21
993.51262909353636
  0
LINE
  8
_0-2_決定
  6
CONTINUOUS
 62
    7
 10
1576.9778803601957
 20
995.71262909353663
 11
2272.7778703601957
 21
1397.3126230935363
  0
LINE
  8
_0-2_決定
  6
CONTINUOUS
 62
    7
 10
1483.5778823601956
 20
1057.5126270935366
 11
2272.7778703601957
 21
1512.9126210935365
  0
LINE
  8
_0-2_決定
  6
CONTINUOUS
 62
    7
 10
1389.1778823601956
 20
1130.5126270935366
 11
2108.1778723601956
 21
1544.5126210935364
  0
LINE
  8
_0-2_決定
  6
CONTINUOUS
 62
    7
 10
2155.3778723601959
 20
1545.3126210935366
 11
1464.9778823601957
 21
1146.7126270935364
  0
LINE
  8
_0-2_決定
  6
CONTINUOUS
 62
    7
 10
1464.9778823601957
 20
1146.7126270935364
 11
1465.1778823601956
 21
1145.5126270935366
  0
ARC
  8
_0-2_決定
  6
CONTINUOUS
 62
    7
 10
1492.5777662595438
 20
1150.778399838508
 40
27.901290298110439
 50
190.87859874058168
 51
201.49981377346975
  0
ARC
  8
_0-2_決定
  6
CONTINUOUS
 62
    7
 10
1478.6097190293788
 20
1145.2912416019612
 40
12.894130996690594
 50
201.56162028395886
 51
215.99799232483642
  0
ARC
  8
_0-2_決定
  6
CONTINUOUS
 62
    7
 10
1447.43092720901
 20
1120.5087502863478
 40
26.951985552872241
 50
24.797214070720468
 51
39.666343383263161
  0
ARC
  8
_0-2_決定
  6
CONTINUOUS
 62
    7
 10
1466.3394231648451
 20
1129.122690490944
 40
6.1751297599601029
 50
350.96185521297173
 51
25.823995161810185
  0
ARC
  8
_0-2_決定
  6
CONTINUOUS
 62
    7
 10
1469.1088199922262
 20
1129.0033662178312
 40
3.4360461736472399
 50
326.61474158865252
 51
345.66490802865064
  0
LINE
  8
_0-2_決定
  6
CONTINUOUS
 62
    7
 10
1471.9778823601955
 20
1127.1126270935365
 11
2195.5778703601959
 21
1544.9126210935365
  0
LINE
  8
_0-2_決定
  6
CONTINUOUS
 62
    7
 10
1469.3778823601954
 20
1126.7126270935364
 11
1469.3778823601954
 21
1131.9126270935367
  0
LINE
  8
_0-2_決定
  6
CONTINUOUS
 62
    7
 10
1469.3778823601954
 20
1131.9126270935367
 11
1464.9778823601957
 21
1134.5126270935366
  0
LINE
  8
_0-2_決定
  6
CONTINUOUS
 62
    7
 10
1464.9778823601957
 20
1134.5126270935366
 11
1464.9778823601957
 21
1146.7126270935364
  0
ARC
  8
_0-2_決定
  6
CONTINUOUS
 62
    7
 10
1490.0131761998002
 20
1150.5451760142844
 40
25.326949458339222
 50
188.70360171609434
 51
210.44264994472562
  0
ARC
  8
_0-2_決定
  6
CONTINUOUS
 62
    7
 10
1449.922617699983
 20
1122.1895010954267
 40
23.962932386659162
 50
21.501752334136
 51
40.375742593063862
  0
ARC
  8
_0-2_決定
  6
CONTINUOUS
 62
    7
 10
1467.613661214933
 20
1129.0750173965403
 40
4.9799372402288569
 50
343.8834650369123
 51
22.398794634364776
  0
ARC
  8
_0-2_決定
  6
CONTINUOUS
 62
    7
 10
1469.5020094668346
 20
1128.8385874954588
 40
3.114370732150773
 50
316.95055876747199
 51
338.41020821616473
  0
ARC
  8
_0-2_決定
  6
CONTINUOUS
 62
    7
 10
1470.3025593415432
 20
1127.7819641498204
 40
1.8221031116013053
 50
283.82235794435115
 51
324.06481609513691
  0
ARC
  8
_0-2_決定
  6
CONTINUOUS
 62
    7
 10
1470.563023774587
 20
1127.3440446986401
 40
1.3428508346577208
 50
208.04772175065813
 51
277.4819848507542
  0
LINE
  8
_0-2_決定
  6
CONTINUOUS
 62
    7
 10
2271.9778703601955
 20
580.71263509353651
 11
1582.9778803601957
 21
978.51262909353636
  0
ARC
  8
_0-2_決定
  6
CONTINUOUS
 62
    7
 10
1587.2265830716844
 20
987.34264609538343
 40
9.7990139801675902
 50
229.30939826028893
 51
244.3047285829058
  0
ARC
  8
_0-2_決定
  6
CONTINUOUS
 62
    7
 10
1592.2521101155153
 20
992.93495660762323
 40
17.316629429290259
 50
218.59507100998246
 51
228.76503760216156
  0
ARC
  8
_0-2_決定
  6
CONTINUOUS
 62
    7
 10
1606.2324924574716
 20
1004.3452309726104
 40
35.361752800190573
 50
211.79718098369727
 51
218.91400773608831
  0
ARC
  8
_0-2_決定
  6
CONTINUOUS
 62
    7
 10
1565.1380409987644
 20
979.83273900413474
 40
12.50804383545468
 50
28.040054517796154
 51
40.720634929905117
  0
ARC
  8
_0-2_決定
  6
CONTINUOUS
 62
    7
 10
1549.6212674749597
 20
966.43831583537667
 40
33.006349022047601
 50
40.770848436619112
 51
58.274059856184657
  0
LINE
  8
_0-2_決定
  6
CONTINUOUS
 62
    7
 10
1566.9778803601957
 20
994.51262909353636
 11
1471.1778823601958
 21
1049.7126290935366
  0
ARC
  8
_0-2_決定
  6
CONTINUOUS
 62
    7
 10
1473.9007812450134
 20
1053.2194009218028
 40
4.4397778089069764
 50
184.99766427080948
 51
232.1717763767985
  0
ARC
  8
_0-2_決定
  6
CONTINUOUS
 62
    7
 10
1485.5360203980581
 20
1054.6294449466145
 40
16.158352157720962
 50
179.70503665553133
 51
186.38452023285919
  0
LINE
  8
_0-2_決定
  6
CONTINUOUS
 62
    7
 10
1469.3778823601954
 20
1054.7126290935366
 11
1469.3778823601954
 21
1131.7126270935364
  0
LINE
  8
_0-2_決定
  6
CONTINUOUS
 62
    7
 10
1469.3778823601954
 20
1131.7126270935364
 11
1464.9778823601957
 21
1134.7126270935364
  0
LINE
  8
_0-2_決定
  6
CONTINUOUS
 62
    7
 10
1464.9778823601957
 20
1134.7126270935364
 11
1464.9778823601957
 21
1056.1126290935363
  0
ARC
  8
_0-2_決定
  6
CONTINUOUS
 62
    7
 10
1480.8446584305327
 20
1054.1503641115967
 40
15.987653571602234
 50
172.94995299290679
 51
192.8576847372841
  0
ARC
  8
_0-2_決定
  6
CONTINUOUS
 62
    7
 10
1472.2282258436892
 20
1052.4156717244346
 40
7.2048020591792987
 50
194.65697977012269
 51
229.80053510007696
  0
LINE
  8
_0-2_決定
  6
CONTINUOUS
 62
    7
 10
1467.5778823601956
 20
1046.9126290935365
 11
1566.5778803601956
 21
989.51262909353636
  0
ARC
  8
_0-2_決定
  6
CONTINUOUS
 62
    7
 10
1556.8442069601836
 20
975.33684884058425
 40
17.19584669733014
 50
25.399547996446433
 51
55.524906987744274
  0
ARC
  8
_0-2_決定
  6
CONTINUOUS
 62
    7
 10
1583.2238727602048
 20
987.14499859711486
 40
11.716716714050628
 50
202.22808007225177
 51
229.52190263187504
  0
ARC
  8
_0-2_決定
  6
CONTINUOUS
 62
    7
 10
1592.3732439681432
 20
997.12080920663993
 40
25.248872402932484
 50
228.42434663142956
 51
236.55555873782754
  0
ARC
  8
_0-2_決定
  6
CONTINUOUS
 62
    7
 10
1638.4977954680153
 20
1067.3737761880379
 40
109.29017939782996
 50
236.67671815398569
 51
238.98084758893572
  0
LINE
  8
_0-2_決定
  6
CONTINUOUS
 62
    7
 10
1582.1778803601956
 20
973.71262909353675
 11
2272.3778703601956
 21
575.51263509353669
  0
LINE
  8
_0-2_決定
  6
CONTINUOUS
 62
    7
 10
1364.9778843601957
 20
1545.9126210935365
 11
1364.9778843601957
 21
1137.3126270935363
  0
ARC
  8
_0-2_決定
  6
CONTINUOUS
 62
    7
 10
1397.7823949466767
 20
1135.8513560692031
 40
32.837040485176239
 50
177.44945587901688
 51
188.4031653731671
  0
ARC
  8
_0-2_決定
  6
CONTINUOUS
 62
    7
 10
1375.8549245252325
 20
1132.7096420016435
 40
10.686290069612118
 50
188.92026939559457
 51
220.90187732695099
  0
ARC
  8
_0-2_決定
  6
CONTINUOUS
 62
    7
 10
1357.0707704840343
 20
1117.4556150244314
 40
13.521114446170156
 50
12.372021702543737
 51
37.638355333852779
  0
ARC
  8
_0-2_決定
  6
CONTINUOUS
 62
    7
 10
1349.4910627399227
 20
1115.486204003988
 40
21.348864765123604
 50
4.3692044990658285
 51
13.176270095993623
  0
LINE
  8
_0-2_決定
  6
CONTINUOUS
 62
    7
 10
1370.7778843601955
 20
1117.1126270935365
 11
1370.9778843601955
 21
1034.3126290935365
  0
ARC
  8
_0-2_決定
  6
CONTINUOUS
 62
    7
 10
5563.16588957555
 20
971.18222903863114
 40
4192.6633204304144
 50
179.13724477730261
 51
179.65657283393611
  0
LINE
  8
_0-2_決定
  6
CONTINUOUS
 62
    7
 10
1370.5778843601956
 20
996.31262909353666
 11
1374.9778823601957
 21
993.31262909353654
  0
ARC
  8
_0-2_決定
  6
CONTINUOUS
 62
    7
 10
18373.413326817528
 20
930.89391960839544
 40
16998.55004565616
 50
179.6514119077375
 51
179.78960931117311
  0
LINE
  8
_0-2_決定
  6
CONTINUOUS
 62
    7
 10
1375.1778823601956
 20
1034.3126290935365
 11
1375.3778823601954
 21
1034.3126290935365
  0
LINE
  8
_0-2_決定
  6
CONTINUOUS
 62
    7
 10
1375.3778823601954
 20
1034.3126290935365
 11
1375.3778823601954
 21
1115.1126270935365
  0
ARC
  8
_0-2_決定
  6
CONTINUOUS
 62
    7
 10
1347.9400089617852
 20
1114.4182566427335
 40
27.446658210976178
 50
1.4496752601413554
 51
27.079331092890833
  0
ARC
  8
_0-2_決定
  6
CONTINUOUS
 62
    7
 10
1387.4091119426726
 20
1136.8719953682798
 40
18.03127336236065
 50
179.8708894100269
 51
213.52759905796006
  0
LINE
  8
_0-2_決定
  6
CONTINUOUS
 62
    7
 10
1369.3778843601956
 20
1136.9126270935367
 11
1369.3778843601956
 21
1545.9126210935365
  0
LINE
  8
_0-0_文字
  6
CONTINUOUS
 62
    7
 10
1818.3778763601958
 20
928.1126290935365
 11
1918.9778743601958
 21
1102.1126270935363
  0
LINE
  8
_0-0_文字
  6
CONTINUOUS
 62
    7
 10
1918.9778743601958
 20
1102.1126270935363
 11
1937.5778743601959
 21
1102.1126270935363
  0
LINE
  8
_0-0_文字
  6
CONTINUOUS
 62
    7
 10
1327.177884360196
 20
1045.1126290935363
 11
1471.7778823601957
 21
1295.7126250935366
  0
LINE
  8
_0-0_文字
  6
CONTINUOUS
 62
    7
 10
1471.7778823601957
 20
1295.7126250935366
 11
1490.9778823601957
 21
1295.7126250935366
  0
TEXT
  8
_0-0_文字
 62
    7
 10
695.15789436019554
 20
444.13263709353691
 40
45.999999999999943
 41
1.0000000000000011
 50
0
  1
● 改修工事の場合、既存下地とリベットルーフとの間に絶縁シートが必要です。
  0
TEXT
  8
_0-0_文字
 62
    7
 10
1937.5778743601959
 20
1079.1126270935363
 40
45.999999999999943
 41
1.0000000000000009
 50
0
  1
リベットルーフ
  0
TEXT
  8
_0-0_文字
 62
    7
 10
1490.9778823601957
 20
1272.7126250935364
 40
45.999999999999943
 41
1.0000000000000011
 50
0
  1
FL鋼板
  0
ENDSEC
  0
EOF
