  0
SECTION
  2
HEADER
  9
$ACADVER
  1
AC1009
  9
$INSBASE
 10
0
 20
0
 30
0
  9
$EXTMIN
 10
0
 20
0
  9
$EXTMAX
 10
297
 20
210
  9
$LIMMIN
 10
0
 20
0
  9
$LIMMAX
 10
297
 20
210
  9
$LTSCALE
 40
1
  0
ENDSEC
  0
SECTION
  2
TABLES
  0
TABLE
  2
LTYPE
 70
     9
  0
LTYPE
  2
CONTINUOUS
 70
    64
  3
実線
 72
    65
 73
     0
 40
0.0
  0
LTYPE
  2
DASHED1
 70
    64
  3
--  --  --  --  --  --  --  --  
 72
    65
 73
     2
 40
2.5
 49
1.25
 49
-1.25
  0
LTYPE
  2
DASHED2
 70
    64
  3
----    ----    ----    ----    
 72
    65
 73
     2
 40
5.0
 49
2.5
 49
-2.5
  0
LTYPE
  2
DASHED3
 70
    64
  3
------  ------  ------  ------  
 72
    65
 73
     2
 40
5.0
 49
3.75
 49
-1.25
  0
LTYPE
  2
CENTER1
 70
    64
  3
----- - ----- - ----- - ----- - 
 72
    65
 73
     4
 40
10.0
 49
6.25
 49
-1.25
 49
1.25
 49
-1.25
  0
LTYPE
  2
CENTER2
 70
    64
  3
----------  --  ----------  --  
 72
    65
 73
     4
 40
20.0
 49
12.5
 49
-2.5
 49
2.5
 49
-2.5
  0
LTYPE
  2
PHANTOM1
 70
    64
  3
--- - - --- - - --- - - --- - - 
 72
    65
 73
     6
 40
10.0
 49
3.25
 49
-1.25
 49
1.25
 49
-1.25
 49
1.25
 49
-1.25
  0
LTYPE
  2
PHANTOM2
 70
    64
  3
--------  -  -  --------  -  -  
 72
    65
 73
     6
 40
20.0
 49
10.0
 49
-2.5
 49
1.25
 49
-2.5
 49
1.25
 49
-2.5
  0
LTYPE
  2
DOT
 70
    64
  3
-   -   -   -   -   -   -   -   
 72
    65
 73
     2
 40
2.5
 49
0.625
 49
-1.875
  0
LTYPE
  2
DUMMY
 70
    64
  3
ダミー
 72
    65
 73
     0
 40
0.0
  0
LTYPE
  2
RAND1
 70
    64
  3
ランダム線1
 72
    65
 73
     4
 40
10.0
 49
1.0
 49
-2.0
 49
3.0
 49
-4.0
  0
LTYPE
  2
RAND2
 70
    64
  3
ランダム線2
 72
    65
 73
     4
 40
14.0
 49
2.0
 49
-3.0
 49
4.0
 49
-5.0
  0
LTYPE
  2
RAND3
 70
    64
  3
ランダム線3
 72
    65
 73
     4
 40
18.0
 49
3.0
 49
-4.0
 49
5.0
 49
-6.0
  0
LTYPE
  2
RAND4
 70
    64
  3
ランダム線4
 72
    65
 73
     4
 40
22.0
 49
4.0
 49
-5.0
 49
6.0
 49
-7.0
  0
LTYPE
  2
RAND5
 70
    64
  3
ランダム線5
 72
    65
 73
     4
 40
26.0
 49
5.0
 49
-6.0
 49
7.0
 49
-8.0
  0
LTYPE
  2
LONG1
 70
    64
  3
----------  --  ----------  --  
 72
    65
 73
     4
 40
40.0
 49
32.5
 49
-2.5
 49
2.5
 49
-2.5
  0
LTYPE
  2
LONG2
 70
    64
  3
--------  -  -  --------  -  -  
 72
    65
 73
     6
 40
40.0
 49
30.0
 49
-2.5
 49
1.25
 49
-2.5
 49
1.25
 49
-2.5
  0
LTYPE
  2
LONG3
 70
    64
  3
+++++++++++++++..+++++++++++++++
 72
    65
 73
     2
 40
40.0
 49
37.5
 49
-2.5
  0
LTYPE
  2
LONG4
 70
    64
  3
+++++++++++++++..+++++++++++++++
 72
    65
 73
     2
 40
80.0
 49
75.0
 49
-5.0
  0
LTYPE
  2
LONG5
 70
    64
  3
----------  --  ----------  --  
 72
    65
 73
     4
 40
60.0
 49
37.5
 49
-7.5
 49
7.5
 49
-7.5
  0
LTYPE
  2
dashed
 70
   64
  3
-------   -------------   ------
 72
   65
 73
    2
 40
7.5
 49
6
 49
-1.5
  0
LTYPE
  2
dashed_spaced
 70
   64
  3
----        --------        ----
 72
   65
 73
    2
 40
12
 49
6
 49
-6
  0
LTYPE
  2
long_dashed_dotted
 70
   64
  3
------------- --- --------------
 72
   65
 73
    4
 40
15.25
 49
12
 49
-1.5
 49
0.25
 49
-1.5
  0
LTYPE
  2
long_dashed_double-dotted
 70
   64
  3
----------- --- --- ------------
 72
   65
 73
    6
 40
17
 49
12
 49
-1.5
 49
0.25
 49
-1.5
 49
0.25
 49
-1.5
  0
LTYPE
  2
long_dashed_triplicate-dotted
 70
   64
  3
--------- --- --- --- ----------
 72
   65
 73
    8
 40
18.75
 49
12
 49
-1.5
 49
0.25
 49
-1.5
 49
0.25
 49
-1.5
 49
0.25
 49
-1.5
  0
LTYPE
  2
dotted
 70
   64
  3
   -       -       -       -    
 72
   65
 73
    2
 40
1.75
 49
0.25
 49
-1.5
  0
LTYPE
  2
chain
 70
   64
  3
-------------- -- --------------
 72
   65
 73
    4
 40
18.5
 49
12
 49
-1.5
 49
3.5
 49
-1.5
  0
LTYPE
  2
chain_double_dash
 70
   64
  3
------------ -- -- -------------
 72
   65
 73
    6
 40
23.5
 49
12
 49
-1.5
 49
3.5
 49
-1.5
 49
3.5
 49
-1.5
  0
LTYPE
  2
dashed_dotted
 70
   64
  3
-----------     -     ----------
 72
   65
 73
    4
 40
9.25
 49
6
 49
-1.5
 49
0.25
 49
-1.5
  0
LTYPE
  2
double-dashed_dotted
 70
   64
  3
------   -----------   -   -----
 72
   65
 73
    6
 40
16.75
 49
6
 49
-1.5
 49
6
 49
-1.5
 49
0.25
 49
-1.5
  0
LTYPE
  2
dashed_double-dotted
 70
   64
  3
---------    -    -    ---------
 72
   65
 73
    6
 40
11
 49
6
 49
-1.5
 49
0.25
 49
-1.5
 49
0.25
 49
-1.5
  0
LTYPE
  2
double-dashed_double-dotted
 70
   64
  3
-----   ---------   -   -   ----
 72
   65
 73
    8
 40
18.5
 49
6
 49
-1.5
 49
6
 49
-1.5
 49
0.25
 49
-1.5
 49
0.25
 49
-1.5
  0
LTYPE
  2
dashed_triplicate-dotted
 70
   64
  3
-------    -    -    -    ------
 72
   65
 73
    8
 40
12.75
 49
6
 49
-1.5
 49
0.25
 49
-1.5
 49
0.25
 49
-1.5
 49
0.25
 49
-1.5
  0
LTYPE
  2
double-dashed_triplicate-dotted
 70
   64
  3
-----  ---------  -  -  -  -----
 72
   65
 73
   10
 40
20.25
 49
6
 49
-1.5
 49
6
 49
-1.5
 49
0.25
 49
-1.5
 49
0.25
 49
-1.5
 49
0.25
 49
-1.5
  0
LTYPE
  2
undefined
 70
   64
  3
--------------------------------
 72
   65
 73
    0
 40
0
  0
LTYPE
  2
AIGENLINE001
 70
   64
  3
                                
 72
   65
 73
    4
 40
4.2333600000000002
 49
2.1166800000000001
 49
-0.7055599999999999
 49
0.7055599999999999
 49
-0.7055599999999999
  0
LTYPE
  2
2-AXIS
 70
   64
  3
                                
 72
   65
 73
    0
 40
0
  0
LTYPE
  2
BORDER
 70
   64
  3
                                
 72
   65
 73
    0
 40
0
  0
LTYPE
  2
BORDER2
 70
   64
  3
                                
 72
   65
 73
    0
 40
0
  0
LTYPE
  2
BORDERX2
 70
   64
  3
                                
 72
   65
 73
    0
 40
0
  0
LTYPE
  2
CENTER
 70
   64
  3
                                
 72
   65
 73
    0
 40
0
  0
LTYPE
  2
CENTER2_23
 70
   64
  3
                                
 72
   65
 73
    0
 40
0
  0
LTYPE
  2
CENTERX2
 70
   64
  3
                                
 72
   65
 73
    0
 40
0
  0
LTYPE
  2
DASHDOT
 70
   64
  3
                                
 72
   65
 73
    0
 40
0
  0
LTYPE
  2
DASHDOT2
 70
   64
  3
                                
 72
   65
 73
    0
 40
0
  0
LTYPE
  2
DASHDOTX2
 70
   64
  3
                                
 72
   65
 73
    0
 40
0
  0
LTYPE
  2
DASHED
 70
   64
  3
                                
 72
   65
 73
    0
 40
0
  0
LTYPE
  2
DASHED2_29
 70
   64
  3
                                
 72
   65
 73
    0
 40
0
  0
LTYPE
  2
DASHEDX2
 70
   64
  3
                                
 72
   65
 73
    0
 40
0
  0
LTYPE
  2
DIVIDE
 70
   64
  3
                                
 72
   65
 73
    0
 40
0
  0
LTYPE
  2
DIVIDE2
 70
   64
  3
                                
 72
   65
 73
    0
 40
0
  0
ENDTAB
  0
TABLE
  2
STYLE
  5
3
100
AcDbSymbolTable
 70
     1
  0
STYLE
  5
10
100
AcDbSymbolTableRecord
100
AcDbTextStyleTableRecord
  2
STANDARD
 70
     0
 40
0.0
 41
1.0
 50
0.0
 71
     0
 42
0.2
  3
txt
  4
bigfont.shx
  0
STYLE
  5
26
100
AcDbSymbolTableRecord
100
AcDbTextStyleTableRecord
  2
TATEGAKI
 70
    68
 40
0.0
 41
1.0
 50
0.0
 71
     0
 42
1.0
  3
txt
  4
bigfont.shx
  0
ENDTAB
  0
TABLE
  2
LAYER
 70
   10
  0
LAYER
  2
_1-2_ハッチング
 70
   64
 62
    7
  6
CONTINUOUS
  0
LAYER
  2
_1-4_リベットル__フ
 70
   64
 62
    7
  6
CONTINUOUS
  0
LAYER
  2
_1-5_ＦＬ鋼板__ディスク
 70
   64
 62
    7
  6
CONTINUOUS
  0
LAYER
  2
_1-6_アンカ__類
 70
   64
 62
    7
  6
CONTINUOUS
  0
LAYER
  2
_1-a_元図__躯体
 70
   64
 62
    7
  6
CONTINUOUS
  0
LAYER
  2
_1-b_その他
 70
   64
 62
    7
  6
CONTINUOUS
  0
LAYER
  2
_1-c_アンカ__類②
 70
   64
 62
    7
  6
CONTINUOUS
  0
LAYER
  2
_e-e_
 70
   64
 62
    7
  6
CONTINUOUS
  0
LAYER
  2
_f-f_
 70
   64
 62
    7
  6
CONTINUOUS
  0
LAYER
  2
ADD_LINE
 70
   64
 62
    7
  6
CONTINUOUS
  0
ENDTAB
  0
ENDSEC
  0
SECTION
  2
BLOCKS
  0
ENDSEC
  0
SECTION
  2
ENTITIES
  0
LINE
  8
_f-f_
  6
CONTINUOUS
 62
    7
 10
13.5
 20
197
 11
13.5
 21
17
  0
LINE
  8
_f-f_
  6
CONTINUOUS
 62
    7
 10
13.5
 20
197
 11
283.5
 21
197
  0
LINE
  8
_f-f_
  6
CONTINUOUS
 62
    7
 10
283.5
 20
197
 11
283.5
 21
17
  0
LINE
  8
_f-f_
  6
CONTINUOUS
 62
    7
 10
283.5
 20
17
 11
13.5
 21
17
  0
SOLID
  8
_f-f_
  6
CONTINUOUS
 62
    5
 10
236.97536482015869
 20
15.135014055698207
 11
235.41260194015859
 21
14.597233959698244
 12
233.7490795136022
 22
12.030232905347191
 13
233.7490795136022
 23
12.030232905347191
  0
SOLID
  8
_f-f_
  6
CONTINUOUS
 62
    5
 10
236.97536482015869
 20
15.135014055698207
 11
235.44783384279719
 21
14.653922266010412
 12
235.41260194015859
 22
14.597233959698244
 13
235.41260194015859
 23
14.597233959698244
  0
SOLID
  8
_f-f_
  6
CONTINUOUS
 62
    5
 10
236.97536482015869
 20
15.135014055698207
 11
235.44348964523115
 21
14.814711211354776
 12
235.44783384279719
 22
14.653922266010412
 13
235.44783384279719
 23
14.653922266010412
  0
SOLID
  8
_f-f_
  6
CONTINUOUS
 62
    5
 10
236.97536482015869
 20
15.135014055698207
 11
235.37802752940809
 21
14.882325091646777
 12
235.44348964523115
 22
14.814711211354776
 13
235.44348964523115
 23
14.814711211354776
  0
SOLID
  8
_f-f_
  6
CONTINUOUS
 62
    5
 10
236.97536482015869
 20
15.135014055698207
 11
235.23671672676957
 21
14.943561152901822
 12
235.37802752940809
 22
14.882325091646777
 13
235.37802752940809
 23
14.882325091646777
  0
SOLID
  8
_f-f_
  6
CONTINUOUS
 62
    5
 10
236.97536482015869
 20
15.135014055698207
 11
231.75858153825016
 21
14.827104307519747
 12
235.23671672676957
 22
14.943561152901822
 13
235.23671672676957
 23
14.943561152901822
  0
SOLID
  8
_f-f_
  6
CONTINUOUS
 62
    5
 10
236.97536482015869
 20
15.135014055698207
 11
232.06580002015863
 21
15.134816487698203
 12
231.75858153825016
 22
14.827104307519747
 13
231.75858153825016
 23
14.827104307519747
  0
SOLID
  8
_f-f_
  6
CONTINUOUS
 62
    5
 10
233.7490795136022
 20
12.030232905347191
 11
237.28752157062101
 21
14.827697368205875
 12
236.97536482015869
 22
15.135014055698207
 13
236.97536482015869
 23
15.135014055698207
  0
SOLID
  8
_f-f_
  6
CONTINUOUS
 62
    5
 10
233.7490795136022
 20
12.030232905347191
 11
237.23911742342443
 21
14.662629348534509
 12
237.28752157062101
 22
14.827697368205875
 13
237.28752157062101
 23
14.827697368205875
  0
SOLID
  8
_f-f_
  6
CONTINUOUS
 62
    5
 10
233.7490795136022
 20
12.030232905347191
 11
234.52749735533226
 21
10.733752628573797
 12
234.7892749001586
 22
10.88042668929819
 13
234.7892749001586
 23
10.88042668929819
  0
SOLID
  8
_f-f_
  6
CONTINUOUS
 62
    5
 10
233.7490795136022
 20
12.030232905347191
 11
234.31609954015863
 21
10.81863729729821
 12
234.52749735533226
 22
10.733752628573797
 13
234.52749735533226
 23
10.733752628573797
  0
SOLID
  8
_f-f_
  6
CONTINUOUS
 62
    5
 10
233.7490795136022
 20
12.030232905347191
 11
233.74611586015862
 21
11.682740458898223
 12
234.31609954015863
 22
10.81863729729821
 13
234.31609954015863
 23
10.81863729729821
  0
SOLID
  8
_f-f_
  6
CONTINUOUS
 62
    5
 10
233.7490795136022
 20
12.030232905347191
 11
233.69277264325217
 21
11.856303946266479
 12
233.74611586015862
 22
11.682740458898223
 13
233.74611586015862
 23
11.682740458898223
  0
SOLID
  8
_f-f_
  6
CONTINUOUS
 62
    5
 10
231.75858153825016
 20
14.827104307519747
 11
235.08661474015867
 21
14.909095047698244
 12
235.23671672676957
 22
14.943561152901822
 13
235.23671672676957
 23
14.943561152901822
  0
SOLID
  8
_f-f_
  6
CONTINUOUS
 62
    5
 10
231.75858153825016
 20
14.827104307519747
 11
233.61868450015868
 21
12.669167847698219
 12
235.08661474015867
 22
14.909095047698244
 13
235.08661474015867
 23
14.909095047698244
  0
SOLID
  8
_f-f_
  6
CONTINUOUS
 62
    5
 10
231.75858153825016
 20
14.827104307519747
 11
233.36184569383056
 21
12.528992955061909
 12
233.61868450015868
 22
12.669167847698219
 13
233.61868450015868
 23
12.669167847698219
  0
SOLID
  8
_f-f_
  6
CONTINUOUS
 62
    5
 10
231.75858153825016
 20
14.827104307519747
 11
233.14254562015859
 21
12.622541799698183
 12
233.36184569383056
 22
12.528992955061909
 13
233.36184569383056
 23
12.528992955061909
  0
SOLID
  8
_f-f_
  6
CONTINUOUS
 62
    5
 10
231.75858153825016
 20
14.827104307519747
 11
231.79611970015864
 21
14.683571175698262
 12
233.14254562015859
 22
12.622541799698183
 13
233.14254562015859
 23
12.622541799698183
  0
ARC
  8
_f-f_
  6
CONTINUOUS
 62
    1
 10
235.22789232415863
 20
14.712033315698221
 40
0.217477092
 50
328.13846999999998
 51
2.2615330000000116
  0
ARC
  8
_f-f_
  6
CONTINUOUS
 62
    1
 10
235.20651958255868
 20
14.716275265298208
 40
0.2387205912
 50
1.0417719999999999
 51
44.073639999999997
  0
ARC
  8
_f-f_
  6
CONTINUOUS
 62
    1
 10
235.19156286175863
 20
14.452033827698216
 40
0.4689556368
 50
66.570734999999999
 51
102.931843
  0
ARC
  8
_f-f_
  6
CONTINUOUS
 62
    1
 10
237.02758780495867
 20
14.814288750098285
 40
0.260279376
 50
324.36078900000001
 51
2.9529709999999993
  0
ARC
  8
_f-f_
  6
CONTINUOUS
 62
    1
 10
232.07207198095867
 20
14.832415614098267
 40
0.3135354768
 50
180.97063600000004
 51
208.34173000000004
  0
ARC
  8
_f-f_
  6
CONTINUOUS
 62
    1
 10
233.98573291615867
 20
11.857541216498191
 40
0.2929628856
 50
143.88086999999999
 51
180.24197799999999
  0
ARC
  8
_f-f_
  6
CONTINUOUS
 62
    1
 10
234.52945733935863
 20
11.04430852209822
 40
0.3105620784
 50
226.60652999999999
 51
269.63839899999999
  0
ARC
  8
_f-f_
  6
CONTINUOUS
 62
    1
 10
234.52688648575864
 20
11.041782944498237
 40
0.3080315616
 50
270.11356000000001
 51
328.41042499999998
  0
ARC
  8
_f-f_
  6
CONTINUOUS
 62
    1
 10
234.00220761775864
 20
11.856427426898193
 40
0.3094359408
 50
180.022864
 51
214.145926
  0
ARC
  8
_f-f_
  6
CONTINUOUS
 62
    1
 10
233.36445399775863
 20
12.838928151698155
 40
0.3099455016
 50
224.27817500000003
 51
269.51790500000004
  0
ARC
  8
_f-f_
  6
CONTINUOUS
 62
    1
 10
233.35885129855865
 20
12.839866599698212
 40
0.3108880655999999
 50
270.55186700000002
 51
326.69684100000006
  0
ARC
  8
_f-f_
  6
CONTINUOUS
 62
    1
 10
236.97555497935861
 20
14.823012200498198
 40
0.3120026784
 50
0.860427
 51
90.034943999999982
  0
ARC
  8
_f-f_
  6
CONTINUOUS
 62
    1
 10
232.06827949855861
 20
14.825122062098245
 40
0.309704304
 50
90.458761999999993
 51
179.63327899999999
  0
SOLID
  8
_f-f_
  6
CONTINUOUS
 62
   70
 10
235.3592583789839
 20
15.664101361536453
 11
236.00431761052957
 21
15.467422329706778
 12
236.2927671804093
 22
15.73818913178016
 13
236.2927671804093
 23
15.73818913178016
  0
SOLID
  8
_f-f_
  6
CONTINUOUS
 62
   70
 10
235.60029133369804
 20
16.279624399265259
 11
235.3592583789839
 21
15.664101361536453
 12
236.5328128054206
 22
16.353613516858246
 13
236.2927671804093
 23
15.73818913178016
  0
SOLID
  8
_f-f_
  6
CONTINUOUS
 62
   70
 10
236.19101981268187
 20
16.670512794070959
 11
235.60029133369804
 21
16.279624399265259
 12
236.42019869045436
 22
16.615391008345767
 13
236.5328128054206
 23
16.353613516858246
  0
ARC
  8
_f-f_
  6
CONTINUOUS
 62
    1
 10
236.00221070815871
 20
16.616671155698256
 40
1.1492505864
 50
235.98198100000002
 51
270.10504300000002
  0
ARC
  8
_f-f_
  6
CONTINUOUS
 62
    1
 10
235.63663664335866
 20
16.148141113298266
 40
0.7736713488000001
 50
298.37509499999999
 51
328.00274300000001
  0
ARC
  8
_f-f_
  6
CONTINUOUS
 62
    1
 10
234.71712471295865
 20
16.707292304498239
 40
1.8498135431999998
 50
328.40629300000006
 51
348.97735100000006
  0
ARC
  8
_f-f_
  6
CONTINUOUS
 62
    1
 10
237.17571194335866
 20
15.307750227698264
 40
1.8510779783999998
 50
148.329635
 51
168.90069299999999
  0
ARC
  8
_f-f_
  6
CONTINUOUS
 62
    1
 10
236.05002628015859
 20
16.301035695698289
 40
0.4856410776
 50
6.2152969999999996
 51
40.338358999999997
  0
SOLID
  8
_f-f_
  6
CONTINUOUS
 62
    5
 10
233.7490795136022
 20
12.030232905347191
 11
234.7892749001586
 21
10.88042668929819
 12
237.23911742342443
 22
14.662629348534509
 13
237.23911742342443
 23
14.662629348534509
  0
ARC
  8
_f-f_
  6
CONTINUOUS
 62
    1
 10
236.23946353375865
 20
16.367937159698243
 40
0.3064287911999999
 50
53.856383000000008
 51
99.096113000000003
  0
ARC
  8
_f-f_
  6
CONTINUOUS
 62
    1
 10
236.36472164575864
 20
15.766194423698238
 40
0.9208496303999999
 50
100.872968
 51
146.11269799999999
  0
LINE
  8
_f-f_
  6
CONTINUOUS
 62
    7
 10
267.37625600000001
 20
14.687935999999993
 11
267.06892800000003
 21
14.687935999999993
  0
LINE
  8
_f-f_
  6
CONTINUOUS
 62
    7
 10
267.06892800000003
 20
14.687935999999993
 11
267.06892800000003
 21
13.853760000000037
  0
LINE
  8
_f-f_
  6
CONTINUOUS
 62
    7
 10
267.04697599999997
 20
13.458624000000043
 11
267.02502399999992
 21
13.370815999999991
  0
LINE
  8
_f-f_
  6
CONTINUOUS
 62
    7
 10
267.02502399999992
 20
13.370815999999991
 11
267.02502399999992
 21
13.326912000000021
  0
LINE
  8
_f-f_
  6
CONTINUOUS
 62
    7
 10
267.02502399999992
 20
13.326912000000021
 11
266.99209599999995
 21
13.195199999999971
  0
LINE
  8
_f-f_
  6
CONTINUOUS
 62
    7
 10
266.99209599999995
 20
13.195199999999971
 11
266.97014399999995
 21
13.151296000000031
  0
LINE
  8
_f-f_
  6
CONTINUOUS
 62
    7
 10
266.97014399999995
 20
13.151296000000031
 11
266.93721599999992
 21
13.019583999999952
  0
LINE
  8
_f-f_
  6
CONTINUOUS
 62
    7
 10
266.93721599999992
 20
13.019583999999952
 11
266.91526399999998
 21
12.975680000000011
  0
LINE
  8
_f-f_
  6
CONTINUOUS
 62
    7
 10
266.91526399999998
 20
12.975680000000011
 11
266.90428799999995
 21
12.931776000000013
  0
LINE
  8
_f-f_
  6
CONTINUOUS
 62
    7
 10
266.90428799999995
 20
12.931776000000013
 11
266.88233600000001
 21
12.887871999999987
  0
LINE
  8
_f-f_
  6
CONTINUOUS
 62
    7
 10
266.88233600000001
 20
12.887871999999987
 11
266.87135999999998
 21
12.84396799999999
  0
LINE
  8
_f-f_
  6
CONTINUOUS
 62
    7
 10
266.87135999999998
 20
12.84396799999999
 11
266.82745599999998
 21
12.756160000000023
  0
LINE
  8
_f-f_
  6
CONTINUOUS
 62
    7
 10
266.82745599999998
 20
12.756160000000023
 11
266.81647999999996
 21
12.712256000000025
  0
LINE
  8
_f-f_
  6
CONTINUOUS
 62
    7
 10
266.81647999999996
 20
12.712256000000025
 11
266.7506239999999
 21
12.580544000000003
  0
LINE
  8
_f-f_
  6
CONTINUOUS
 62
    7
 10
266.7506239999999
 20
12.580544000000003
 11
266.71769599999999
 21
12.536639999999977
  0
LINE
  8
_f-f_
  6
CONTINUOUS
 62
    7
 10
266.71769599999999
 20
12.536639999999977
 11
266.67379199999993
 21
12.448831999999982
  0
LINE
  8
_f-f_
  6
CONTINUOUS
 62
    7
 10
266.67379199999993
 20
12.448831999999982
 11
266.64086399999997
 21
12.404927999999984
  0
LINE
  8
_f-f_
  6
CONTINUOUS
 62
    7
 10
266.64086399999997
 20
12.404927999999984
 11
266.61891199999997
 21
12.361024000000015
  0
LINE
  8
_f-f_
  6
CONTINUOUS
 62
    7
 10
266.61891199999997
 20
12.361024000000015
 11
266.48719999999992
 21
12.185407999999995
  0
LINE
  8
_f-f_
  6
CONTINUOUS
 62
    7
 10
266.48719999999992
 20
12.185407999999995
 11
266.44329599999992
 21
12.141503999999998
  0
LINE
  8
_f-f_
  6
CONTINUOUS
 62
    7
 10
266.44329599999992
 20
12.141503999999998
 11
266.41036799999995
 21
12.0976
  0
LINE
  8
_f-f_
  6
CONTINUOUS
 62
    7
 10
266.41036799999995
 20
12.0976
 11
266.36646399999995
 21
12.053696000000031
  0
LINE
  8
_f-f_
  6
CONTINUOUS
 62
    7
 10
266.36646399999995
 20
12.053696000000031
 11
266.36646399999995
 21
12.009792000000004
  0
LINE
  8
_f-f_
  6
CONTINUOUS
 62
    7
 10
266.36646399999995
 20
12.009792000000004
 11
266.38841599999989
 21
11.965888000000007
  0
LINE
  8
_f-f_
  6
CONTINUOUS
 62
    7
 10
266.38841599999989
 20
11.965888000000007
 11
266.42134399999998
 21
11.921984000000009
  0
LINE
  8
_f-f_
  6
CONTINUOUS
 62
    7
 10
266.42134399999998
 20
11.921984000000009
 11
266.44329599999992
 21
11.878080000000011
  0
LINE
  8
_f-f_
  6
CONTINUOUS
 62
    7
 10
266.44329599999992
 20
11.878080000000011
 11
266.476224
 21
11.834176000000014
  0
LINE
  8
_f-f_
  6
CONTINUOUS
 62
    7
 10
266.476224
 20
11.834176000000014
 11
266.49817599999994
 21
11.790272000000016
  0
LINE
  8
_f-f_
  6
CONTINUOUS
 62
    7
 10
266.49817599999994
 20
11.790272000000016
 11
266.53110399999997
 21
11.746368000000018
  0
LINE
  8
_f-f_
  6
CONTINUOUS
 62
    7
 10
266.53110399999997
 20
11.746368000000018
 11
266.55305599999997
 21
11.70246400000002
  0
LINE
  8
_f-f_
  6
CONTINUOUS
 62
    7
 10
269.22022399999992
 20
14.687935999999993
 11
268.9019199999999
 21
14.687935999999993
  0
LINE
  8
_f-f_
  6
CONTINUOUS
 62
    7
 10
268.9019199999999
 20
14.687935999999993
 11
268.9019199999999
 21
13.941568000000032
  0
LINE
  8
_f-f_
  6
CONTINUOUS
 62
    7
 10
268.9019199999999
 20
13.941568000000032
 11
268.56166399999995
 21
13.941568000000032
  0
LINE
  8
_f-f_
  6
CONTINUOUS
 62
    7
 10
268.37507199999993
 20
14.336704000000026
 11
268.35311999999999
 21
14.336704000000026
  0
LINE
  8
_f-f_
  6
CONTINUOUS
 62
    7
 10
268.35311999999999
 20
14.336704000000026
 11
268.34214399999996
 21
14.292800000000028
  0
LINE
  8
_f-f_
  6
CONTINUOUS
 62
    7
 10
268.34214399999996
 20
14.292800000000028
 11
268.32019199999996
 21
14.248896000000016
  0
LINE
  8
_f-f_
  6
CONTINUOUS
 62
    7
 10
268.32019199999996
 20
14.248896000000016
 11
268.29823999999996
 21
14.161087999999992
  0
LINE
  8
_f-f_
  6
CONTINUOUS
 62
    7
 10
268.29823999999996
 20
14.161087999999992
 11
268.27628800000002
 21
14.117184000000023
  0
LINE
  8
_f-f_
  6
CONTINUOUS
 62
    7
 10
268.27628800000002
 20
14.117184000000023
 11
268.26531199999999
 21
14.073279999999997
  0
LINE
  8
_f-f_
  6
CONTINUOUS
 62
    7
 10
268.26531199999999
 20
14.073279999999997
 11
268.24335999999994
 21
14.029375999999999
  0
LINE
  8
_f-f_
  6
CONTINUOUS
 62
    7
 10
268.24335999999994
 20
14.029375999999999
 11
268.23238399999997
 21
13.985471999999987
  0
LINE
  8
_f-f_
  6
CONTINUOUS
 62
    7
 10
268.23238399999997
 20
13.985471999999987
 11
268.18847999999991
 21
13.897663999999992
  0
LINE
  8
_f-f_
  6
CONTINUOUS
 62
    7
 10
268.18847999999991
 20
13.897663999999992
 11
268.17750399999989
 21
13.853760000000037
  0
LINE
  8
_f-f_
  6
CONTINUOUS
 62
    7
 10
268.17750399999989
 20
13.853760000000037
 11
268.11164799999995
 21
13.722048000000001
  0
LINE
  8
_f-f_
  6
CONTINUOUS
 62
    7
 10
268.11164799999995
 20
13.722048000000001
 11
268.07871999999998
 21
13.678143999999975
  0
LINE
  8
_f-f_
  6
CONTINUOUS
 62
    7
 10
268.07871999999998
 20
13.678143999999975
 11
268.03481599999992
 21
13.590336000000008
  0
LINE
  8
_f-f_
  6
CONTINUOUS
 62
    7
 10
268.03481599999992
 20
13.590336000000008
 11
267.90310399999998
 21
13.414720000000017
  0
LINE
  8
_f-f_
  6
CONTINUOUS
 62
    7
 10
267.90310399999998
 20
13.414720000000017
 11
267.85919999999999
 21
13.370815999999991
  0
LINE
  8
_f-f_
  6
CONTINUOUS
 62
    7
 10
267.85919999999999
 20
13.370815999999991
 11
267.99091199999998
 21
13.239103999999998
  0
LINE
  8
_f-f_
  6
CONTINUOUS
 62
    7
 10
267.99091199999998
 20
13.239103999999998
 11
268.02383999999995
 21
13.195199999999971
  0
LINE
  8
_f-f_
  6
CONTINUOUS
 62
    7
 10
268.02383999999995
 20
13.195199999999971
 11
268.11164799999995
 21
13.107392000000061
  0
LINE
  8
_f-f_
  6
CONTINUOUS
 62
    7
 10
268.9019199999999
 20
13.546432000000038
 11
268.9019199999999
 21
13.019583999999952
  0
LINE
  8
_f-f_
  6
CONTINUOUS
 62
    7
 10
268.87996799999996
 20
12.624447999999973
 11
268.85801599999996
 21
12.580544000000003
  0
LINE
  8
_f-f_
  6
CONTINUOUS
 62
    7
 10
268.85801599999996
 20
12.580544000000003
 11
268.82508799999994
 21
12.536639999999977
  0
LINE
  8
_f-f_
  6
CONTINUOUS
 62
    7
 10
268.82508799999994
 20
12.536639999999977
 11
268.80313599999999
 21
12.492735999999979
  0
LINE
  8
_f-f_
  6
CONTINUOUS
 62
    7
 10
268.80313599999999
 20
12.492735999999979
 11
268.70435199999997
 21
12.361024000000015
  0
LINE
  8
_f-f_
  6
CONTINUOUS
 62
    7
 10
268.70435199999997
 20
12.361024000000015
 11
268.68239999999997
 21
12.317120000000017
  0
LINE
  8
_f-f_
  6
CONTINUOUS
 62
    7
 10
268.68239999999997
 20
12.317120000000017
 11
268.64947199999995
 21
12.273216000000019
  0
LINE
  8
_f-f_
  6
CONTINUOUS
 62
    7
 10
268.64947199999995
 20
12.273216000000019
 11
268.60556799999995
 21
12.229311999999993
  0
LINE
  8
_f-f_
  6
CONTINUOUS
 62
    7
 10
268.60556799999995
 20
12.229311999999993
 11
268.50678399999998
 21
12.0976
  0
LINE
  8
_f-f_
  6
CONTINUOUS
 62
    7
 10
268.50678399999998
 20
12.0976
 11
268.41897599999993
 21
12.009792000000004
  0
LINE
  8
_f-f_
  6
CONTINUOUS
 62
    7
 10
268.41897599999993
 20
12.009792000000004
 11
268.38604799999996
 21
11.965888000000007
  0
LINE
  8
_f-f_
  6
CONTINUOUS
 62
    7
 10
268.38604799999996
 20
11.965888000000007
 11
268.21043199999997
 21
11.790272000000016
  0
LINE
  8
_f-f_
  6
CONTINUOUS
 62
    7
 10
268.21043199999997
 20
11.790272000000016
 11
268.15555199999994
 21
11.746368000000018
  0
LINE
  8
_f-f_
  6
CONTINUOUS
 62
    7
 10
268.15555199999994
 20
11.746368000000018
 11
268.11164799999995
 21
11.70246400000002
  0
LINE
  8
_f-f_
  6
CONTINUOUS
 62
    7
 10
268.11164799999995
 20
11.70246400000002
 11
268.05676799999998
 21
11.658559999999994
  0
LINE
  8
_f-f_
  6
CONTINUOUS
 62
    7
 10
268.05676799999998
 20
11.658559999999994
 11
268.01286399999992
 21
11.614655999999997
  0
LINE
  8
_f-f_
  6
CONTINUOUS
 62
    7
 10
268.01286399999992
 20
11.614655999999997
 11
267.95798399999995
 21
11.570752000000027
  0
LINE
  8
_f-f_
  6
CONTINUOUS
 62
    7
 10
267.95798399999995
 20
11.570752000000027
 11
267.89212799999996
 21
11.52684800000003
  0
LINE
  8
_f-f_
  6
CONTINUOUS
 62
    7
 10
267.89212799999996
 20
11.52684800000003
 11
267.72748799999999
 21
11.395136000000008
  0
LINE
  8
_f-f_
  6
CONTINUOUS
 62
    7
 10
267.72748799999999
 20
11.395136000000008
 11
267.79334399999999
 21
11.263423999999986
  0
LINE
  8
_f-f_
  6
CONTINUOUS
 62
    7
 10
267.79334399999999
 20
11.263423999999986
 11
267.8262719999999
 21
11.219519999999989
  0
LINE
  8
_f-f_
  6
CONTINUOUS
 62
    7
 10
267.8262719999999
 20
11.219519999999989
 11
267.89212799999996
 21
11.087808000000024
  0
LINE
  8
_f-f_
  6
CONTINUOUS
 62
    7
 10
267.44211199999995
 20
12.536639999999977
 11
267.48601599999995
 21
12.492735999999979
  0
LINE
  8
_f-f_
  6
CONTINUOUS
 62
    7
 10
267.48601599999995
 20
12.492735999999979
 11
267.61772799999994
 21
12.317120000000017
  0
LINE
  8
_f-f_
  6
CONTINUOUS
 62
    7
 10
267.61772799999994
 20
12.317120000000017
 11
267.63968
 21
12.273216000000019
  0
LINE
  8
_f-f_
  6
CONTINUOUS
 62
    7
 10
267.63968
 20
12.273216000000019
 11
267.67260799999997
 21
12.229311999999993
  0
LINE
  8
_f-f_
  6
CONTINUOUS
 62
    7
 10
267.67260799999997
 20
12.229311999999993
 11
267.69455999999997
 21
12.185407999999995
  0
LINE
  8
_f-f_
  6
CONTINUOUS
 62
    7
 10
267.69455999999997
 20
12.185407999999995
 11
267.72748799999999
 21
12.141503999999998
  0
LINE
  8
_f-f_
  6
CONTINUOUS
 62
    7
 10
267.06892800000003
 20
12.448831999999982
 11
267.06892800000003
 21
10.736576000000014
  0
LINE
  8
_f-f_
  6
CONTINUOUS
 62
    7
 10
268.9019199999999
 20
12.0976
 11
268.9019199999999
 21
10.736576000000014
  0
LINE
  8
_f-f_
  6
CONTINUOUS
 62
    7
 10
269.27510399999994
 20
12.0976
 11
269.37388799999991
 21
11.965888000000007
  0
LINE
  8
_f-f_
  6
CONTINUOUS
 62
    7
 10
269.37388799999991
 20
11.965888000000007
 11
269.41779199999996
 21
11.921984000000009
  0
LINE
  8
_f-f_
  6
CONTINUOUS
 62
    7
 10
269.41779199999996
 20
11.921984000000009
 11
269.45071999999993
 21
11.878080000000011
  0
LINE
  8
_f-f_
  6
CONTINUOUS
 62
    7
 10
269.45071999999993
 20
11.878080000000011
 11
269.49462399999999
 21
11.834176000000014
  0
LINE
  8
_f-f_
  6
CONTINUOUS
 62
    7
 10
269.49462399999999
 20
11.834176000000014
 11
269.5275519999999
 21
11.790272000000016
  0
LINE
  8
_f-f_
  6
CONTINUOUS
 62
    7
 10
269.5275519999999
 20
11.790272000000016
 11
269.70316800000001
 21
11.614655999999997
  0
LINE
  8
_f-f_
  6
CONTINUOUS
 62
    7
 10
269.70316800000001
 20
11.614655999999997
 11
269.75804799999997
 21
11.570752000000027
  0
LINE
  8
_f-f_
  6
CONTINUOUS
 62
    7
 10
269.75804799999997
 20
11.570752000000027
 11
269.80195199999991
 21
11.52684800000003
  0
LINE
  8
_f-f_
  6
CONTINUOUS
 62
    7
 10
269.80195199999991
 20
11.52684800000003
 11
269.91171199999997
 21
11.439040000000034
  0
LINE
  8
_f-f_
  6
CONTINUOUS
 62
    7
 10
269.91171199999997
 20
11.439040000000034
 11
269.95561599999996
 21
11.395136000000008
  0
LINE
  8
_f-f_
  6
CONTINUOUS
 62
    7
 10
269.95561599999996
 20
11.395136000000008
 11
270.01049599999999
 21
11.35123200000001
  0
LINE
  8
_f-f_
  6
CONTINUOUS
 62
    7
 10
270.01049599999999
 20
11.35123200000001
 11
270.07635199999993
 21
11.307327999999984
  0
LINE
  8
_f-f_
  6
CONTINUOUS
 62
    7
 10
270.07635199999993
 20
11.307327999999984
 11
270.18611199999998
 21
11.219519999999989
  0
LINE
  8
_f-f_
  6
CONTINUOUS
 62
    7
 10
267.37625600000001
 20
14.687935999999993
 11
267.44211199999995
 21
14.644031999999967
  0
LINE
  8
_f-f_
  6
CONTINUOUS
 62
    7
 10
267.44211199999995
 20
14.644031999999967
 11
267.39820799999995
 21
14.600128000000012
  0
LINE
  8
_f-f_
  6
CONTINUOUS
 62
    7
 10
267.39820799999995
 20
14.600128000000012
 11
267.38723200000004
 21
14.556224000000014
  0
LINE
  8
_f-f_
  6
CONTINUOUS
 62
    7
 10
267.38723200000004
 20
14.556224000000014
 11
267.38723200000004
 21
13.853760000000037
  0
LINE
  8
_f-f_
  6
CONTINUOUS
 62
    7
 10
267.38723200000004
 20
13.458624000000043
 11
267.38723200000004
 21
12.975680000000011
  0
LINE
  8
_f-f_
  6
CONTINUOUS
 62
    7
 10
267.38723200000004
 20
12.975680000000011
 11
267.51894399999992
 21
12.887871999999987
  0
LINE
  8
_f-f_
  6
CONTINUOUS
 62
    7
 10
267.51894399999992
 20
12.887871999999987
 11
267.683584
 21
12.756160000000023
  0
LINE
  8
_f-f_
  6
CONTINUOUS
 62
    7
 10
267.683584
 20
12.756160000000023
 11
267.90310399999998
 21
12.536639999999977
  0
LINE
  8
_f-f_
  6
CONTINUOUS
 62
    7
 10
267.90310399999998
 20
12.536639999999977
 11
267.96895999999992
 21
12.448831999999982
  0
LINE
  8
_f-f_
  6
CONTINUOUS
 62
    7
 10
267.96895999999992
 20
12.448831999999982
 11
267.80431999999996
 21
12.229311999999993
  0
LINE
  8
_f-f_
  6
CONTINUOUS
 62
    7
 10
267.80431999999996
 20
12.229311999999993
 11
267.76041599999996
 21
12.185407999999995
  0
LINE
  8
_f-f_
  6
CONTINUOUS
 62
    7
 10
267.76041599999996
 20
12.185407999999995
 11
267.72748799999999
 21
12.141503999999998
  0
LINE
  8
_f-f_
  6
CONTINUOUS
 62
    7
 10
269.22022399999992
 20
14.687935999999993
 11
269.27510399999994
 21
14.644031999999967
  0
LINE
  8
_f-f_
  6
CONTINUOUS
 62
    7
 10
269.27510399999994
 20
14.644031999999967
 11
269.23119999999994
 21
14.600128000000012
  0
LINE
  8
_f-f_
  6
CONTINUOUS
 62
    7
 10
269.23119999999994
 20
14.600128000000012
 11
269.23119999999994
 21
13.941568000000032
  0
LINE
  8
_f-f_
  6
CONTINUOUS
 62
    7
 10
269.23119999999994
 20
13.546432000000038
 11
269.23119999999994
 21
13.019583999999952
  0
LINE
  8
_f-f_
  6
CONTINUOUS
 62
    7
 10
269.26412799999991
 20
12.624447999999973
 11
269.28607999999997
 21
12.580544000000003
  0
LINE
  8
_f-f_
  6
CONTINUOUS
 62
    7
 10
269.28607999999997
 20
12.580544000000003
 11
269.48364800000002
 21
12.317120000000017
  0
LINE
  8
_f-f_
  6
CONTINUOUS
 62
    7
 10
269.48364800000002
 20
12.317120000000017
 11
269.5275519999999
 21
12.273216000000019
  0
LINE
  8
_f-f_
  6
CONTINUOUS
 62
    7
 10
269.5275519999999
 20
12.273216000000019
 11
269.56047999999998
 21
12.229311999999993
  0
LINE
  8
_f-f_
  6
CONTINUOUS
 62
    7
 10
269.56047999999998
 20
12.229311999999993
 11
269.64828799999998
 21
12.141503999999998
  0
LINE
  8
_f-f_
  6
CONTINUOUS
 62
    7
 10
269.64828799999998
 20
12.141503999999998
 11
269.70316800000001
 21
12.0976
  0
LINE
  8
_f-f_
  6
CONTINUOUS
 62
    7
 10
269.70316800000001
 20
12.0976
 11
269.74707199999995
 21
12.053696000000031
  0
LINE
  8
_f-f_
  6
CONTINUOUS
 62
    7
 10
269.74707199999995
 20
12.053696000000031
 11
270.02147199999996
 21
11.834176000000014
  0
LINE
  8
_f-f_
  6
CONTINUOUS
 62
    7
 10
270.02147199999996
 20
11.834176000000014
 11
270.35075199999994
 21
11.614655999999997
  0
LINE
  8
_f-f_
  6
CONTINUOUS
 62
    7
 10
270.35075199999994
 20
11.614655999999997
 11
270.42758399999991
 21
11.570752000000027
  0
LINE
  8
_f-f_
  6
CONTINUOUS
 62
    7
 10
270.42758399999991
 20
11.570752000000027
 11
270.38367999999997
 21
11.482944000000003
  0
LINE
  8
_f-f_
  6
CONTINUOUS
 62
    7
 10
270.38367999999997
 20
11.482944000000003
 11
270.35075199999994
 21
11.439040000000034
  0
LINE
  8
_f-f_
  6
CONTINUOUS
 62
    7
 10
270.35075199999994
 20
11.439040000000034
 11
270.24099199999989
 21
11.219519999999989
  0
LINE
  8
_f-f_
  6
CONTINUOUS
 62
    7
 10
270.24099199999989
 20
11.219519999999989
 11
270.18611199999998
 21
11.219519999999989
  0
LINE
  8
_f-f_
  6
CONTINUOUS
 62
    7
 10
268.37507199999993
 20
14.336704000000026
 11
268.55068799999992
 21
14.292800000000028
  0
LINE
  8
_f-f_
  6
CONTINUOUS
 62
    7
 10
268.55068799999992
 20
14.292800000000028
 11
268.70435199999997
 21
14.248896000000016
  0
LINE
  8
_f-f_
  6
CONTINUOUS
 62
    7
 10
268.70435199999997
 20
14.248896000000016
 11
268.70435199999997
 21
14.204992000000018
  0
LINE
  8
_f-f_
  6
CONTINUOUS
 62
    7
 10
268.70435199999997
 20
14.204992000000018
 11
268.63849599999992
 21
14.161087999999992
  0
LINE
  8
_f-f_
  6
CONTINUOUS
 62
    7
 10
268.63849599999992
 20
14.161087999999992
 11
268.62752
 21
14.117184000000023
  0
LINE
  8
_f-f_
  6
CONTINUOUS
 62
    7
 10
268.62752
 20
14.117184000000023
 11
268.60556799999995
 21
14.073279999999997
  0
LINE
  8
_f-f_
  6
CONTINUOUS
 62
    7
 10
268.60556799999995
 20
14.073279999999997
 11
268.58361600000001
 21
13.985471999999987
  0
LINE
  8
_f-f_
  6
CONTINUOUS
 62
    7
 10
268.58361600000001
 20
13.985471999999987
 11
268.56166399999995
 21
13.941568000000032
  0
LINE
  8
_f-f_
  6
CONTINUOUS
 62
    7
 10
268.9019199999999
 20
13.546432000000038
 11
268.40799999999996
 21
13.546432000000038
  0
LINE
  8
_f-f_
  6
CONTINUOUS
 62
    7
 10
268.40799999999996
 20
13.546432000000038
 11
268.34214399999996
 21
13.414720000000017
  0
LINE
  8
_f-f_
  6
CONTINUOUS
 62
    7
 10
268.34214399999996
 20
13.414720000000017
 11
268.30921599999999
 21
13.370815999999991
  0
LINE
  8
_f-f_
  6
CONTINUOUS
 62
    7
 10
268.30921599999999
 20
13.370815999999991
 11
268.26531199999999
 21
13.283008000000024
  0
LINE
  8
_f-f_
  6
CONTINUOUS
 62
    7
 10
268.26531199999999
 20
13.283008000000024
 11
268.13359999999994
 21
13.107392000000061
  0
LINE
  8
_f-f_
  6
CONTINUOUS
 62
    7
 10
268.13359999999994
 20
13.107392000000061
 11
268.11164799999995
 21
13.107392000000061
  0
LINE
  8
_f-f_
  6
CONTINUOUS
 62
    7
 10
267.44211199999995
 20
12.536639999999977
 11
267.38723200000004
 21
12.536639999999977
  0
LINE
  8
_f-f_
  6
CONTINUOUS
 62
    7
 10
267.38723200000004
 20
12.536639999999977
 11
267.38723200000004
 21
10.736576000000014
  0
LINE
  8
_f-f_
  6
CONTINUOUS
 62
    7
 10
267.38723200000004
 20
10.736576000000014
 11
267.06892800000003
 21
10.736576000000014
  0
LINE
  8
_f-f_
  6
CONTINUOUS
 62
    7
 10
267.06892800000003
 20
12.448831999999982
 11
267.03599999999994
 21
12.448831999999982
  0
LINE
  8
_f-f_
  6
CONTINUOUS
 62
    7
 10
267.03599999999994
 20
12.448831999999982
 11
266.99209599999995
 21
12.361024000000015
  0
LINE
  8
_f-f_
  6
CONTINUOUS
 62
    7
 10
266.99209599999995
 20
12.361024000000015
 11
266.98111999999998
 21
12.317120000000017
  0
LINE
  8
_f-f_
  6
CONTINUOUS
 62
    7
 10
266.98111999999998
 20
12.317120000000017
 11
266.91526399999998
 21
12.185407999999995
  0
LINE
  8
_f-f_
  6
CONTINUOUS
 62
    7
 10
266.91526399999998
 20
12.185407999999995
 11
266.88233600000001
 21
12.141503999999998
  0
LINE
  8
_f-f_
  6
CONTINUOUS
 62
    7
 10
266.88233600000001
 20
12.141503999999998
 11
266.8384319999999
 21
12.053696000000031
  0
LINE
  8
_f-f_
  6
CONTINUOUS
 62
    7
 10
266.8384319999999
 20
12.053696000000031
 11
266.77257599999996
 21
11.965888000000007
  0
LINE
  8
_f-f_
  6
CONTINUOUS
 62
    7
 10
266.77257599999996
 20
11.965888000000007
 11
266.7506239999999
 21
11.921984000000009
  0
LINE
  8
_f-f_
  6
CONTINUOUS
 62
    7
 10
266.7506239999999
 20
11.921984000000009
 11
266.65183999999999
 21
11.790272000000016
  0
LINE
  8
_f-f_
  6
CONTINUOUS
 62
    7
 10
266.65183999999999
 20
11.790272000000016
 11
266.607936
 21
11.746368000000018
  0
LINE
  8
_f-f_
  6
CONTINUOUS
 62
    7
 10
266.607936
 20
11.746368000000018
 11
266.57500799999991
 21
11.70246400000002
  0
LINE
  8
_f-f_
  6
CONTINUOUS
 62
    7
 10
266.57500799999991
 20
11.70246400000002
 11
266.55305599999997
 21
11.70246400000002
  0
LINE
  8
_f-f_
  6
CONTINUOUS
 62
    7
 10
268.9019199999999
 20
12.0976
 11
268.87996799999996
 21
12.0976
  0
LINE
  8
_f-f_
  6
CONTINUOUS
 62
    7
 10
268.87996799999996
 20
12.0976
 11
268.84703999999994
 21
12.053696000000031
  0
LINE
  8
_f-f_
  6
CONTINUOUS
 62
    7
 10
268.84703999999994
 20
12.053696000000031
 11
268.82508799999994
 21
12.009792000000004
  0
LINE
  8
_f-f_
  6
CONTINUOUS
 62
    7
 10
268.82508799999994
 20
12.009792000000004
 11
268.79215999999997
 21
11.965888000000007
  0
LINE
  8
_f-f_
  6
CONTINUOUS
 62
    7
 10
268.79215999999997
 20
11.965888000000007
 11
268.77020799999997
 21
11.921984000000009
  0
LINE
  8
_f-f_
  6
CONTINUOUS
 62
    7
 10
268.77020799999997
 20
11.921984000000009
 11
268.60556799999995
 21
11.70246400000002
  0
LINE
  8
_f-f_
  6
CONTINUOUS
 62
    7
 10
268.60556799999995
 20
11.70246400000002
 11
268.56166399999995
 21
11.658559999999994
  0
LINE
  8
_f-f_
  6
CONTINUOUS
 62
    7
 10
268.56166399999995
 20
11.658559999999994
 11
268.52873599999998
 21
11.614655999999997
  0
LINE
  8
_f-f_
  6
CONTINUOUS
 62
    7
 10
268.52873599999998
 20
11.614655999999997
 11
268.26531199999999
 21
11.35123200000001
  0
LINE
  8
_f-f_
  6
CONTINUOUS
 62
    7
 10
268.26531199999999
 20
11.35123200000001
 11
267.99091199999998
 21
11.131712000000022
  0
LINE
  8
_f-f_
  6
CONTINUOUS
 62
    7
 10
267.99091199999998
 20
11.131712000000022
 11
267.92505599999993
 21
11.087808000000024
  0
LINE
  8
_f-f_
  6
CONTINUOUS
 62
    7
 10
267.92505599999993
 20
11.087808000000024
 11
267.89212799999996
 21
11.087808000000024
  0
LINE
  8
_f-f_
  6
CONTINUOUS
 62
    7
 10
269.27510399999994
 20
12.0976
 11
269.23119999999994
 21
12.0976
  0
LINE
  8
_f-f_
  6
CONTINUOUS
 62
    7
 10
269.23119999999994
 20
12.0976
 11
269.23119999999994
 21
10.736576000000014
  0
LINE
  8
_f-f_
  6
CONTINUOUS
 62
    7
 10
269.23119999999994
 20
10.736576000000014
 11
268.9019199999999
 21
10.736576000000014
  0
LINE
  8
_f-f_
  6
CONTINUOUS
 62
    7
 10
273.48988799999995
 20
14.600128000000012
 11
273.07279999999992
 21
14.600128000000012
  0
LINE
  8
_f-f_
  6
CONTINUOUS
 62
    7
 10
273.07279999999992
 20
14.600128000000012
 11
273.07279999999992
 21
13.853760000000037
  0
LINE
  8
_f-f_
  6
CONTINUOUS
 62
    7
 10
273.083776
 20
13.458624000000043
 11
273.083776
 21
13.414720000000017
  0
LINE
  8
_f-f_
  6
CONTINUOUS
 62
    7
 10
273.083776
 20
13.414720000000017
 11
273.09475199999997
 21
13.370815999999991
  0
LINE
  8
_f-f_
  6
CONTINUOUS
 62
    7
 10
273.09475199999997
 20
13.370815999999991
 11
273.09475199999997
 21
13.151296000000031
  0
LINE
  8
_f-f_
  6
CONTINUOUS
 62
    7
 10
273.09475199999997
 20
13.151296000000031
 11
273.105728
 21
13.107392000000061
  0
LINE
  8
_f-f_
  6
CONTINUOUS
 62
    7
 10
273.105728
 20
13.107392000000061
 11
273.105728
 21
12.975680000000011
  0
LINE
  8
_f-f_
  6
CONTINUOUS
 62
    7
 10
273.105728
 20
12.975680000000011
 11
273.11670399999991
 21
12.931776000000013
  0
LINE
  8
_f-f_
  6
CONTINUOUS
 62
    7
 10
273.11670399999991
 20
12.931776000000013
 11
273.11670399999991
 21
12.84396799999999
  0
LINE
  8
_f-f_
  6
CONTINUOUS
 62
    7
 10
273.11670399999991
 20
12.84396799999999
 11
273.12767999999994
 21
12.800064000000049
  0
LINE
  8
_f-f_
  6
CONTINUOUS
 62
    7
 10
273.12767999999994
 20
12.800064000000049
 11
273.12767999999994
 21
12.756160000000023
  0
LINE
  8
_f-f_
  6
CONTINUOUS
 62
    7
 10
273.12767999999994
 20
12.756160000000023
 11
273.13865599999997
 21
12.712256000000025
  0
LINE
  8
_f-f_
  6
CONTINUOUS
 62
    7
 10
273.13865599999997
 20
12.712256000000025
 11
273.13865599999997
 21
12.668351999999999
  0
LINE
  8
_f-f_
  6
CONTINUOUS
 62
    7
 10
273.13865599999997
 20
12.668351999999999
 11
273.149632
 21
12.624447999999973
  0
LINE
  8
_f-f_
  6
CONTINUOUS
 62
    7
 10
273.149632
 20
12.624447999999973
 11
273.149632
 21
12.580544000000003
  0
LINE
  8
_f-f_
  6
CONTINUOUS
 62
    7
 10
273.149632
 20
12.580544000000003
 11
273.17158399999994
 21
12.492735999999979
  0
LINE
  8
_f-f_
  6
CONTINUOUS
 62
    7
 10
273.17158399999994
 20
12.492735999999979
 11
273.17158399999994
 21
12.448831999999982
  0
LINE
  8
_f-f_
  6
CONTINUOUS
 62
    7
 10
273.17158399999994
 20
12.448831999999982
 11
273.20451199999991
 21
12.317120000000017
  0
LINE
  8
_f-f_
  6
CONTINUOUS
 62
    7
 10
273.20451199999991
 20
12.317120000000017
 11
273.20451199999991
 21
12.273216000000019
  0
LINE
  8
_f-f_
  6
CONTINUOUS
 62
    7
 10
273.20451199999991
 20
12.273216000000019
 11
273.25939199999999
 21
12.053696000000031
  0
LINE
  8
_f-f_
  6
CONTINUOUS
 62
    7
 10
273.25939199999999
 20
12.053696000000031
 11
273.28134399999999
 21
12.009792000000004
  0
LINE
  8
_f-f_
  6
CONTINUOUS
 62
    7
 10
273.28134399999999
 20
12.009792000000004
 11
273.31427199999996
 21
11.878080000000011
  0
LINE
  8
_f-f_
  6
CONTINUOUS
 62
    7
 10
273.31427199999996
 20
11.878080000000011
 11
273.3362239999999
 21
11.834176000000014
  0
LINE
  8
_f-f_
  6
CONTINUOUS
 62
    7
 10
273.3362239999999
 20
11.834176000000014
 11
273.34719999999999
 21
11.790272000000016
  0
LINE
  8
_f-f_
  6
CONTINUOUS
 62
    7
 10
273.34719999999999
 20
11.790272000000016
 11
273.41305599999998
 21
11.658559999999994
  0
LINE
  8
_f-f_
  6
CONTINUOUS
 62
    7
 10
273.41305599999998
 20
11.658559999999994
 11
273.42403199999995
 21
11.614655999999997
  0
LINE
  8
_f-f_
  6
CONTINUOUS
 62
    7
 10
273.42403199999995
 20
11.614655999999997
 11
273.44598400000001
 21
11.570752000000027
  0
LINE
  8
_f-f_
  6
CONTINUOUS
 62
    7
 10
273.44598400000001
 20
11.570752000000027
 11
273.47891199999992
 21
11.52684800000003
  0
LINE
  8
_f-f_
  6
CONTINUOUS
 62
    7
 10
273.47891199999992
 20
11.52684800000003
 11
273.52281599999992
 21
11.439040000000034
  0
LINE
  8
_f-f_
  6
CONTINUOUS
 62
    7
 10
273.52281599999992
 20
11.439040000000034
 11
273.555744
 21
11.395136000000008
  0
LINE
  8
_f-f_
  6
CONTINUOUS
 62
    7
 10
273.555744
 20
11.395136000000008
 11
273.57769599999995
 21
11.35123200000001
  0
LINE
  8
_f-f_
  6
CONTINUOUS
 62
    7
 10
273.57769599999995
 20
11.35123200000001
 11
273.70940799999994
 21
11.175616000000019
  0
LINE
  8
_f-f_
  6
CONTINUOUS
 62
    7
 10
273.70940799999994
 20
11.175616000000019
 11
273.79721599999993
 21
11.087808000000024
  0
LINE
  8
_f-f_
  6
CONTINUOUS
 62
    7
 10
273.79721599999993
 20
11.087808000000024
 11
273.85209599999996
 21
11.043903999999998
  0
LINE
  8
_f-f_
  6
CONTINUOUS
 62
    7
 10
273.85209599999996
 20
11.043903999999998
 11
273.98380799999995
 21
10.956095999999974
  0
LINE
  8
_f-f_
  6
CONTINUOUS
 62
    7
 10
273.98380799999995
 20
10.956095999999974
 11
274.093568
 21
10.912192000000005
  0
LINE
  8
_f-f_
  6
CONTINUOUS
 62
    7
 10
273.95087999999998
 20
14.512320000000003
 11
273.90697599999999
 21
14.512320000000003
  0
LINE
  8
_f-f_
  6
CONTINUOUS
 62
    7
 10
273.90697599999999
 20
14.512320000000003
 11
273.85209599999996
 21
14.468416000000005
  0
LINE
  8
_f-f_
  6
CONTINUOUS
 62
    7
 10
273.85209599999996
 20
14.468416000000005
 11
273.80819200000002
 21
14.424512000000007
  0
LINE
  8
_f-f_
  6
CONTINUOUS
 62
    7
 10
273.80819200000002
 20
14.424512000000007
 11
273.69843199999997
 21
14.336704000000026
  0
LINE
  8
_f-f_
  6
CONTINUOUS
 62
    7
 10
273.69843199999997
 20
14.336704000000026
 11
273.65452800000003
 21
14.292800000000028
  0
LINE
  8
_f-f_
  6
CONTINUOUS
 62
    7
 10
273.65452800000003
 20
14.292800000000028
 11
273.69843199999997
 21
14.248896000000016
  0
LINE
  8
_f-f_
  6
CONTINUOUS
 62
    7
 10
273.69843199999997
 20
14.248896000000016
 11
273.77526399999999
 21
14.204992000000018
  0
LINE
  8
_f-f_
  6
CONTINUOUS
 62
    7
 10
273.77526399999999
 20
14.204992000000018
 11
273.84111999999993
 21
14.161087999999992
  0
LINE
  8
_f-f_
  6
CONTINUOUS
 62
    7
 10
273.84111999999993
 20
14.161087999999992
 11
274.06063999999998
 21
13.985471999999987
  0
LINE
  8
_f-f_
  6
CONTINUOUS
 62
    7
 10
272.83132799999998
 20
12.84396799999999
 11
271.15199999999993
 21
12.84396799999999
  0
LINE
  8
_f-f_
  6
CONTINUOUS
 62
    7
 10
271.83251199999995
 20
12.536639999999977
 11
271.83251199999995
 21
11.570752000000027
  0
LINE
  8
_f-f_
  6
CONTINUOUS
 62
    7
 10
271.83251199999995
 20
11.570752000000027
 11
271.56908799999997
 21
11.52684800000003
  0
LINE
  8
_f-f_
  6
CONTINUOUS
 62
    7
 10
271.56908799999997
 20
11.52684800000003
 11
271.19590399999998
 21
11.482944000000003
  0
LINE
  8
_f-f_
  6
CONTINUOUS
 62
    7
 10
271.19590399999998
 20
11.482944000000003
 11
270.99833599999994
 21
11.439040000000034
  0
LINE
  8
_f-f_
  6
CONTINUOUS
 62
    7
 10
270.99833599999994
 20
11.439040000000034
 11
271.04223999999999
 21
11.263423999999986
  0
LINE
  8
_f-f_
  6
CONTINUOUS
 62
    7
 10
271.04223999999999
 20
11.263423999999986
 11
271.04223999999999
 21
11.219519999999989
  0
LINE
  8
_f-f_
  6
CONTINUOUS
 62
    7
 10
271.04223999999999
 20
11.219519999999989
 11
271.08614399999999
 21
11.043903999999998
  0
LINE
  8
_f-f_
  6
CONTINUOUS
 62
    7
 10
271.08614399999999
 20
11.043903999999998
 11
271.11907199999996
 21
11
  0
LINE
  8
_f-f_
  6
CONTINUOUS
 62
    7
 10
273.07279999999992
 20
11.746368000000018
 11
272.95206399999995
 21
11.746368000000018
  0
LINE
  8
_f-f_
  6
CONTINUOUS
 62
    7
 10
272.95206399999995
 20
11.746368000000018
 11
272.71059199999996
 21
11.70246400000002
  0
LINE
  8
_f-f_
  6
CONTINUOUS
 62
    7
 10
272.71059199999996
 20
11.70246400000002
 11
272.44716799999998
 21
11.658559999999994
  0
LINE
  8
_f-f_
  6
CONTINUOUS
 62
    7
 10
272.44716799999998
 20
11.658559999999994
 11
272.16179199999999
 21
11.658559999999994
  0
LINE
  8
_f-f_
  6
CONTINUOUS
 62
    7
 10
274.38991999999996
 20
11.70246400000002
 11
274.31308799999994
 21
11.70246400000002
  0
LINE
  8
_f-f_
  6
CONTINUOUS
 62
    7
 10
274.31308799999994
 20
11.70246400000002
 11
274.31308799999994
 21
11.614655999999997
  0
LINE
  8
_f-f_
  6
CONTINUOUS
 62
    7
 10
274.31308799999994
 20
11.614655999999997
 11
274.30211199999997
 21
11.570752000000027
  0
LINE
  8
_f-f_
  6
CONTINUOUS
 62
    7
 10
274.30211199999997
 20
11.570752000000027
 11
274.30211199999997
 21
11.52684800000003
  0
LINE
  8
_f-f_
  6
CONTINUOUS
 62
    7
 10
274.30211199999997
 20
11.52684800000003
 11
274.29113599999994
 21
11.482944000000003
  0
LINE
  8
_f-f_
  6
CONTINUOUS
 62
    7
 10
274.29113599999994
 20
11.482944000000003
 11
274.29113599999994
 21
11.439040000000034
  0
LINE
  8
_f-f_
  6
CONTINUOUS
 62
    7
 10
274.29113599999994
 20
11.439040000000034
 11
274.269184
 21
11.395136000000008
  0
LINE
  8
_f-f_
  6
CONTINUOUS
 62
    7
 10
274.269184
 20
11.395136000000008
 11
274.23625599999997
 21
11.35123200000001
  0
LINE
  8
_f-f_
  6
CONTINUOUS
 62
    7
 10
274.23625599999997
 20
11.35123200000001
 11
274.137472
 21
11.35123200000001
  0
LINE
  8
_f-f_
  6
CONTINUOUS
 62
    7
 10
273.48988799999995
 20
14.600128000000012
 11
273.51183999999995
 21
14.556224000000014
  0
LINE
  8
_f-f_
  6
CONTINUOUS
 62
    7
 10
273.51183999999995
 20
14.556224000000014
 11
273.44598400000001
 21
14.468416000000005
  0
LINE
  8
_f-f_
  6
CONTINUOUS
 62
    7
 10
273.44598400000001
 20
14.468416000000005
 11
273.44598400000001
 21
13.853760000000037
  0
LINE
  8
_f-f_
  6
CONTINUOUS
 62
    7
 10
273.44598400000001
 20
13.458624000000043
 11
273.44598400000001
 21
13.370815999999991
  0
LINE
  8
_f-f_
  6
CONTINUOUS
 62
    7
 10
273.44598400000001
 20
13.370815999999991
 11
273.45695999999998
 21
13.326912000000021
  0
LINE
  8
_f-f_
  6
CONTINUOUS
 62
    7
 10
273.45695999999998
 20
13.326912000000021
 11
273.45695999999998
 21
13.239103999999998
  0
LINE
  8
_f-f_
  6
CONTINUOUS
 62
    7
 10
273.45695999999998
 20
13.239103999999998
 11
273.46793600000001
 21
13.195199999999971
  0
LINE
  8
_f-f_
  6
CONTINUOUS
 62
    7
 10
273.46793600000001
 20
13.195199999999971
 11
273.46793600000001
 21
13.107392000000061
  0
LINE
  8
_f-f_
  6
CONTINUOUS
 62
    7
 10
273.46793600000001
 20
13.107392000000061
 11
273.47891199999992
 21
13.063488000000007
  0
LINE
  8
_f-f_
  6
CONTINUOUS
 62
    7
 10
273.47891199999992
 20
13.063488000000007
 11
273.47891199999992
 21
13.019583999999952
  0
LINE
  8
_f-f_
  6
CONTINUOUS
 62
    7
 10
273.47891199999992
 20
13.019583999999952
 11
273.48988799999995
 21
12.975680000000011
  0
LINE
  8
_f-f_
  6
CONTINUOUS
 62
    7
 10
273.48988799999995
 20
12.975680000000011
 11
273.48988799999995
 21
12.887871999999987
  0
LINE
  8
_f-f_
  6
CONTINUOUS
 62
    7
 10
273.48988799999995
 20
12.887871999999987
 11
273.50086399999998
 21
12.84396799999999
  0
LINE
  8
_f-f_
  6
CONTINUOUS
 62
    7
 10
273.50086399999998
 20
12.84396799999999
 11
273.50086399999998
 21
12.800064000000049
  0
LINE
  8
_f-f_
  6
CONTINUOUS
 62
    7
 10
273.50086399999998
 20
12.800064000000049
 11
273.52281599999992
 21
12.712256000000025
  0
LINE
  8
_f-f_
  6
CONTINUOUS
 62
    7
 10
273.52281599999992
 20
12.712256000000025
 11
273.52281599999992
 21
12.668351999999999
  0
LINE
  8
_f-f_
  6
CONTINUOUS
 62
    7
 10
273.52281599999992
 20
12.668351999999999
 11
273.53379199999995
 21
12.624447999999973
  0
LINE
  8
_f-f_
  6
CONTINUOUS
 62
    7
 10
273.53379199999995
 20
12.624447999999973
 11
273.53379199999995
 21
12.580544000000003
  0
LINE
  8
_f-f_
  6
CONTINUOUS
 62
    7
 10
273.53379199999995
 20
12.580544000000003
 11
273.56671999999992
 21
12.448831999999982
  0
LINE
  8
_f-f_
  6
CONTINUOUS
 62
    7
 10
273.56671999999992
 20
12.448831999999982
 11
273.56671999999992
 21
12.404927999999984
  0
LINE
  8
_f-f_
  6
CONTINUOUS
 62
    7
 10
273.56671999999992
 20
12.404927999999984
 11
273.63257599999997
 21
12.141503999999998
  0
LINE
  8
_f-f_
  6
CONTINUOUS
 62
    7
 10
273.63257599999997
 20
12.141503999999998
 11
273.65452800000003
 21
12.0976
  0
LINE
  8
_f-f_
  6
CONTINUOUS
 62
    7
 10
273.65452800000003
 20
12.0976
 11
273.67647999999997
 21
12.009792000000004
  0
LINE
  8
_f-f_
  6
CONTINUOUS
 62
    7
 10
273.67647999999997
 20
12.009792000000004
 11
273.69843199999997
 21
11.965888000000007
  0
LINE
  8
_f-f_
  6
CONTINUOUS
 62
    7
 10
273.69843199999997
 20
11.965888000000007
 11
273.70940799999994
 21
11.921984000000009
  0
LINE
  8
_f-f_
  6
CONTINUOUS
 62
    7
 10
273.70940799999994
 20
11.921984000000009
 11
273.84111999999993
 21
11.658559999999994
  0
LINE
  8
_f-f_
  6
CONTINUOUS
 62
    7
 10
273.84111999999993
 20
11.658559999999994
 11
273.87404799999996
 21
11.614655999999997
  0
LINE
  8
_f-f_
  6
CONTINUOUS
 62
    7
 10
273.87404799999996
 20
11.614655999999997
 11
273.89599999999996
 21
11.570752000000027
  0
LINE
  8
_f-f_
  6
CONTINUOUS
 62
    7
 10
273.89599999999996
 20
11.570752000000027
 11
273.92892799999993
 21
11.52684800000003
  0
LINE
  8
_f-f_
  6
CONTINUOUS
 62
    7
 10
273.92892799999993
 20
11.52684800000003
 11
273.97283199999998
 21
11.482944000000003
  0
LINE
  8
_f-f_
  6
CONTINUOUS
 62
    7
 10
273.97283199999998
 20
11.482944000000003
 11
274.0057599999999
 21
11.439040000000034
  0
LINE
  8
_f-f_
  6
CONTINUOUS
 62
    7
 10
274.0057599999999
 20
11.439040000000034
 11
274.06063999999998
 21
11.395136000000008
  0
LINE
  8
_f-f_
  6
CONTINUOUS
 62
    7
 10
274.06063999999998
 20
11.395136000000008
 11
274.137472
 21
11.35123200000001
  0
LINE
  8
_f-f_
  6
CONTINUOUS
 62
    7
 10
273.95087999999998
 20
14.512320000000003
 11
274.10454399999992
 21
14.424512000000007
  0
LINE
  8
_f-f_
  6
CONTINUOUS
 62
    7
 10
274.10454399999992
 20
14.424512000000007
 11
274.15942399999994
 21
14.380608000000009
  0
LINE
  8
_f-f_
  6
CONTINUOUS
 62
    7
 10
274.15942399999994
 20
14.380608000000009
 11
274.22528
 21
14.336704000000026
  0
LINE
  8
_f-f_
  6
CONTINUOUS
 62
    7
 10
274.22528
 20
14.336704000000026
 11
274.28016000000002
 21
14.292800000000028
  0
LINE
  8
_f-f_
  6
CONTINUOUS
 62
    7
 10
274.28016000000002
 20
14.292800000000028
 11
274.32406400000002
 21
14.248896000000016
  0
LINE
  8
_f-f_
  6
CONTINUOUS
 62
    7
 10
274.32406400000002
 20
14.248896000000016
 11
274.35699199999999
 21
14.204992000000018
  0
LINE
  8
_f-f_
  6
CONTINUOUS
 62
    7
 10
274.35699199999999
 20
14.204992000000018
 11
274.24723199999994
 21
14.117184000000023
  0
LINE
  8
_f-f_
  6
CONTINUOUS
 62
    7
 10
274.24723199999994
 20
14.117184000000023
 11
274.20332799999994
 21
14.073279999999997
  0
LINE
  8
_f-f_
  6
CONTINUOUS
 62
    7
 10
274.20332799999994
 20
14.073279999999997
 11
274.093568
 21
13.985471999999987
  0
LINE
  8
_f-f_
  6
CONTINUOUS
 62
    7
 10
274.093568
 20
13.985471999999987
 11
274.06063999999998
 21
13.985471999999987
  0
LINE
  8
_f-f_
  6
CONTINUOUS
 62
    7
 10
273.07279999999992
 20
11.746368000000018
 11
273.083776
 21
11.70246400000002
  0
LINE
  8
_f-f_
  6
CONTINUOUS
 62
    7
 10
273.083776
 20
11.70246400000002
 11
273.083776
 21
11.658559999999994
  0
LINE
  8
_f-f_
  6
CONTINUOUS
 62
    7
 10
273.083776
 20
11.658559999999994
 11
273.105728
 21
11.570752000000027
  0
LINE
  8
_f-f_
  6
CONTINUOUS
 62
    7
 10
273.105728
 20
11.570752000000027
 11
273.105728
 21
11.52684800000003
  0
LINE
  8
_f-f_
  6
CONTINUOUS
 62
    7
 10
273.105728
 20
11.52684800000003
 11
273.11670399999991
 21
11.482944000000003
  0
LINE
  8
_f-f_
  6
CONTINUOUS
 62
    7
 10
273.11670399999991
 20
11.482944000000003
 11
273.03987199999995
 21
11.439040000000034
  0
LINE
  8
_f-f_
  6
CONTINUOUS
 62
    7
 10
273.03987199999995
 20
11.439040000000034
 11
272.62278400000002
 21
11.35123200000001
  0
LINE
  8
_f-f_
  6
CONTINUOUS
 62
    7
 10
272.62278400000002
 20
11.35123200000001
 11
272.18374399999993
 21
11.263423999999986
  0
LINE
  8
_f-f_
  6
CONTINUOUS
 62
    7
 10
272.18374399999993
 20
11.263423999999986
 11
271.72275199999996
 21
11.175616000000019
  0
LINE
  8
_f-f_
  6
CONTINUOUS
 62
    7
 10
271.72275199999996
 20
11.175616000000019
 11
271.48127999999997
 21
11.131712000000022
  0
LINE
  8
_f-f_
  6
CONTINUOUS
 62
    7
 10
271.48127999999997
 20
11.131712000000022
 11
271.2288319999999
 21
11.087808000000024
  0
LINE
  8
_f-f_
  6
CONTINUOUS
 62
    7
 10
271.2288319999999
 20
11.087808000000024
 11
271.17395199999999
 21
11.043903999999998
  0
LINE
  8
_f-f_
  6
CONTINUOUS
 62
    7
 10
271.17395199999999
 20
11.043903999999998
 11
271.15199999999993
 21
11
  0
LINE
  8
_f-f_
  6
CONTINUOUS
 62
    7
 10
271.15199999999993
 20
11
 11
271.11907199999996
 21
11
  0
LINE
  8
_f-f_
  6
CONTINUOUS
 62
    7
 10
274.38991999999996
 20
11.70246400000002
 11
274.47772799999996
 21
11.658559999999994
  0
LINE
  8
_f-f_
  6
CONTINUOUS
 62
    7
 10
274.47772799999996
 20
11.658559999999994
 11
274.67529599999995
 21
11.570752000000027
  0
LINE
  8
_f-f_
  6
CONTINUOUS
 62
    7
 10
274.67529599999995
 20
11.570752000000027
 11
274.67529599999995
 21
11.52684800000003
  0
LINE
  8
_f-f_
  6
CONTINUOUS
 62
    7
 10
274.67529599999995
 20
11.52684800000003
 11
274.65334399999995
 21
11.439040000000034
  0
LINE
  8
_f-f_
  6
CONTINUOUS
 62
    7
 10
274.65334399999995
 20
11.439040000000034
 11
274.65334399999995
 21
11.395136000000008
  0
LINE
  8
_f-f_
  6
CONTINUOUS
 62
    7
 10
274.65334399999995
 20
11.395136000000008
 11
274.63139200000001
 21
11.307327999999984
  0
LINE
  8
_f-f_
  6
CONTINUOUS
 62
    7
 10
274.63139200000001
 20
11.307327999999984
 11
274.63139200000001
 21
11.263423999999986
  0
LINE
  8
_f-f_
  6
CONTINUOUS
 62
    7
 10
274.63139200000001
 20
11.263423999999986
 11
274.60943999999995
 21
11.175616000000019
  0
LINE
  8
_f-f_
  6
CONTINUOUS
 62
    7
 10
274.60943999999995
 20
11.175616000000019
 11
274.60943999999995
 21
11.131712000000022
  0
LINE
  8
_f-f_
  6
CONTINUOUS
 62
    7
 10
274.60943999999995
 20
11.131712000000022
 11
274.59846399999998
 21
11.087808000000024
  0
LINE
  8
_f-f_
  6
CONTINUOUS
 62
    7
 10
274.59846399999998
 20
11.087808000000024
 11
274.55455999999992
 21
11
  0
LINE
  8
_f-f_
  6
CONTINUOUS
 62
    7
 10
274.55455999999992
 20
11
 11
274.52163199999995
 21
10.956095999999974
  0
LINE
  8
_f-f_
  6
CONTINUOUS
 62
    7
 10
274.52163199999995
 20
10.956095999999974
 11
274.46675199999993
 21
10.912192000000005
  0
LINE
  8
_f-f_
  6
CONTINUOUS
 62
    7
 10
274.46675199999993
 20
10.912192000000005
 11
274.093568
 21
10.912192000000005
  0
LINE
  8
_f-f_
  6
CONTINUOUS
 62
    7
 10
277.05708800000002
 20
14.644031999999967
 11
276.99123199999997
 21
14.644031999999967
  0
LINE
  8
_f-f_
  6
CONTINUOUS
 62
    7
 10
276.99123199999997
 20
14.644031999999967
 11
276.94732799999997
 21
14.556224000000014
  0
LINE
  8
_f-f_
  6
CONTINUOUS
 62
    7
 10
276.94732799999997
 20
14.556224000000014
 11
276.9144
 21
14.512320000000003
  0
LINE
  8
_f-f_
  6
CONTINUOUS
 62
    7
 10
276.9144
 20
14.512320000000003
 11
276.89244799999994
 21
14.468416000000005
  0
LINE
  8
_f-f_
  6
CONTINUOUS
 62
    7
 10
276.89244799999994
 20
14.468416000000005
 11
276.82659199999995
 21
14.380608000000009
  0
LINE
  8
_f-f_
  6
CONTINUOUS
 62
    7
 10
276.82659199999995
 20
14.380608000000009
 11
276.80463999999995
 21
14.336704000000026
  0
LINE
  8
_f-f_
  6
CONTINUOUS
 62
    7
 10
276.80463999999995
 20
14.336704000000026
 11
276.70585599999993
 21
14.204992000000018
  0
LINE
  8
_f-f_
  6
CONTINUOUS
 62
    7
 10
276.70585599999993
 20
14.204992000000018
 11
276.66195199999999
 21
14.161087999999992
  0
LINE
  8
_f-f_
  6
CONTINUOUS
 62
    7
 10
276.66195199999999
 20
14.161087999999992
 11
276.59609599999999
 21
14.073279999999997
  0
LINE
  8
_f-f_
  6
CONTINUOUS
 62
    7
 10
276.59609599999999
 20
14.073279999999997
 11
276.42048
 21
13.897663999999992
  0
LINE
  8
_f-f_
  6
CONTINUOUS
 62
    7
 10
276.42048
 20
13.897663999999992
 11
276.36559999999997
 21
13.853760000000037
  0
LINE
  8
_f-f_
  6
CONTINUOUS
 62
    7
 10
276.36559999999997
 20
13.853760000000037
 11
276.32169599999997
 21
13.809856000000011
  0
LINE
  8
_f-f_
  6
CONTINUOUS
 62
    7
 10
276.32169599999997
 20
13.809856000000011
 11
276.21193599999998
 21
13.722048000000001
  0
LINE
  8
_f-f_
  6
CONTINUOUS
 62
    7
 10
276.21193599999998
 20
13.722048000000001
 11
276.01436799999999
 21
13.590336000000008
  0
LINE
  8
_f-f_
  6
CONTINUOUS
 62
    7
 10
276.01436799999999
 20
13.590336000000008
 11
275.860704
 21
13.502527999999984
  0
LINE
  8
_f-f_
  6
CONTINUOUS
 62
    7
 10
275.860704
 20
13.502527999999984
 11
275.68508799999995
 21
13.414720000000017
  0
LINE
  8
_f-f_
  6
CONTINUOUS
 62
    7
 10
275.68508799999995
 20
13.414720000000017
 11
275.46556799999996
 21
13.326912000000021
  0
LINE
  8
_f-f_
  6
CONTINUOUS
 62
    7
 10
275.46556799999996
 20
13.326912000000021
 11
275.33385599999997
 21
13.283008000000024
  0
LINE
  8
_f-f_
  6
CONTINUOUS
 62
    7
 10
275.33385599999997
 20
13.283008000000024
 11
275.22409599999997
 21
13.239103999999998
  0
LINE
  8
_f-f_
  6
CONTINUOUS
 62
    7
 10
275.22409599999997
 20
13.239103999999998
 11
275.23507199999995
 21
13.195199999999971
  0
LINE
  8
_f-f_
  6
CONTINUOUS
 62
    7
 10
275.23507199999995
 20
13.195199999999971
 11
275.257024
 21
13.151296000000031
  0
LINE
  8
_f-f_
  6
CONTINUOUS
 62
    7
 10
275.257024
 20
13.151296000000031
 11
275.26800000000003
 21
13.107392000000061
  0
LINE
  8
_f-f_
  6
CONTINUOUS
 62
    7
 10
275.26800000000003
 20
13.107392000000061
 11
275.28995199999997
 21
13.063488000000007
  0
LINE
  8
_f-f_
  6
CONTINUOUS
 62
    7
 10
275.28995199999997
 20
13.063488000000007
 11
275.300928
 21
13.019583999999952
  0
LINE
  8
_f-f_
  6
CONTINUOUS
 62
    7
 10
275.300928
 20
13.019583999999952
 11
275.32287999999994
 21
12.975680000000011
  0
LINE
  8
_f-f_
  6
CONTINUOUS
 62
    7
 10
275.32287999999994
 20
12.975680000000011
 11
275.33385599999997
 21
12.931776000000013
  0
LINE
  8
_f-f_
  6
CONTINUOUS
 62
    7
 10
275.33385599999997
 20
12.931776000000013
 11
275.35580800000002
 21
12.887871999999987
  0
LINE
  8
_f-f_
  6
CONTINUOUS
 62
    7
 10
277.17782399999993
 20
14.292800000000028
 11
277.19977599999999
 21
14.248896000000016
  0
LINE
  8
_f-f_
  6
CONTINUOUS
 62
    7
 10
277.19977599999999
 20
14.248896000000016
 11
277.2327039999999
 21
14.204992000000018
  0
LINE
  8
_f-f_
  6
CONTINUOUS
 62
    7
 10
277.2327039999999
 20
14.204992000000018
 11
277.25465599999995
 21
14.161087999999992
  0
LINE
  8
_f-f_
  6
CONTINUOUS
 62
    7
 10
277.25465599999995
 20
14.161087999999992
 11
277.48515199999997
 21
13.853760000000037
  0
LINE
  8
_f-f_
  6
CONTINUOUS
 62
    7
 10
277.48515199999997
 20
13.853760000000037
 11
277.70467199999996
 21
13.634240000000005
  0
LINE
  8
_f-f_
  6
CONTINUOUS
 62
    7
 10
277.70467199999996
 20
13.634240000000005
 11
277.86931199999992
 21
13.502527999999984
  0
LINE
  8
_f-f_
  6
CONTINUOUS
 62
    7
 10
277.86931199999992
 20
13.502527999999984
 11
278.06687999999991
 21
13.370815999999991
  0
LINE
  8
_f-f_
  6
CONTINUOUS
 62
    7
 10
278.06687999999991
 20
13.370815999999991
 11
278.14371199999994
 21
13.326912000000021
  0
LINE
  8
_f-f_
  6
CONTINUOUS
 62
    7
 10
278.14371199999994
 20
13.326912000000021
 11
276.27779199999998
 21
13.326912000000021
  0
LINE
  8
_f-f_
  6
CONTINUOUS
 62
    7
 10
276.24486400000001
 20
13.283008000000024
 11
276.24486400000001
 21
12.975680000000011
  0
LINE
  8
_f-f_
  6
CONTINUOUS
 62
    7
 10
278.23151999999993
 20
13.283008000000024
 11
278.38518399999998
 21
13.195199999999971
  0
LINE
  8
_f-f_
  6
CONTINUOUS
 62
    7
 10
278.38518399999998
 20
13.195199999999971
 11
278.56079999999997
 21
13.107392000000061
  0
LINE
  8
_f-f_
  6
CONTINUOUS
 62
    7
 10
278.56079999999997
 20
13.107392000000061
 11
278.78031999999996
 21
13.019583999999952
  0
LINE
  8
_f-f_
  6
CONTINUOUS
 62
    7
 10
278.78031999999996
 20
13.019583999999952
 11
278.91203199999995
 21
12.975680000000011
  0
LINE
  8
_f-f_
  6
CONTINUOUS
 62
    7
 10
278.9339839999999
 20
12.536639999999977
 11
275.43263999999999
 21
12.536639999999977
  0
LINE
  8
_f-f_
  6
CONTINUOUS
 62
    7
 10
276.66195199999999
 20
12.141503999999998
 11
276.6290239999999
 21
12.0976
  0
LINE
  8
_f-f_
  6
CONTINUOUS
 62
    7
 10
276.6290239999999
 20
12.0976
 11
276.54121599999996
 21
11.921984000000009
  0
LINE
  8
_f-f_
  6
CONTINUOUS
 62
    7
 10
276.54121599999996
 20
11.921984000000009
 11
276.50828799999999
 21
11.878080000000011
  0
LINE
  8
_f-f_
  6
CONTINUOUS
 62
    7
 10
276.50828799999999
 20
11.878080000000011
 11
276.42048
 21
11.70246400000002
  0
LINE
  8
_f-f_
  6
CONTINUOUS
 62
    7
 10
276.42048
 20
11.70246400000002
 11
276.38755199999997
 21
11.658559999999994
  0
LINE
  8
_f-f_
  6
CONTINUOUS
 62
    7
 10
276.38755199999997
 20
11.658559999999994
 11
276.29974399999992
 21
11.482944000000003
  0
LINE
  8
_f-f_
  6
CONTINUOUS
 62
    7
 10
276.29974399999992
 20
11.482944000000003
 11
276.26681599999995
 21
11.439040000000034
  0
LINE
  8
_f-f_
  6
CONTINUOUS
 62
    7
 10
276.26681599999995
 20
11.439040000000034
 11
276.20096000000001
 21
11.307327999999984
  0
LINE
  8
_f-f_
  6
CONTINUOUS
 62
    7
 10
276.20096000000001
 20
11.307327999999984
 11
275.57532799999996
 21
11.263423999999986
  0
LINE
  8
_f-f_
  6
CONTINUOUS
 62
    7
 10
275.57532799999996
 20
11.263423999999986
 11
275.49849599999993
 21
11.219519999999989
  0
LINE
  8
_f-f_
  6
CONTINUOUS
 62
    7
 10
275.49849599999993
 20
11.219519999999989
 11
275.50947199999996
 21
11.175616000000019
  0
LINE
  8
_f-f_
  6
CONTINUOUS
 62
    7
 10
275.50947199999996
 20
11.175616000000019
 11
275.53142400000002
 21
11.131712000000022
  0
LINE
  8
_f-f_
  6
CONTINUOUS
 62
    7
 10
275.53142400000002
 20
11.131712000000022
 11
275.59727999999996
 21
10.868288000000035
  0
LINE
  8
_f-f_
  6
CONTINUOUS
 62
    7
 10
275.59727999999996
 20
10.868288000000035
 11
275.63020799999993
 21
10.824384000000038
  0
LINE
  8
_f-f_
  6
CONTINUOUS
 62
    7
 10
277.81443200000001
 20
12.009792000000004
 11
277.77052800000001
 21
12.009792000000004
  0
LINE
  8
_f-f_
  6
CONTINUOUS
 62
    7
 10
277.77052800000001
 20
12.009792000000004
 11
277.50710400000003
 21
11.834176000000014
  0
LINE
  8
_f-f_
  6
CONTINUOUS
 62
    7
 10
277.50710400000003
 20
11.834176000000014
 11
277.55100799999997
 21
11.790272000000016
  0
LINE
  8
_f-f_
  6
CONTINUOUS
 62
    7
 10
277.55100799999997
 20
11.790272000000016
 11
277.88028799999995
 21
11.52684800000003
  0
LINE
  8
_f-f_
  6
CONTINUOUS
 62
    7
 10
277.88028799999995
 20
11.52684800000003
 11
277.92419200000001
 21
11.482944000000003
  0
LINE
  8
_f-f_
  6
CONTINUOUS
 62
    7
 10
277.92419200000001
 20
11.482944000000003
 11
277.97907199999997
 21
11.439040000000034
  0
LINE
  8
_f-f_
  6
CONTINUOUS
 62
    7
 10
277.97907199999997
 20
11.439040000000034
 11
277.73759999999999
 21
11.395136000000008
  0
LINE
  8
_f-f_
  6
CONTINUOUS
 62
    7
 10
277.73759999999999
 20
11.395136000000008
 11
277.14489600000002
 21
11.35123200000001
  0
LINE
  8
_f-f_
  6
CONTINUOUS
 62
    7
 10
277.14489600000002
 20
11.35123200000001
 11
276.58511999999996
 21
11.35123200000001
  0
LINE
  8
_f-f_
  6
CONTINUOUS
 62
    7
 10
278.26444799999996
 20
11.131712000000022
 11
278.30835200000001
 21
11.087808000000024
  0
LINE
  8
_f-f_
  6
CONTINUOUS
 62
    7
 10
278.30835200000001
 20
11.087808000000024
 11
278.36323199999993
 21
11.043903999999998
  0
LINE
  8
_f-f_
  6
CONTINUOUS
 62
    7
 10
278.36323199999993
 20
11.043903999999998
 11
278.3961599999999
 21
11
  0
LINE
  8
_f-f_
  6
CONTINUOUS
 62
    7
 10
278.3961599999999
 20
11
 11
278.44006399999995
 21
10.956095999999974
  0
LINE
  8
_f-f_
  6
CONTINUOUS
 62
    7
 10
278.44006399999995
 20
10.956095999999974
 11
278.47299199999998
 21
10.912192000000005
  0
LINE
  8
_f-f_
  6
CONTINUOUS
 62
    7
 10
278.47299199999998
 20
10.912192000000005
 11
278.51689599999997
 21
10.868288000000035
  0
LINE
  8
_f-f_
  6
CONTINUOUS
 62
    7
 10
278.51689599999997
 20
10.868288000000035
 11
278.54982399999994
 21
10.824384000000038
  0
LINE
  8
_f-f_
  6
CONTINUOUS
 62
    7
 10
277.05708800000002
 20
14.644031999999967
 11
277.36441599999995
 21
14.600128000000012
  0
LINE
  8
_f-f_
  6
CONTINUOUS
 62
    7
 10
277.36441599999995
 20
14.600128000000012
 11
277.40832
 21
14.556224000000014
  0
LINE
  8
_f-f_
  6
CONTINUOUS
 62
    7
 10
277.40832
 20
14.556224000000014
 11
277.36441599999995
 21
14.512320000000003
  0
LINE
  8
_f-f_
  6
CONTINUOUS
 62
    7
 10
277.36441599999995
 20
14.512320000000003
 11
277.37539199999998
 21
14.468416000000005
  0
LINE
  8
_f-f_
  6
CONTINUOUS
 62
    7
 10
277.37539199999998
 20
14.468416000000005
 11
277.50710400000003
 21
14.292800000000028
  0
LINE
  8
_f-f_
  6
CONTINUOUS
 62
    7
 10
277.50710400000003
 20
14.292800000000028
 11
277.59491200000002
 21
14.204992000000018
  0
LINE
  8
_f-f_
  6
CONTINUOUS
 62
    7
 10
277.59491200000002
 20
14.204992000000018
 11
277.62783999999999
 21
14.161087999999992
  0
LINE
  8
_f-f_
  6
CONTINUOUS
 62
    7
 10
277.62783999999999
 20
14.161087999999992
 11
277.67174399999999
 21
14.117184000000023
  0
LINE
  8
_f-f_
  6
CONTINUOUS
 62
    7
 10
277.67174399999999
 20
14.117184000000023
 11
277.72662399999996
 21
14.073279999999997
  0
LINE
  8
_f-f_
  6
CONTINUOUS
 62
    7
 10
277.72662399999996
 20
14.073279999999997
 11
277.77052800000001
 21
14.029375999999999
  0
LINE
  8
_f-f_
  6
CONTINUOUS
 62
    7
 10
277.77052800000001
 20
14.029375999999999
 11
277.93516799999998
 21
13.897663999999992
  0
LINE
  8
_f-f_
  6
CONTINUOUS
 62
    7
 10
277.93516799999998
 20
13.897663999999992
 11
278.13273600000002
 21
13.765952000000013
  0
LINE
  8
_f-f_
  6
CONTINUOUS
 62
    7
 10
278.13273600000002
 20
13.765952000000013
 11
278.28639999999996
 21
13.678143999999975
  0
LINE
  8
_f-f_
  6
CONTINUOUS
 62
    7
 10
278.28639999999996
 20
13.678143999999975
 11
278.46201599999995
 21
13.590336000000008
  0
LINE
  8
_f-f_
  6
CONTINUOUS
 62
    7
 10
278.46201599999995
 20
13.590336000000008
 11
278.68153599999994
 21
13.502527999999984
  0
LINE
  8
_f-f_
  6
CONTINUOUS
 62
    7
 10
278.68153599999994
 20
13.502527999999984
 11
278.80227199999996
 21
13.458624000000043
  0
LINE
  8
_f-f_
  6
CONTINUOUS
 62
    7
 10
278.80227199999996
 20
13.458624000000043
 11
278.94495999999992
 21
13.414720000000017
  0
LINE
  8
_f-f_
  6
CONTINUOUS
 62
    7
 10
278.94495999999992
 20
13.414720000000017
 11
279.09862399999997
 21
13.370815999999991
  0
LINE
  8
_f-f_
  6
CONTINUOUS
 62
    7
 10
279.09862399999997
 20
13.370815999999991
 11
279.08764799999994
 21
13.326912000000021
  0
LINE
  8
_f-f_
  6
CONTINUOUS
 62
    7
 10
279.08764799999994
 20
13.326912000000021
 11
279.04374399999995
 21
13.239103999999998
  0
LINE
  8
_f-f_
  6
CONTINUOUS
 62
    7
 10
279.04374399999995
 20
13.239103999999998
 11
279.03276799999992
 21
13.195199999999971
  0
LINE
  8
_f-f_
  6
CONTINUOUS
 62
    7
 10
279.03276799999992
 20
13.195199999999971
 11
278.98886399999998
 21
13.107392000000061
  0
LINE
  8
_f-f_
  6
CONTINUOUS
 62
    7
 10
278.98886399999998
 20
13.107392000000061
 11
278.97788799999995
 21
13.063488000000007
  0
LINE
  8
_f-f_
  6
CONTINUOUS
 62
    7
 10
278.97788799999995
 20
13.063488000000007
 11
278.9339839999999
 21
12.975680000000011
  0
LINE
  8
_f-f_
  6
CONTINUOUS
 62
    7
 10
278.9339839999999
 20
12.975680000000011
 11
278.91203199999995
 21
12.975680000000011
  0
LINE
  8
_f-f_
  6
CONTINUOUS
 62
    7
 10
277.17782399999993
 20
14.292800000000028
 11
277.14489600000002
 21
14.292800000000028
  0
LINE
  8
_f-f_
  6
CONTINUOUS
 62
    7
 10
277.14489600000002
 20
14.292800000000028
 11
277.11196799999999
 21
14.248896000000016
  0
LINE
  8
_f-f_
  6
CONTINUOUS
 62
    7
 10
277.11196799999999
 20
14.248896000000016
 11
277.09001599999993
 21
14.204992000000018
  0
LINE
  8
_f-f_
  6
CONTINUOUS
 62
    7
 10
277.09001599999993
 20
14.204992000000018
 11
277.05708800000002
 21
14.161087999999992
  0
LINE
  8
_f-f_
  6
CONTINUOUS
 62
    7
 10
277.05708800000002
 20
14.161087999999992
 11
277.03513599999997
 21
14.117184000000023
  0
LINE
  8
_f-f_
  6
CONTINUOUS
 62
    7
 10
277.03513599999997
 20
14.117184000000023
 11
276.83756799999998
 21
13.853760000000037
  0
LINE
  8
_f-f_
  6
CONTINUOUS
 62
    7
 10
276.83756799999998
 20
13.853760000000037
 11
276.79366399999992
 21
13.809856000000011
  0
LINE
  8
_f-f_
  6
CONTINUOUS
 62
    7
 10
276.79366399999992
 20
13.809856000000011
 11
276.76073599999995
 21
13.765952000000013
  0
LINE
  8
_f-f_
  6
CONTINUOUS
 62
    7
 10
276.76073599999995
 20
13.765952000000013
 11
276.49731199999997
 21
13.502527999999984
  0
LINE
  8
_f-f_
  6
CONTINUOUS
 62
    7
 10
276.49731199999997
 20
13.502527999999984
 11
276.27779199999998
 21
13.326912000000021
  0
LINE
  8
_f-f_
  6
CONTINUOUS
 62
    7
 10
276.24486400000001
 20
13.283008000000024
 11
276.21193599999998
 21
13.283008000000024
  0
LINE
  8
_f-f_
  6
CONTINUOUS
 62
    7
 10
276.21193599999998
 20
13.283008000000024
 11
276.01436799999999
 21
13.151296000000031
  0
LINE
  8
_f-f_
  6
CONTINUOUS
 62
    7
 10
276.01436799999999
 20
13.151296000000031
 11
275.78387199999997
 21
13.019583999999952
  0
LINE
  8
_f-f_
  6
CONTINUOUS
 62
    7
 10
275.78387199999997
 20
13.019583999999952
 11
275.58630399999993
 21
12.931776000000013
  0
LINE
  8
_f-f_
  6
CONTINUOUS
 62
    7
 10
275.58630399999993
 20
12.931776000000013
 11
275.47654399999999
 21
12.887871999999987
  0
LINE
  8
_f-f_
  6
CONTINUOUS
 62
    7
 10
275.47654399999999
 20
12.887871999999987
 11
275.35580800000002
 21
12.887871999999987
  0
LINE
  8
_f-f_
  6
CONTINUOUS
 62
    7
 10
278.23151999999993
 20
13.283008000000024
 11
278.16566399999994
 21
13.283008000000024
  0
LINE
  8
_f-f_
  6
CONTINUOUS
 62
    7
 10
278.16566399999994
 20
13.283008000000024
 11
278.16566399999994
 21
12.975680000000011
  0
LINE
  8
_f-f_
  6
CONTINUOUS
 62
    7
 10
278.16566399999994
 20
12.975680000000011
 11
276.24486400000001
 21
12.975680000000011
  0
LINE
  8
_f-f_
  6
CONTINUOUS
 62
    7
 10
277.05708800000002
 20
12.141503999999998
 11
277.01318399999997
 21
12.053696000000031
  0
LINE
  8
_f-f_
  6
CONTINUOUS
 62
    7
 10
277.01318399999997
 20
12.053696000000031
 11
276.98025599999994
 21
12.009792000000004
  0
LINE
  8
_f-f_
  6
CONTINUOUS
 62
    7
 10
276.98025599999994
 20
12.009792000000004
 11
276.958304
 21
11.965888000000007
  0
LINE
  8
_f-f_
  6
CONTINUOUS
 62
    7
 10
276.958304
 20
11.965888000000007
 11
276.92537599999997
 21
11.921984000000009
  0
LINE
  8
_f-f_
  6
CONTINUOUS
 62
    7
 10
276.92537599999997
 20
11.921984000000009
 11
276.88147199999992
 21
11.834176000000014
  0
LINE
  8
_f-f_
  6
CONTINUOUS
 62
    7
 10
276.88147199999992
 20
11.834176000000014
 11
276.84854399999995
 21
11.790272000000016
  0
LINE
  8
_f-f_
  6
CONTINUOUS
 62
    7
 10
276.84854399999995
 20
11.790272000000016
 11
276.82659199999995
 21
11.746368000000018
  0
LINE
  8
_f-f_
  6
CONTINUOUS
 62
    7
 10
276.82659199999995
 20
11.746368000000018
 11
276.79366399999992
 21
11.70246400000002
  0
LINE
  8
_f-f_
  6
CONTINUOUS
 62
    7
 10
276.79366399999992
 20
11.70246400000002
 11
276.74975999999998
 21
11.614655999999997
  0
LINE
  8
_f-f_
  6
CONTINUOUS
 62
    7
 10
276.74975999999998
 20
11.614655999999997
 11
276.71683199999995
 21
11.570752000000027
  0
LINE
  8
_f-f_
  6
CONTINUOUS
 62
    7
 10
276.71683199999995
 20
11.570752000000027
 11
276.69488000000001
 21
11.52684800000003
  0
LINE
  8
_f-f_
  6
CONTINUOUS
 62
    7
 10
276.69488000000001
 20
11.52684800000003
 11
276.66195199999999
 21
11.482944000000003
  0
LINE
  8
_f-f_
  6
CONTINUOUS
 62
    7
 10
276.66195199999999
 20
11.482944000000003
 11
276.61804799999993
 21
11.395136000000008
  0
LINE
  8
_f-f_
  6
CONTINUOUS
 62
    7
 10
276.61804799999993
 20
11.395136000000008
 11
276.58511999999996
 21
11.35123200000001
  0
LINE
  8
_f-f_
  6
CONTINUOUS
 62
    7
 10
277.81443200000001
 20
12.009792000000004
 11
277.92419200000001
 21
11.921984000000009
  0
LINE
  8
_f-f_
  6
CONTINUOUS
 62
    7
 10
277.92419200000001
 20
11.921984000000009
 11
277.990048
 21
11.878080000000011
  0
LINE
  8
_f-f_
  6
CONTINUOUS
 62
    7
 10
277.990048
 20
11.878080000000011
 11
278.20956799999988
 21
11.70246400000002
  0
LINE
  8
_f-f_
  6
CONTINUOUS
 62
    7
 10
278.20956799999988
 20
11.70246400000002
 11
278.25347199999993
 21
11.658559999999994
  0
LINE
  8
_f-f_
  6
CONTINUOUS
 62
    7
 10
278.25347199999993
 20
11.658559999999994
 11
278.36323199999993
 21
11.570752000000027
  0
LINE
  8
_f-f_
  6
CONTINUOUS
 62
    7
 10
278.36323199999993
 20
11.570752000000027
 11
278.40713599999992
 21
11.52684800000003
  0
LINE
  8
_f-f_
  6
CONTINUOUS
 62
    7
 10
278.40713599999992
 20
11.52684800000003
 11
278.46201599999995
 21
11.482944000000003
  0
LINE
  8
_f-f_
  6
CONTINUOUS
 62
    7
 10
278.46201599999995
 20
11.482944000000003
 11
278.54982399999994
 21
11.395136000000008
  0
LINE
  8
_f-f_
  6
CONTINUOUS
 62
    7
 10
278.54982399999994
 20
11.395136000000008
 11
278.60470399999997
 21
11.35123200000001
  0
LINE
  8
_f-f_
  6
CONTINUOUS
 62
    7
 10
278.60470399999997
 20
11.35123200000001
 11
278.73641599999996
 21
11.219519999999989
  0
LINE
  8
_f-f_
  6
CONTINUOUS
 62
    7
 10
278.73641599999996
 20
11.219519999999989
 11
278.76934399999993
 21
11.175616000000019
  0
LINE
  8
_f-f_
  6
CONTINUOUS
 62
    7
 10
278.76934399999993
 20
11.175616000000019
 11
278.81324799999999
 21
11.131712000000022
  0
LINE
  8
_f-f_
  6
CONTINUOUS
 62
    7
 10
278.81324799999999
 20
11.131712000000022
 11
278.87910399999993
 21
11.043903999999998
  0
LINE
  8
_f-f_
  6
CONTINUOUS
 62
    7
 10
278.87910399999993
 20
11.043903999999998
 11
278.90105599999998
 21
11
  0
LINE
  8
_f-f_
  6
CONTINUOUS
 62
    7
 10
278.90105599999998
 20
11
 11
278.82422399999996
 21
10.956095999999974
  0
LINE
  8
_f-f_
  6
CONTINUOUS
 62
    7
 10
278.82422399999996
 20
10.956095999999974
 11
278.69251199999997
 21
10.868288000000035
  0
LINE
  8
_f-f_
  6
CONTINUOUS
 62
    7
 10
278.69251199999997
 20
10.868288000000035
 11
278.61567999999994
 21
10.824384000000038
  0
LINE
  8
_f-f_
  6
CONTINUOUS
 62
    7
 10
278.61567999999994
 20
10.824384000000038
 11
278.54982399999994
 21
10.824384000000038
  0
LINE
  8
_f-f_
  6
CONTINUOUS
 62
    7
 10
278.26444799999996
 20
11.131712000000022
 11
278.08883199999997
 21
11.131712000000022
  0
LINE
  8
_f-f_
  6
CONTINUOUS
 62
    7
 10
278.08883199999997
 20
11.131712000000022
 11
277.69369599999993
 21
11.087808000000024
  0
LINE
  8
_f-f_
  6
CONTINUOUS
 62
    7
 10
277.69369599999993
 20
11.087808000000024
 11
277.28758399999992
 21
11.043903999999998
  0
LINE
  8
_f-f_
  6
CONTINUOUS
 62
    7
 10
277.28758399999992
 20
11.043903999999998
 11
276.10217599999993
 21
10.912192000000005
  0
LINE
  8
_f-f_
  6
CONTINUOUS
 62
    7
 10
276.10217599999993
 20
10.912192000000005
 11
275.73996799999998
 21
10.868288000000035
  0
LINE
  8
_f-f_
  6
CONTINUOUS
 62
    7
 10
275.73996799999998
 20
10.868288000000035
 11
275.67411199999998
 21
10.824384000000038
  0
LINE
  8
_f-f_
  6
CONTINUOUS
 62
    7
 10
275.67411199999998
 20
10.824384000000038
 11
275.63020799999993
 21
10.824384000000038
  0
LINE
  8
_f-f_
  6
CONTINUOUS
 62
    7
 10
280.723072
 20
14.600128000000012
 11
280.33891199999999
 21
14.600128000000012
  0
LINE
  8
_f-f_
  6
CONTINUOUS
 62
    7
 10
280.82185599999991
 20
13.546432000000038
 11
280.79990399999997
 21
13.502527999999984
  0
LINE
  8
_f-f_
  6
CONTINUOUS
 62
    7
 10
280.79990399999997
 20
13.502527999999984
 11
280.76697599999994
 21
13.458624000000043
  0
LINE
  8
_f-f_
  6
CONTINUOUS
 62
    7
 10
280.76697599999994
 20
13.458624000000043
 11
280.74502399999994
 21
13.414720000000017
  0
LINE
  8
_f-f_
  6
CONTINUOUS
 62
    7
 10
280.74502399999994
 20
13.414720000000017
 11
280.67916799999995
 21
13.326912000000021
  0
LINE
  8
_f-f_
  6
CONTINUOUS
 62
    7
 10
280.67916799999995
 20
13.326912000000021
 11
280.65721599999995
 21
13.283008000000024
  0
LINE
  8
_f-f_
  6
CONTINUOUS
 62
    7
 10
280.65721599999995
 20
13.283008000000024
 11
280.59135999999995
 21
13.195199999999971
  0
LINE
  8
_f-f_
  6
CONTINUOUS
 62
    7
 10
280.59135999999995
 20
13.195199999999971
 11
280.54745600000001
 21
13.151296000000031
  0
LINE
  8
_f-f_
  6
CONTINUOUS
 62
    7
 10
280.54745600000001
 20
13.151296000000031
 11
280.48159999999996
 21
13.063488000000007
  0
LINE
  8
_f-f_
  6
CONTINUOUS
 62
    7
 10
280.48159999999996
 20
13.063488000000007
 11
280.43769599999996
 21
13.019583999999952
  0
LINE
  8
_f-f_
  6
CONTINUOUS
 62
    7
 10
280.43769599999996
 20
13.019583999999952
 11
280.40476799999999
 21
12.975680000000011
  0
LINE
  8
_f-f_
  6
CONTINUOUS
 62
    7
 10
280.40476799999999
 20
12.975680000000011
 11
280.22915199999994
 21
12.800064000000049
  0
LINE
  8
_f-f_
  6
CONTINUOUS
 62
    7
 10
280.22915199999994
 20
12.800064000000049
 11
280.17427199999997
 21
12.756160000000023
  0
LINE
  8
_f-f_
  6
CONTINUOUS
 62
    7
 10
280.17427199999997
 20
12.756160000000023
 11
280.13036799999998
 21
12.712256000000025
  0
LINE
  8
_f-f_
  6
CONTINUOUS
 62
    7
 10
280.13036799999998
 20
12.712256000000025
 11
280.02060799999992
 21
12.624447999999973
  0
LINE
  8
_f-f_
  6
CONTINUOUS
 62
    7
 10
280.02060799999992
 20
12.624447999999973
 11
279.95475199999993
 21
12.580544000000003
  0
LINE
  8
_f-f_
  6
CONTINUOUS
 62
    7
 10
279.95475199999993
 20
12.580544000000003
 11
279.89987199999996
 21
12.536639999999977
  0
LINE
  8
_f-f_
  6
CONTINUOUS
 62
    7
 10
279.89987199999996
 20
12.536639999999977
 11
279.70230399999997
 21
12.404927999999984
  0
LINE
  8
_f-f_
  6
CONTINUOUS
 62
    7
 10
279.70230399999997
 20
12.404927999999984
 11
279.62547199999995
 21
12.361024000000015
  0
LINE
  8
_f-f_
  6
CONTINUOUS
 62
    7
 10
279.62547199999995
 20
12.361024000000015
 11
279.55961599999989
 21
12.317120000000017
  0
LINE
  8
_f-f_
  6
CONTINUOUS
 62
    7
 10
279.55961599999989
 20
12.317120000000017
 11
279.60351999999995
 21
12.229311999999993
  0
LINE
  8
_f-f_
  6
CONTINUOUS
 62
    7
 10
279.60351999999995
 20
12.229311999999993
 11
279.61449599999997
 21
12.185407999999995
  0
LINE
  8
_f-f_
  6
CONTINUOUS
 62
    7
 10
279.61449599999997
 20
12.185407999999995
 11
279.70230399999997
 21
12.009792000000004
  0
LINE
  8
_f-f_
  6
CONTINUOUS
 62
    7
 10
282.59996799999999
 20
14.512320000000003
 11
282.17190399999993
 21
14.512320000000003
  0
LINE
  8
_f-f_
  6
CONTINUOUS
 62
    7
 10
282.17190399999993
 20
14.512320000000003
 11
282.17190399999993
 21
13.502527999999984
  0
LINE
  8
_f-f_
  6
CONTINUOUS
 62
    7
 10
282.17190399999993
 20
13.107392000000061
 11
282.17190399999993
 21
11.35123200000001
  0
LINE
  8
_f-f_
  6
CONTINUOUS
 62
    7
 10
281.11820799999992
 20
13.941568000000032
 11
281.08528000000001
 21
13.941568000000032
  0
LINE
  8
_f-f_
  6
CONTINUOUS
 62
    7
 10
281.08528000000001
 20
13.941568000000032
 11
281.06332799999996
 21
13.897663999999992
  0
LINE
  8
_f-f_
  6
CONTINUOUS
 62
    7
 10
281.06332799999996
 20
13.897663999999992
 11
280.69014399999992
 21
13.897663999999992
  0
LINE
  8
_f-f_
  6
CONTINUOUS
 62
    7
 10
280.33891199999999
 20
12.448831999999982
 11
280.33891199999999
 21
10.78048000000004
  0
LINE
  8
_f-f_
  6
CONTINUOUS
 62
    7
 10
280.69014399999992
 20
12.448831999999982
 11
280.76697599999994
 21
12.404927999999984
  0
LINE
  8
_f-f_
  6
CONTINUOUS
 62
    7
 10
280.76697599999994
 20
12.404927999999984
 11
281.03039999999999
 21
12.229311999999993
  0
LINE
  8
_f-f_
  6
CONTINUOUS
 62
    7
 10
281.03039999999999
 20
12.229311999999993
 11
281.14015999999992
 21
12.141503999999998
  0
LINE
  8
_f-f_
  6
CONTINUOUS
 62
    7
 10
281.14015999999992
 20
12.141503999999998
 11
281.20601599999998
 21
12.0976
  0
LINE
  8
_f-f_
  6
CONTINUOUS
 62
    7
 10
280.723072
 20
14.600128000000012
 11
280.67916799999995
 21
14.556224000000014
  0
LINE
  8
_f-f_
  6
CONTINUOUS
 62
    7
 10
280.67916799999995
 20
14.556224000000014
 11
280.66819199999998
 21
14.512320000000003
  0
LINE
  8
_f-f_
  6
CONTINUOUS
 62
    7
 10
280.66819199999998
 20
14.512320000000003
 11
280.66819199999998
 21
13.941568000000032
  0
LINE
  8
_f-f_
  6
CONTINUOUS
 62
    7
 10
280.66819199999998
 20
13.941568000000032
 11
280.69014399999992
 21
13.897663999999992
  0
LINE
  8
_f-f_
  6
CONTINUOUS
 62
    7
 10
282.59996799999999
 20
14.512320000000003
 11
282.62191999999993
 21
14.468416000000005
  0
LINE
  8
_f-f_
  6
CONTINUOUS
 62
    7
 10
282.62191999999993
 20
14.468416000000005
 11
282.57801599999993
 21
14.424512000000007
  0
LINE
  8
_f-f_
  6
CONTINUOUS
 62
    7
 10
282.57801599999993
 20
14.424512000000007
 11
282.55606399999994
 21
14.380608000000009
  0
LINE
  8
_f-f_
  6
CONTINUOUS
 62
    7
 10
282.55606399999994
 20
14.380608000000009
 11
282.55606399999994
 21
13.502527999999984
  0
LINE
  8
_f-f_
  6
CONTINUOUS
 62
    7
 10
282.55606399999994
 20
13.107392000000061
 11
282.55606399999994
 21
11.35123200000001
  0
LINE
  8
_f-f_
  6
CONTINUOUS
 62
    7
 10
283.5
 20
11
 11
281.16211199999998
 21
11
  0
LINE
  8
_f-f_
  6
CONTINUOUS
 62
    7
 10
281.11820799999992
 20
13.941568000000032
 11
281.33772799999997
 21
13.722048000000001
  0
LINE
  8
_f-f_
  6
CONTINUOUS
 62
    7
 10
281.33772799999997
 20
13.722048000000001
 11
281.29382399999997
 21
13.678143999999975
  0
LINE
  8
_f-f_
  6
CONTINUOUS
 62
    7
 10
281.29382399999997
 20
13.678143999999975
 11
281.22796799999992
 21
13.634240000000005
  0
LINE
  8
_f-f_
  6
CONTINUOUS
 62
    7
 10
281.22796799999992
 20
13.634240000000005
 11
281.16211199999998
 21
13.502527999999984
  0
LINE
  8
_f-f_
  6
CONTINUOUS
 62
    7
 10
281.16211199999998
 20
13.502527999999984
 11
281.12918399999995
 21
13.458624000000043
  0
LINE
  8
_f-f_
  6
CONTINUOUS
 62
    7
 10
281.12918399999995
 20
13.458624000000043
 11
281.08528000000001
 21
13.370815999999991
  0
LINE
  8
_f-f_
  6
CONTINUOUS
 62
    7
 10
281.08528000000001
 20
13.370815999999991
 11
281.05235199999998
 21
13.326912000000021
  0
LINE
  8
_f-f_
  6
CONTINUOUS
 62
    7
 10
281.05235199999998
 20
13.326912000000021
 11
281.03039999999999
 21
13.283008000000024
  0
LINE
  8
_f-f_
  6
CONTINUOUS
 62
    7
 10
281.03039999999999
 20
13.283008000000024
 11
280.93161599999996
 21
13.151296000000031
  0
LINE
  8
_f-f_
  6
CONTINUOUS
 62
    7
 10
280.93161599999996
 20
13.151296000000031
 11
280.90966400000002
 21
13.107392000000061
  0
LINE
  8
_f-f_
  6
CONTINUOUS
 62
    7
 10
280.90966400000002
 20
13.107392000000061
 11
280.74502399999994
 21
12.887871999999987
  0
LINE
  8
_f-f_
  6
CONTINUOUS
 62
    7
 10
280.74502399999994
 20
12.887871999999987
 11
280.70111999999995
 21
12.84396799999999
  0
LINE
  8
_f-f_
  6
CONTINUOUS
 62
    7
 10
280.70111999999995
 20
12.84396799999999
 11
280.66819199999998
 21
12.800064000000049
  0
LINE
  8
_f-f_
  6
CONTINUOUS
 62
    7
 10
280.66819199999998
 20
12.800064000000049
 11
280.75599999999997
 21
12.756160000000023
  0
LINE
  8
_f-f_
  6
CONTINUOUS
 62
    7
 10
280.75599999999997
 20
12.756160000000023
 11
280.87673599999994
 21
12.712256000000025
  0
LINE
  8
_f-f_
  6
CONTINUOUS
 62
    7
 10
280.87673599999994
 20
12.712256000000025
 11
281.07430399999998
 21
12.624447999999973
  0
LINE
  8
_f-f_
  6
CONTINUOUS
 62
    7
 10
281.07430399999998
 20
12.624447999999973
 11
281.16211199999998
 21
12.580544000000003
  0
LINE
  8
_f-f_
  6
CONTINUOUS
 62
    7
 10
281.16211199999998
 20
12.580544000000003
 11
281.31577599999991
 21
12.492735999999979
  0
LINE
  8
_f-f_
  6
CONTINUOUS
 62
    7
 10
281.31577599999991
 20
12.492735999999979
 11
281.38163199999997
 21
12.448831999999982
  0
LINE
  8
_f-f_
  6
CONTINUOUS
 62
    7
 10
281.38163199999997
 20
12.448831999999982
 11
281.40358399999991
 21
12.404927999999984
  0
LINE
  8
_f-f_
  6
CONTINUOUS
 62
    7
 10
281.40358399999991
 20
12.404927999999984
 11
281.24991999999997
 21
12.0976
  0
LINE
  8
_f-f_
  6
CONTINUOUS
 62
    7
 10
281.24991999999997
 20
12.0976
 11
281.20601599999998
 21
12.0976
  0
LINE
  8
_f-f_
  6
CONTINUOUS
 62
    7
 10
280.33891199999999
 20
12.448831999999982
 11
280.31695999999999
 21
12.448831999999982
  0
LINE
  8
_f-f_
  6
CONTINUOUS
 62
    7
 10
280.31695999999999
 20
12.448831999999982
 11
280.27305599999988
 21
12.404927999999984
  0
LINE
  8
_f-f_
  6
CONTINUOUS
 62
    7
 10
280.27305599999988
 20
12.404927999999984
 11
280.05353599999995
 21
12.229311999999993
  0
LINE
  8
_f-f_
  6
CONTINUOUS
 62
    7
 10
280.05353599999995
 20
12.229311999999993
 11
279.98767999999995
 21
12.185407999999995
  0
LINE
  8
_f-f_
  6
CONTINUOUS
 62
    7
 10
279.98767999999995
 20
12.185407999999995
 11
279.93279999999993
 21
12.141503999999998
  0
LINE
  8
_f-f_
  6
CONTINUOUS
 62
    7
 10
279.93279999999993
 20
12.141503999999998
 11
279.80108799999994
 21
12.053696000000031
  0
LINE
  8
_f-f_
  6
CONTINUOUS
 62
    7
 10
279.80108799999994
 20
12.053696000000031
 11
279.72425599999997
 21
12.009792000000004
  0
LINE
  8
_f-f_
  6
CONTINUOUS
 62
    7
 10
279.72425599999997
 20
12.009792000000004
 11
279.70230399999997
 21
12.009792000000004
  0
LINE
  8
_f-f_
  6
CONTINUOUS
 62
    7
 10
280.69014399999992
 20
12.448831999999982
 11
280.66819199999998
 21
12.448831999999982
  0
LINE
  8
_f-f_
  6
CONTINUOUS
 62
    7
 10
280.66819199999998
 20
12.448831999999982
 11
280.66819199999998
 21
10.78048000000004
  0
LINE
  8
_f-f_
  6
CONTINUOUS
 62
    7
 10
280.66819199999998
 20
10.78048000000004
 11
280.33891199999999
 21
10.78048000000004
  0
LINE
  8
_f-f_
  6
CONTINUOUS
 62
    7
 10
261.69803650015848
 20
10.818143377298185
 11
261.46786978015854
 21
11.320637828498263
  0
ARC
  8
_f-f_
  6
CONTINUOUS
 62
    7
 10
261.14397350815852
 20
13.801814490098195
 40
2.5022283551999998
 50
277.43740700000006
 51
318.25330200000008
  0
LINE
  8
_f-f_
  6
CONTINUOUS
 62
    7
 10
259.91794882015853
 20
11.278091559698225
 11
259.38451522015851
 21
10.85915849409821
  0
ARC
  8
_f-f_
  6
CONTINUOUS
 62
    7
 10
248.43833509135854
 20
2.5524020556982236
 40
13.741217431199997
 50
37.193868000000002
 51
44.067300000000003
  0
ARC
  8
_f-f_
  6
CONTINUOUS
 62
    7
 10
251.63328789295852
 20
5.1972563964982612
 40
9.6114510576000001
 50
45.985430000000001
 51
52.858862000000002
  0
LINE
  8
_f-f_
  6
CONTINUOUS
 62
    7
 10
257.43649474015854
 20
12.859030695698209
 11
257.84546050015854
 21
13.256932647698193
  0
ARC
  8
_f-f_
  6
CONTINUOUS
 62
    7
 10
259.60822146655852
 20
14.802502172498251
 40
1.5138771480000004
 50
335.50113199999998
 51
353.79681699999998
  0
ARC
  8
_f-f_
  6
CONTINUOUS
 62
    7
 10
255.5557247609585
 20
17.049016618898278
 40
6.1438791120000014
 50
318.37204700000001
 51
332.10656799999998
  0
ARC
  8
_f-f_
  6
CONTINUOUS
 62
    7
 10
253.24143214255852
 20
15.569703169298236
 40
3.3701116512000007
 50
327.63748900000002
 51
343.65418099999999
  0
ARC
  8
_f-f_
  6
CONTINUOUS
 62
    7
 10
253.40907764575854
 20
15.622958446898267
 40
3.2597962655999995
 50
295.64126099999999
 51
325.26891000000001
  0
LINE
  8
_f-f_
  6
CONTINUOUS
 62
    7
 10
254.81970658015848
 20
12.68418301569821
 11
254.54706274015854
 21
13.113498279698177
  0
LINE
  8
_f-f_
  6
CONTINUOUS
 62
    7
 10
253.63923778015851
 20
15.293364807698225
 11
253.08308386015847
 21
15.228364935698238
  0
LINE
  8
_f-f_
  6
CONTINUOUS
 62
    7
 10
253.74691234015856
 20
10.796371383698215
 11
254.30800546015854
 21
10.877532318098247
  0
LINE
  8
_f-f_
  6
CONTINUOUS
 62
    7
 10
251.82161218015855
 20
14.621238471698234
 11
251.82161218015855
 21
14.055798855698214
  0
LINE
  8
_f-f_
  6
CONTINUOUS
 62
    7
 10
265.43503522015851
 20
13.13197088769823
 11
265.43799874015849
 21
13.697410503698194
  0
LINE
  8
_f-f_
  6
CONTINUOUS
 62
    7
 10
265.43799874015849
 20
13.697410503698194
 11
261.28709506015849
 21
13.697410503698194
  0
LINE
  8
_f-f_
  6
CONTINUOUS
 62
    7
 10
261.28709506015849
 20
13.697410503698194
 11
261.28709506015849
 21
13.13197088769823
  0
LINE
  8
_f-f_
  6
CONTINUOUS
 62
    7
 10
261.62197282015848
 20
14.929049415698273
 11
261.62197282015848
 21
14.363609799698224
  0
LINE
  8
_f-f_
  6
CONTINUOUS
 62
    7
 10
261.62197282015848
 20
14.363609799698224
 11
264.40866946015854
 21
14.363609799698224
  0
LINE
  8
_f-f_
  6
CONTINUOUS
 62
    7
 10
261.11323522015851
 20
14.63892080769827
 11
256.72228642015853
 21
14.63892080769827
  0
LINE
  8
_f-f_
  6
CONTINUOUS
 62
    7
 10
256.72228642015853
 20
14.63892080769827
 11
256.72228642015853
 21
14.073678759698211
  0
LINE
  8
_f-f_
  6
CONTINUOUS
 62
    7
 10
248.28712066015856
 20
15.250196199698237
 11
247.73096674015852
 21
15.185295111698224
  0
LINE
  8
_f-f_
  6
CONTINUOUS
 62
    7
 10
248.17648258015853
 20
10.813381988498236
 11
248.73757570015857
 21
10.894552801298175
  0
LINE
  8
_f-f_
  6
CONTINUOUS
 62
    7
 10
240.27079906015857
 20
13.902288519698203
 11
240.87041794015852
 21
13.944370503698195
  0
ARC
  8
_f-f_
  6
CONTINUOUS
 62
    7
 10
236.74753516495866
 20
13.76305823409821
 40
4.1268670632000006
 50
321.70218699999998
 51
2.5180820000000264
  0
ARC
  8
_f-f_
  6
CONTINUOUS
 62
    7
 10
238.33115299375856
 20
13.078716433298212
 40
2.4997389984000002
 50
293.16671400000001
 51
311.462399
  0
LINE
  8
_f-f_
  6
CONTINUOUS
 62
    7
 10
239.31456994015855
 20
10.780546186898221
 11
238.93326370015848
 21
11.179910142098237
  0
ARC
  8
_f-f_
  6
CONTINUOUS
 62
    7
 10
237.93835982095854
 20
13.317551449298207
 40
2.3578267271999995
 50
294.95826699999998
 51
355.396568
  0
ARC
  8
_f-f_
  6
CONTINUOUS
 62
    7
 10
236.41950066655863
 20
13.426618863698252
 40
3.8805615072000004
 50
355.59126199999997
 51
7.040883000000008
  0
LINE
  8
_f-f_
  6
CONTINUOUS
 62
    7
 10
250.53149314015846
 20
12.585794151698195
 11
250.53346882015853
 21
13.151233767698216
  0
LINE
  8
_f-f_
  6
CONTINUOUS
 62
    7
 10
246.08917666015856
 20
13.151233767698216
 11
246.08917666015856
 21
12.585794151698195
  0
LINE
  8
_f-f_
  6
CONTINUOUS
 62
    7
 10
250.33491298015849
 20
14.089879335698242
 11
250.33787650015853
 21
14.65531895169822
  0
LINE
  8
_f-f_
  6
CONTINUOUS
 62
    7
 10
246.3025501001585
 20
14.65531895169822
 11
246.3025501001585
 21
14.089879335698242
  0
LINE
  8
_f-f_
  6
CONTINUOUS
 62
    7
 10
245.69107714015851
 20
12.768050631698202
 11
245.69305282015858
 21
13.333292679698218
  0
LINE
  8
_f-f_
  6
CONTINUOUS
 62
    7
 10
245.69305282015858
 20
13.333292679698218
 11
242.56061218015859
 21
13.333292679698218
  0
LINE
  8
_f-f_
  6
CONTINUOUS
 62
    7
 10
242.56061218015859
 20
13.333292679698218
 11
242.56061218015859
 21
12.768050631698202
  0
LINE
  8
_f-f_
  6
CONTINUOUS
 62
    7
 10
242.56061218015859
 20
12.768050631698202
 11
245.69107714015851
 21
12.768050631698202
  0
LINE
  8
_f-f_
  6
CONTINUOUS
 62
    7
 10
242.94685762015857
 20
15.086511111698243
 11
238.61320354015854
 21
15.086511111698243
  0
LINE
  8
_f-f_
  6
CONTINUOUS
 62
    7
 10
238.61320354015854
 20
15.086511111698243
 11
238.61320354015854
 21
14.526603399698274
  0
LINE
  8
_f-f_
  6
CONTINUOUS
 62
    7
 10
241.43249890015855
 20
12.940725063698153
 11
241.04921698015858
 21
13.386537255698215
  0
LINE
  8
_f-f_
  6
CONTINUOUS
 62
    7
 10
264.40866946015854
 20
14.363609799698224
 11
264.41163298015852
 21
14.929049415698273
  0
LINE
  8
_f-f_
  6
CONTINUOUS
 62
    7
 10
264.41163298015852
 20
14.929049415698273
 11
261.62197282015848
 21
14.929049415698273
  0
LINE
  8
_f-f_
  6
CONTINUOUS
 62
    7
 10
264.76923106015852
 20
15.129383367698281
 11
264.76923106015852
 21
14.298116007698198
  0
LINE
  8
_f-f_
  6
CONTINUOUS
 62
    7
 10
264.76923106015852
 20
14.298116007698198
 11
265.18906306015845
 21
14.298116007698198
  0
LINE
  8
_f-f_
  6
CONTINUOUS
 62
    7
 10
265.18906306015845
 20
14.298116007698198
 11
265.18906306015845
 21
15.129383367698281
  0
LINE
  8
_f-f_
  6
CONTINUOUS
 62
    7
 10
265.18906306015845
 20
15.129383367698281
 11
264.76923106015852
 21
15.129383367698281
  0
LINE
  8
_f-f_
  6
CONTINUOUS
 62
    7
 10
265.35403234015854
 20
15.129383367698281
 11
265.35403234015854
 21
14.298116007698198
  0
LINE
  8
_f-f_
  6
CONTINUOUS
 62
    7
 10
265.35403234015854
 20
14.298116007698198
 11
265.77386434015853
 21
14.298116007698198
  0
LINE
  8
_f-f_
  6
CONTINUOUS
 62
    7
 10
265.77386434015853
 20
14.298116007698198
 11
265.77386434015853
 21
15.129383367698281
  0
LINE
  8
_f-f_
  6
CONTINUOUS
 62
    7
 10
265.77386434015853
 20
15.129383367698281
 11
265.35403234015854
 21
15.129383367698281
  0
ARC
  8
_f-f_
  6
CONTINUOUS
 62
    7
 10
240.40335977935854
 20
15.112665822098251
 40
1.8430007399999995
 50
290.51408900000007
 51
341.45836900000006
  0
ARC
  8
_f-f_
  6
CONTINUOUS
 62
    7
 10
240.32372670415859
 20
15.330920014898268
 40
2.6348450520000002
 50
294.88580100000001
 51
354.697475
  0
LINE
  8
_f-f_
  6
CONTINUOUS
 62
    7
 10
250.33787650015853
 20
14.65531895169822
 11
248.34864168895854
 21
14.65531895169822
  0
LINE
  8
_f-f_
  6
CONTINUOUS
 62
    7
 10
247.78497359935855
 20
14.65531895169822
 11
246.3025501001585
 21
14.65531895169822
  0
LINE
  8
_f-f_
  6
CONTINUOUS
 62
    7
 10
246.3025501001585
 20
14.089879335698242
 11
247.84259348335851
 21
14.089879335698242
  0
LINE
  8
_f-f_
  6
CONTINUOUS
 62
    7
 10
248.40711852415853
 20
14.089879335698242
 11
250.33491298015849
 21
14.089879335698242
  0
LINE
  8
_f-f_
  6
CONTINUOUS
 62
    7
 10
250.53346882015853
 20
13.151233767698216
 11
248.50419273775856
 21
13.151233767698216
  0
LINE
  8
_f-f_
  6
CONTINUOUS
 62
    7
 10
247.93824603055856
 20
13.151233767698216
 11
246.08917666015856
 21
13.151233767698216
  0
LINE
  8
_f-f_
  6
CONTINUOUS
 62
    7
 10
246.08917666015856
 20
12.585794151698195
 11
247.99586591455852
 21
12.585794151698195
  0
LINE
  8
_f-f_
  6
CONTINUOUS
 62
    7
 10
248.5626695729585
 20
12.585794151698195
 11
250.53149314015846
 21
12.585794151698195
  0
LINE
  8
_f-f_
  6
CONTINUOUS
 62
    7
 10
248.34864168895854
 20
14.65531895169822
 11
248.28712066015856
 21
15.250196199698237
  0
LINE
  8
_f-f_
  6
CONTINUOUS
 62
    7
 10
247.73096674015852
 20
15.185295111698224
 11
247.78497359935855
 21
14.65531895169822
  0
LINE
  8
_f-f_
  6
CONTINUOUS
 62
    7
 10
247.84259348335851
 20
14.089879335698242
 11
247.93824603055856
 21
13.151233767698216
  0
LINE
  8
_f-f_
  6
CONTINUOUS
 62
    7
 10
247.99586591455852
 20
12.585794151698195
 11
248.17648258015853
 21
10.813381988498236
  0
LINE
  8
_f-f_
  6
CONTINUOUS
 62
    7
 10
248.73757570015857
 20
10.894552801298175
 11
248.5626695729585
 21
12.585794151698195
  0
LINE
  8
_f-f_
  6
CONTINUOUS
 62
    7
 10
248.50419273775856
 20
13.151233767698216
 11
248.40711852415853
 21
14.089879335698242
  0
LINE
  8
_f-f_
  6
CONTINUOUS
 62
    7
 10
256.47532642015847
 20
14.621238471698234
 11
253.74102975295853
 21
14.621238471698234
  0
LINE
  8
_f-f_
  6
CONTINUOUS
 62
    7
 10
253.1740194713586
 20
14.621238471698234
 11
251.82161218015855
 21
14.621238471698234
  0
LINE
  8
_f-f_
  6
CONTINUOUS
 62
    7
 10
251.82161218015855
 20
14.055798855698214
 11
253.25871193375849
 21
14.055798855698214
  0
LINE
  8
_f-f_
  6
CONTINUOUS
 62
    7
 10
253.08308386015847
 20
15.228364935698238
 11
253.1740194713586
 21
14.621238471698234
  0
LINE
  8
_f-f_
  6
CONTINUOUS
 62
    7
 10
253.25871193375849
 20
14.055798855698214
 11
253.74691234015856
 21
10.796371383698215
  0
LINE
  8
_f-f_
  6
CONTINUOUS
 62
    7
 10
254.30800546015854
 20
10.877532318098247
 11
253.82666395615848
 21
14.055798855698214
  0
LINE
  8
_f-f_
  6
CONTINUOUS
 62
    7
 10
253.74102975295853
 20
14.621238471698234
 11
253.63923778015851
 21
15.293364807698225
  0
ARC
  8
_f-f_
  6
CONTINUOUS
 62
    7
 10
253.30606651375854
 20
15.707678898098237
 40
2.8757339520000005
 50
295.56537500000002
 51
324.94094800000005
  0
LINE
  8
_f-f_
  6
CONTINUOUS
 62
    7
 10
253.82666395615848
 20
14.055798855698214
 11
255.66727330015857
 21
14.055798855698214
  0
ARC
  8
_f-f_
  6
CONTINUOUS
 62
    7
 10
255.50034562735851
 20
17.562717291698277
 40
6.535748654399999
 50
304.14080200000001
 51
315.32696499999997
  0
ARC
  8
_f-f_
  6
CONTINUOUS
 62
    7
 10
251.77672308415856
 20
5.0645516172982639
 40
10.241466597600002
 50
37.351568999999991
 51
43.801712000000002
  0
ARC
  8
_f-f_
  6
CONTINUOUS
 62
    7
 10
251.93372790415847
 20
4.8052798380982154
 40
10.3140201528
 50
48.700563000000002
 51
55.028115999999997
  0
ARC
  8
_f-f_
  6
CONTINUOUS
 62
    7
 10
257.08223226655855
 20
15.662920690898247
 40
3.5238129696000002
 50
298.08031299999999
 51
333.19209899999998
  0
LINE
  8
_f-f_
  6
CONTINUOUS
 62
    7
 10
256.72228642015853
 20
14.073678759698211
 11
260.22731890495857
 21
14.073678759698211
  0
ARC
  8
_f-f_
  6
CONTINUOUS
 62
    7
 10
261.53521000975854
 20
13.090698932498213
 40
2.2783813415999994
 50
274.09817199999998
 51
1.0379469999999982
  0
ARC
  8
_f-f_
  6
CONTINUOUS
 62
    7
 10
261.63552269215853
 20
12.913413757298173
 40
1.5799941024000002
 50
330.51444500000002
 51
7.9510959999999775
  0
LINE
  8
_f-f_
  6
CONTINUOUS
 62
    7
 10
261.28709506015849
 20
13.13197088769823
 11
263.20032710815855
 21
13.13197088769823
  0
LINE
  8
_f-f_
  6
CONTINUOUS
 62
    7
 10
263.8132176185585
 20
13.13197088769823
 11
265.43503522015851
 21
13.13197088769823
  0
LINE
  8
_f-f_
  6
CONTINUOUS
 62
    7
 10
238.61320354015854
 20
14.526603399698274
 11
242.15069562415852
 21
14.526603399698274
  0
LINE
  8
_f-f_
  6
CONTINUOUS
 62
    7
 10
269.23119999999994
 20
13.941568000000032
 11
270.02147199999996
 21
13.941568000000032
  0
LINE
  8
_f-f_
  6
CONTINUOUS
 62
    7
 10
269.23119999999994
 20
13.546432000000038
 11
270.02147199999996
 21
13.546432000000038
  0
LINE
  8
_f-f_
  6
CONTINUOUS
 62
    7
 10
270.02147199999996
 20
13.941568000000032
 11
270.02147199999996
 21
13.546432000000038
  0
LINE
  8
_f-f_
  6
CONTINUOUS
 62
    7
 10
267.06892800000003
 20
13.853760000000037
 11
266.48719999999992
 21
13.853760000000037
  0
LINE
  8
_f-f_
  6
CONTINUOUS
 62
    7
 10
266.48719999999992
 20
13.853760000000037
 11
266.48719999999992
 21
13.458624000000043
  0
LINE
  8
_f-f_
  6
CONTINUOUS
 62
    7
 10
267.04697599999997
 20
13.458624000000043
 11
266.48719999999992
 21
13.458624000000043
  0
LINE
  8
_f-f_
  6
CONTINUOUS
 62
    7
 10
267.38723200000004
 20
13.853760000000037
 11
267.87017599999996
 21
13.853760000000037
  0
LINE
  8
_f-f_
  6
CONTINUOUS
 62
    7
 10
267.87017599999996
 20
13.853760000000037
 11
267.87017599999996
 21
13.458624000000043
  0
LINE
  8
_f-f_
  6
CONTINUOUS
 62
    7
 10
267.38723200000004
 20
13.458624000000043
 11
267.87017599999996
 21
13.458624000000043
  0
LINE
  8
_f-f_
  6
CONTINUOUS
 62
    7
 10
268.9019199999999
 20
13.019583999999952
 11
267.89212799999996
 21
13.019583999999952
  0
LINE
  8
_f-f_
  6
CONTINUOUS
 62
    7
 10
267.89212799999996
 20
13.019583999999952
 11
267.89212799999996
 21
12.624447999999973
  0
LINE
  8
_f-f_
  6
CONTINUOUS
 62
    7
 10
268.87996799999996
 20
12.624447999999973
 11
267.89212799999996
 21
12.624447999999973
  0
LINE
  8
_f-f_
  6
CONTINUOUS
 62
    7
 10
269.23119999999994
 20
13.019583999999952
 11
270.306848
 21
13.019583999999952
  0
LINE
  8
_f-f_
  6
CONTINUOUS
 62
    7
 10
270.306848
 20
13.019583999999952
 11
270.306848
 21
12.624447999999973
  0
LINE
  8
_f-f_
  6
CONTINUOUS
 62
    7
 10
269.26412799999991
 20
12.624447999999973
 11
270.306848
 21
12.624447999999973
  0
LINE
  8
_f-f_
  6
CONTINUOUS
 62
    7
 10
273.07279999999992
 20
13.853760000000037
 11
270.97638399999994
 21
13.853760000000037
  0
LINE
  8
_f-f_
  6
CONTINUOUS
 62
    7
 10
270.97638399999994
 20
13.853760000000037
 11
270.97638399999994
 21
13.458624000000043
  0
LINE
  8
_f-f_
  6
CONTINUOUS
 62
    7
 10
273.083776
 20
13.458624000000043
 11
270.97638399999994
 21
13.458624000000043
  0
LINE
  8
_f-f_
  6
CONTINUOUS
 62
    7
 10
273.44598400000001
 20
13.853760000000037
 11
274.64236799999992
 21
13.853760000000037
  0
LINE
  8
_f-f_
  6
CONTINUOUS
 62
    7
 10
274.64236799999992
 20
13.853760000000037
 11
274.64236799999992
 21
13.458624000000043
  0
LINE
  8
_f-f_
  6
CONTINUOUS
 62
    7
 10
273.44598400000001
 20
13.458624000000043
 11
274.64236799999992
 21
13.458624000000043
  0
LINE
  8
_f-f_
  6
CONTINUOUS
 62
    7
 10
272.16179199999999
 20
12.536639999999977
 11
272.16179199999999
 21
12.522973737441333
  0
LINE
  8
_f-f_
  6
CONTINUOUS
 62
    7
 10
272.16179199999999
 20
12.522973737441333
 11
272.16179199999999
 21
11.658559999999994
  0
LINE
  8
_f-f_
  6
CONTINUOUS
 62
    7
 10
271.15199999999993
 20
12.84396799999999
 11
271.15199999999993
 21
12.536639999999977
  0
LINE
  8
_f-f_
  6
CONTINUOUS
 62
    7
 10
271.83251199999995
 20
12.536639999999977
 11
271.15199999999993
 21
12.536639999999977
  0
LINE
  8
_f-f_
  6
CONTINUOUS
 62
    7
 10
272.16179199999999
 20
12.522973737441333
 11
272.83132799999998
 21
12.522973737441333
  0
LINE
  8
_f-f_
  6
CONTINUOUS
 62
    7
 10
272.83132799999998
 20
12.84396799999999
 11
272.83132799999998
 21
12.522973737441333
  0
LINE
  8
_f-f_
  6
CONTINUOUS
 62
    7
 10
277.05708800000002
 20
12.141503999999998
 11
278.9339839999999
 21
12.141503999999998
  0
LINE
  8
_f-f_
  6
CONTINUOUS
 62
    7
 10
278.9339839999999
 20
12.536639999999977
 11
278.9339839999999
 21
12.141503999999998
  0
LINE
  8
_f-f_
  6
CONTINUOUS
 62
    7
 10
276.66195199999999
 20
12.141503999999998
 11
275.43263999999999
 21
12.141503999999998
  0
LINE
  8
_f-f_
  6
CONTINUOUS
 62
    7
 10
275.43263999999999
 20
12.536639999999977
 11
275.43263999999999
 21
12.141503999999998
  0
LINE
  8
_f-f_
  6
CONTINUOUS
 62
    7
 10
280.33891199999999
 20
14.600128000000012
 11
280.33891199999999
 21
13.897663999999992
  0
LINE
  8
_f-f_
  6
CONTINUOUS
 62
    7
 10
280.33891199999999
 20
13.897663999999992
 11
279.70230399999997
 21
13.897663999999992
  0
LINE
  8
_f-f_
  6
CONTINUOUS
 62
    7
 10
279.70230399999997
 20
13.897663999999992
 11
279.70230399999997
 21
13.546432000000038
  0
LINE
  8
_f-f_
  6
CONTINUOUS
 62
    7
 10
280.82185599999991
 20
13.546432000000038
 11
279.70230399999997
 21
13.546432000000038
  0
LINE
  8
_f-f_
  6
CONTINUOUS
 62
    7
 10
282.17190399999993
 20
13.502527999999984
 11
281.43651199999999
 21
13.502527999999984
  0
LINE
  8
_f-f_
  6
CONTINUOUS
 62
    7
 10
281.43651199999999
 20
13.502527999999984
 11
281.43651199999999
 21
13.107392000000061
  0
LINE
  8
_f-f_
  6
CONTINUOUS
 62
    7
 10
282.17190399999993
 20
13.107392000000061
 11
281.43651199999999
 21
13.107392000000061
  0
LINE
  8
_f-f_
  6
CONTINUOUS
 62
    7
 10
282.55606399999994
 20
13.107392000000061
 11
283.34633599999995
 21
13.107392000000061
  0
LINE
  8
_f-f_
  6
CONTINUOUS
 62
    7
 10
283.34633599999995
 20
13.502527999999984
 11
283.34633599999995
 21
13.107392000000061
  0
LINE
  8
_f-f_
  6
CONTINUOUS
 62
    7
 10
282.55606399999994
 20
13.502527999999984
 11
283.34633599999995
 21
13.502527999999984
  0
LINE
  8
_f-f_
  6
CONTINUOUS
 62
    7
 10
283.5
 20
11.35123200000001
 11
283.5
 21
11
  0
LINE
  8
_f-f_
  6
CONTINUOUS
 62
    7
 10
282.55606399999994
 20
11.35123200000001
 11
283.5
 21
11.35123200000001
  0
LINE
  8
_f-f_
  6
CONTINUOUS
 62
    7
 10
281.16211199999998
 20
11.35123200000001
 11
281.16211199999998
 21
11
  0
LINE
  8
_f-f_
  6
CONTINUOUS
 62
    7
 10
282.17190399999993
 20
11.35123200000001
 11
281.16211199999998
 21
11.35123200000001
  0
LINE
  8
_f-f_
  6
CONTINUOUS
 62
    7
 10
233.5
 20
17
 11
233.5
 21
27
  0
LINE
  8
_f-f_
  6
CONTINUOUS
 62
    7
 10
183.5
 20
17
 11
183.5
 21
27
  0
LINE
  8
_f-f_
  6
CONTINUOUS
 62
    7
 10
253.5
 20
17
 11
253.5
 21
27
  0
TEXT
  8
_e-e_
 62
    7
 10
165.5
 20
20
 40
4
 41
1
 50
0
  1
図面名称
  0
TEXT
  8
_e-e_
 62
    7
 10
237.5
 20
20
 40
4
 41
1
 50
0
  1
作成日
  0
LINE
  8
_f-f_
  6
CONTINUOUS
 62
    7
 10
163.5
 20
17
 11
163.5
 21
27
  0
LINE
  8
_f-f_
  6
CONTINUOUS
 62
    7
 10
283.5
 20
27
 11
188.61822686063675
 21
27
  0
LINE
  8
_f-f_
  6
CONTINUOUS
 62
    7
 10
188.61822686063675
 20
27
 11
163.5
 21
27
  0
LINE
  8
_f-f_
  6
CONTINUOUS
 62
    7
 10
248.5
 20
197
 11
248.5
 21
187
  0
TEXT
  8
_e-e_
 62
    7
 10
237
 20
190
 40
4
 41
1
 50
0
  1
縮尺
  0
LINE
  8
_f-f_
  6
CONTINUOUS
 62
    7
 10
233.5
 20
197
 11
233.5
 21
187
  0
LINE
  8
_f-f_
  6
CONTINUOUS
 62
    7
 10
233.5
 20
187
 11
283.5
 21
187
  0
TEXT
  8
_e-e_
 62
    7
 10
255
 20
190
 40
4
 41
1
 50
0
  1
Ａ４：１/３
  0
TEXT
  8
_e-e_
 62
    7
 10
258.5
 20
20
 40
4
 41
1
 50
0
  1
2020.03.10
  0
LINE
  8
_1-a_元図__躯体
  6
CONTINUOUS
 62
    7
 10
154.46386010171597
 20
35.370543103260914
 11
162.17146010171595
 21
43.078076436594245
  0
LINE
  8
_1-a_元図__躯体
  6
CONTINUOUS
 62
    7
 10
112.17146010171598
 20
80.344009769927581
 11
181.39532676838263
 21
149.56794310326092
  0
LINE
  8
_1-a_元図__躯体
  6
CONTINUOUS
 62
    7
 10
112.17146010171598
 20
150.62420976992757
 11
112.17146010171598
 21
35.370543103260914
  0
LINE
  8
_1-a_元図__躯体
  6
CONTINUOUS
 62
    7
 10
162.17146010171595
 20
121.45787643659423
 11
176.17146010171595
 21
121.45787643659423
  0
LINE
  8
_1-a_元図__躯体
  6
CONTINUOUS
 62
    7
 10
177.83812676838264
 20
126.45787643659423
 11
176.17146010171595
 21
121.45787643659423
  0
LINE
  8
_1-a_元図__躯体
  6
CONTINUOUS
 62
    7
 10
112.17146010171598
 20
82.229676436594232
 11
179.66139343504929
 21
149.71960976992756
  0
LINE
  8
_1-a_元図__躯体
  6
CONTINUOUS
 62
    7
 10
112.17146010171598
 20
78.45840976992757
 11
183.12926010171597
 21
149.41620976992755
  0
LINE
  8
_1-a_元図__躯体
  6
CONTINUOUS
 62
    7
 10
152.57826010171595
 20
35.370543103260914
 11
162.17146010171595
 21
44.96374310326091
  0
LINE
  8
_1-a_元図__躯体
  6
CONTINUOUS
 62
    7
 10
156.34952676838262
 20
35.370543103260914
 11
162.17146010171595
 21
41.192476436594248
  0
LINE
  8
_1-a_元図__躯体
  6
CONTINUOUS
 62
    7
 10
162.17146010171595
 20
121.45787643659423
 11
162.17146010171595
 21
35.370543103260914
  0
LINE
  8
_1-a_元図__躯体
  6
CONTINUOUS
 62
    7
 10
177.83812676838264
 20
126.45787643659423
 11
182.83812676838264
 21
126.45787643659423
  0
LINE
  8
_1-a_元図__躯体
  6
CONTINUOUS
 62
    7
 10
182.83812676838264
 20
126.45787643659423
 11
182.83812676838264
 21
121.45787643659423
  0
LINE
  8
_1-a_元図__躯体
  6
CONTINUOUS
 62
    7
 10
182.83812676838264
 20
121.45787643659423
 11
189.50479343504929
 21
121.45787643659423
  0
LINE
  8
_1-a_元図__躯体
  6
CONTINUOUS
 62
    7
 10
112.17146010171598
 20
150.62420976992757
 11
117.15239343504931
 21
155.18840976992757
  0
LINE
  8
_1-a_元図__躯体
  6
CONTINUOUS
 62
    7
 10
117.15239343504931
 20
155.18840976992757
 11
186.72986010171596
 21
149.10120976992755
  0
LINE
  8
_1-a_元図__躯体
  6
CONTINUOUS
 62
    7
 10
186.72986010171596
 20
149.10120976992755
 11
189.50479343504929
 21
146.07294310326091
  0
LINE
  8
_1-a_元図__躯体
  6
CONTINUOUS
 62
    7
 10
189.50479343504929
 20
146.07294310326091
 11
189.50479343504929
 21
121.45787643659423
  0
LINE
  8
_1-4_リベットル__フ
  6
CONTINUOUS
 62
    6
 10
162.17146010171595
 20
35.370543103260914
 11
162.17146010171595
 21
97.764876436594236
  0
LINE
  8
_1-4_リベットル__フ
  6
CONTINUOUS
 62
    6
 10
162.67146010171595
 20
97.557743103260904
 11
162.67146010171595
 21
35.370543103260914
  0
LINE
  8
_1-4_リベットル__フ
  6
CONTINUOUS
 62
    6
 10
163.17146010171595
 20
116.47787643659423
 11
163.67146010171595
 21
116.47787643659423
  0
LINE
  8
_1-4_リベットル__フ
  6
CONTINUOUS
 62
    6
 10
163.67146010171595
 20
99.110076436594241
 11
163.67146010171595
 21
116.47787643659423
  0
LINE
  8
_1-4_リベットル__フ
  6
CONTINUOUS
 62
    6
 10
163.17146010171595
 20
99.253743103260902
 11
163.17146010171595
 21
116.47787643659423
  0
LINE
  8
_1-4_リベットル__フ
  6
CONTINUOUS
 62
    6
 10
162.97619343504928
 20
98.845743103260915
 11
162.36672676838262
 21
98.236276436594252
  0
LINE
  8
_1-4_リベットル__フ
  6
CONTINUOUS
 62
    6
 10
163.47619343504928
 20
98.638676436594253
 11
162.86672676838262
 21
98.029143103260921
  0
ARC
  8
_1-4_リベットル__フ
  6
CONTINUOUS
 62
    6
 10
162.50479343504929
 20
99.317143103260904
 40
0.6666666666666666
 50
315.00000000000006
 51
0.0000000000000636
  0
ARC
  8
ADD_LINE
  6
DOT
 62
    6
 10
162.83812676838264
 20
97.764876436594236
 40
0.6666666666666666
 50
135.00000000000003
 51
180.00000000000006
  0
ARC
  8
ADD_LINE
  6
DOT
 62
    6
 10
163.33812676838264
 20
97.557743103260904
 40
0.6666666666666666
 50
135.00000000000003
 51
180.00000000000006
  0
ARC
  8
_1-4_リベットル__フ
  6
CONTINUOUS
 62
    6
 10
163.00479343504929
 20
99.110076436594241
 40
0.6666666666666666
 50
315.00000000000006
 51
0.0000000000000636
  0
LINE
  8
_1-b_その他
  6
CONTINUOUS
 62
    3
 10
186.72986010171599
 20
149.10120976992761
 11
117.15239343504931
 21
155.1884097699276
  0
LINE
  8
_1-b_その他
  6
CONTINUOUS
 62
    3
 10
189.50479343504929
 20
146.07294310326091
 11
189.50479343504929
 21
121.45787643659428
  0
LINE
  8
_1-b_その他
  6
CONTINUOUS
 62
    3
 10
186.72986010171599
 20
149.10120976992761
 11
189.50479343504929
 21
146.07294310326091
  0
LINE
  8
_1-b_その他
  6
CONTINUOUS
 62
    3
 10
117.15239343504931
 20
155.1884097699276
 11
112.17146010171601
 21
150.62420976992757
  0
LINE
  8
_1-b_その他
  6
CONTINUOUS
 62
    3
 10
117.14352676838266
 20
155.85840976992762
 11
111.83366010171599
 21
150.99287643659426
  0
LINE
  8
_1-b_その他
  6
CONTINUOUS
 62
    3
 10
111.83366010171599
 20
150.99287643659426
 11
112.17146010171601
 21
150.62420976992757
  0
LINE
  8
_1-b_その他
  6
CONTINUOUS
 62
    3
 10
117.14352676838266
 20
155.85840976992762
 11
187.04626010171597
 21
149.74274310326092
  0
LINE
  8
_1-b_その他
  6
CONTINUOUS
 62
    3
 10
187.04626010171597
 20
149.74274310326092
 11
190.17146010171598
 21
146.3322097699276
  0
LINE
  8
_1-b_その他
  6
CONTINUOUS
 62
    3
 10
190.17146010171598
 20
146.3322097699276
 11
190.17146010171598
 21
121.45787643659428
  0
LINE
  8
_1-b_その他
  6
CONTINUOUS
 62
    3
 10
190.17146010171598
 20
121.45787643659428
 11
189.50479343504929
 21
121.45787643659428
  0
LINE
  8
_1-b_その他
  6
CONTINUOUS
 62
    5
 10
162.17146010171598
 20
101.45800976992757
 11
162.50479343504932
 21
101.45800976992757
  0
LINE
  8
_1-b_その他
  6
CONTINUOUS
 62
    5
 10
162.50479343504932
 20
111.45800976992757
 11
162.17146010171598
 21
111.45800976992757
  0
LINE
  8
_1-b_その他
  6
CONTINUOUS
 62
    5
 10
162.17146010171598
 20
111.31847643659424
 11
162.31106010171598
 21
111.45800976992757
  0
LINE
  8
_1-b_その他
  6
CONTINUOUS
 62
    5
 10
162.17146010171598
 20
111.02380976992757
 11
162.50479343504932
 21
111.3571431032609
  0
LINE
  8
_1-b_その他
  6
CONTINUOUS
 62
    5
 10
162.17146010171598
 20
110.72920976992756
 11
162.50479343504932
 21
111.06254310326091
  0
LINE
  8
_1-b_その他
  6
CONTINUOUS
 62
    5
 10
162.17146010171598
 20
110.43454310326089
 11
162.50479343504932
 21
110.76787643659424
  0
LINE
  8
_1-b_その他
  6
CONTINUOUS
 62
    5
 10
162.17146010171598
 20
110.13994310326089
 11
162.50479343504932
 21
110.47327643659423
  0
LINE
  8
_1-b_その他
  6
CONTINUOUS
 62
    5
 10
162.17146010171598
 20
109.84527643659423
 11
162.50479343504932
 21
110.17860976992756
  0
LINE
  8
_1-b_その他
  6
CONTINUOUS
 62
    5
 10
162.17146010171598
 20
109.55067643659423
 11
162.50479343504932
 21
109.88400976992756
  0
LINE
  8
_1-b_その他
  6
CONTINUOUS
 62
    5
 10
162.17146010171598
 20
109.25607643659423
 11
162.50479343504932
 21
109.58940976992757
  0
LINE
  8
_1-b_その他
  6
CONTINUOUS
 62
    5
 10
162.17146010171598
 20
108.96140976992757
 11
162.50479343504932
 21
109.2947431032609
  0
LINE
  8
_1-b_その他
  6
CONTINUOUS
 62
    5
 10
162.17146010171598
 20
108.66680976992757
 11
162.50479343504932
 21
109.0001431032609
  0
LINE
  8
_1-b_その他
  6
CONTINUOUS
 62
    5
 10
162.17146010171598
 20
108.3721431032609
 11
162.50479343504932
 21
108.70547643659424
  0
LINE
  8
_1-b_その他
  6
CONTINUOUS
 62
    5
 10
162.17146010171598
 20
108.07754310326089
 11
162.50479343504932
 21
108.41087643659424
  0
LINE
  8
_1-b_その他
  6
CONTINUOUS
 62
    5
 10
162.17146010171598
 20
107.78294310326089
 11
162.50479343504932
 21
108.11627643659423
  0
LINE
  8
_1-b_その他
  6
CONTINUOUS
 62
    5
 10
162.17146010171598
 20
107.48827643659423
 11
162.50479343504932
 21
107.82160976992756
  0
LINE
  8
_1-b_その他
  6
CONTINUOUS
 62
    5
 10
162.17146010171598
 20
107.19367643659423
 11
162.50479343504932
 21
107.52700976992756
  0
LINE
  8
_1-b_その他
  6
CONTINUOUS
 62
    5
 10
162.17146010171598
 20
106.89900976992757
 11
162.50479343504932
 21
107.2323431032609
  0
LINE
  8
_1-b_その他
  6
CONTINUOUS
 62
    5
 10
162.17146010171598
 20
104.01700976992757
 11
162.50479343504932
 21
103.68367643659423
  0
LINE
  8
_1-b_その他
  6
CONTINUOUS
 62
    5
 10
162.17146010171598
 20
103.72240976992757
 11
162.50479343504932
 21
103.38907643659424
  0
LINE
  8
_1-b_その他
  6
CONTINUOUS
 62
    5
 10
162.17146010171598
 20
103.42780976992756
 11
162.50479343504932
 21
103.09447643659423
  0
LINE
  8
_1-b_その他
  6
CONTINUOUS
 62
    5
 10
162.17146010171598
 20
103.13314310326089
 11
162.50479343504932
 21
102.79980976992756
  0
LINE
  8
_1-b_その他
  6
CONTINUOUS
 62
    5
 10
162.17146010171598
 20
102.8385431032609
 11
162.50479343504932
 21
102.50520976992756
  0
LINE
  8
_1-b_その他
  6
CONTINUOUS
 62
    5
 10
162.17146010171598
 20
102.54387643659423
 11
162.50479343504932
 21
102.2105431032609
  0
LINE
  8
_1-b_その他
  6
CONTINUOUS
 62
    5
 10
162.17146010171598
 20
102.24927643659423
 11
162.50479343504932
 21
101.9159431032609
  0
LINE
  8
_1-b_その他
  6
CONTINUOUS
 62
    5
 10
162.17146010171598
 20
101.95467643659424
 11
162.50479343504932
 21
101.6213431032609
  0
LINE
  8
_1-b_その他
  6
CONTINUOUS
 62
    5
 10
162.17146010171598
 20
101.66000976992757
 11
162.37346010171598
 21
101.45800976992757
  0
LINE
  8
_1-b_その他
  6
CONTINUOUS
 62
    5
 10
162.50479343504932
 20
107.05427643659424
 11
162.50479343504932
 21
111.45800976992757
  0
LINE
  8
_1-b_その他
  6
CONTINUOUS
 62
    5
 10
162.50479343504932
 20
103.86174310326089
 11
162.50479343504932
 21
101.45800976992757
  0
LINE
  8
_1-b_その他
  6
CONTINUOUS
 62
    5
 10
162.17146010171598
 20
101.45800976992757
 11
162.17146010171598
 21
104.28800976992757
  0
LINE
  8
_1-b_その他
  6
CONTINUOUS
 62
    5
 10
162.17146010171598
 20
111.45800976992757
 11
162.17146010171598
 21
106.62807643659423
  0
LINE
  8
_1-2_ハッチング
  6
CONTINUOUS
 62
    4
 10
166.39079343504929
 20
117.88627643659424
 11
166.50479343504929
 21
117.45374310326092
  0
LINE
  8
_1-2_ハッチング
  6
CONTINUOUS
 62
    4
 10
166.29192676838264
 20
119.01240976992759
 11
166.28899343504929
 21
118.97200976992758
  0
LINE
  8
_1-2_ハッチング
  6
CONTINUOUS
 62
    4
 10
166.51659343504929
 20
120.02180976992759
 11
166.44626010171598
 21
119.80514310326092
  0
LINE
  8
_1-2_ハッチング
  6
CONTINUOUS
 62
    4
 10
166.93159343504931
 20
120.88260976992758
 11
166.8147934350493
 21
120.68427643659425
  0
LINE
  8
_1-2_ハッチング
  6
CONTINUOUS
 62
    4
 10
162.17146010171598
 20
121.38840976992758
 11
162.24092676838262
 21
121.45787643659425
  0
LINE
  8
_1-2_ハッチング
  6
CONTINUOUS
 62
    4
 10
163.98499343504929
 20
116.97827643659426
 11
163.96699343504929
 21
117.08707643659424
  0
LINE
  8
_1-2_ハッチング
  6
CONTINUOUS
 62
    4
 10
163.72092676838264
 20
116.12340976992758
 11
163.67146010171598
 21
116.07167643659426
  0
LINE
  8
_1-2_ハッチング
  6
CONTINUOUS
 62
    4
 10
163.17146010171598
 20
116.76894310326092
 11
163.4895934350493
 21
117.08707643659424
  0
LINE
  8
_1-2_ハッチング
  6
CONTINUOUS
 62
    4
 10
163.46966010171596
 20
116.47787643659424
 11
163.98286010171597
 21
116.99114310326091
  0
LINE
  8
_1-2_ハッチング
  6
CONTINUOUS
 62
    4
 10
163.67146010171598
 20
116.09047643659426
 11
163.80612676838263
 21
116.22514310326092
  0
LINE
  8
_1-2_ハッチング
  6
CONTINUOUS
 62
    4
 10
162.64192676838263
 20
116.43814310326091
 11
162.17146010171598
 21
116.90867643659425
  0
LINE
  8
_1-2_ハッチング
  6
CONTINUOUS
 62
    4
 10
162.87639343504929
 20
117.08760976992758
 11
162.17146010171598
 21
117.79254310326091
  0
LINE
  8
_1-2_ハッチング
  6
CONTINUOUS
 62
    4
 10
163.39819343504931
 20
117.44974310326091
 11
162.17146010171598
 21
118.67640976992759
  0
LINE
  8
_1-2_ハッチング
  6
CONTINUOUS
 62
    4
 10
164.2779934350493
 20
117.45374310326092
 11
162.17146010171598
 21
119.56034310326092
  0
LINE
  8
_1-2_ハッチング
  6
CONTINUOUS
 62
    4
 10
165.16186010171597
 20
117.45374310326092
 11
162.17146010171598
 21
120.44420976992758
  0
LINE
  8
_1-2_ハッチング
  6
CONTINUOUS
 62
    4
 10
166.04579343504929
 20
117.45374310326092
 11
162.17146010171598
 21
121.32807643659424
  0
LINE
  8
_1-2_ハッチング
  6
CONTINUOUS
 62
    4
 10
166.35706010171597
 20
118.02634310326091
 11
162.92552676838264
 21
121.45787643659425
  0
LINE
  8
_1-2_ハッチング
  6
CONTINUOUS
 62
    4
 10
166.28946010171597
 20
118.97787643659424
 11
163.80939343504932
 21
121.45787643659425
  0
LINE
  8
_1-2_ハッチング
  6
CONTINUOUS
 62
    4
 10
166.42246010171596
 20
119.72867643659426
 11
164.69332676838263
 21
121.45787643659425
  0
LINE
  8
_1-2_ハッチング
  6
CONTINUOUS
 62
    4
 10
166.6557934350493
 20
120.37927643659425
 11
165.57719343504931
 21
121.45787643659425
  0
LINE
  8
_1-2_ハッチング
  6
CONTINUOUS
 62
    4
 10
166.97099343504931
 20
120.94794310326091
 11
166.46106010171596
 21
121.45787643659425
  0
LINE
  8
_1-2_ハッチング
  6
CONTINUOUS
 62
    4
 10
167.35266010171597
 20
121.45014310326091
 11
167.34492676838263
 21
121.45787643659425
  0
ARC
  8
_1-2_ハッチング
  6
CONTINUOUS
 62
    4
 10
164.00166010171597
 20
122.47427643659425
 40
3.333333333333333
 50
328.52100000000013
 51
330.49900000000014
  0
ARC
  8
_1-2_ハッチング
  6
CONTINUOUS
 62
    4
 10
169.61399343504931
 20
118.73594310326092
 40
3.333333333333333
 50
175.76500000000004
 51
194.76800000000006
  0
ARC
  8
_1-2_ハッチング
  6
CONTINUOUS
 62
    4
 10
162.96552676838263
 20
119.22834310326091
 40
3.333333333333333
 50
355.7650000000001
 51
356.11300000000011
  0
ARC
  8
_1-2_ハッチング
  6
CONTINUOUS
 62
    4
 10
169.61686010171596
 20
118.77634310326091
 40
3.333333333333333
 50
161.04300000000003
 51
176.11300000000006
  0
ARC
  8
_1-2_ハッチング
  6
CONTINUOUS
 62
    4
 10
163.31172676838264
 20
120.94200976992758
 40
3.333333333333333
 50
341.04300000000006
 51
343.00100000000003
  0
ARC
  8
_1-2_ハッチング
  6
CONTINUOUS
 62
    4
 10
169.68712676838263
 20
118.99294310326091
 40
3.333333333333333
 50
148.52100000000002
 51
163.00100000000003
  0
ARC
  8
_1-2_ハッチング
  6
CONTINUOUS
 62
    4
 10
164.00166010171597
 20
122.47427643659425
 40
3.333333333333333
 50
328.52100000000013
 51
330.49900000000014
  0
ARC
  8
_1-2_ハッチング
  6
CONTINUOUS
 62
    4
 10
169.80392676838264
 20
119.19134310326092
 40
3.333333333333333
 50
137.15900000000002
 51
150.49900000000005
  0
ARC
  8
_1-2_ハッチング
  6
CONTINUOUS
 62
    4
 10
162.99846010171598
 20
116.81480976992758
 40
1
 50
316.25900000000007
 51
9.4090000000000789
  0
ARC
  8
_1-5_ＦＬ鋼板__ディスク
  6
CONTINUOUS
 62
    5
 10
163.47146010171596
 20
116.78707643659423
 40
0.2999999999999999
 50
90.000000000000028
 51
180.00000000000006
  0
ARC
  8
_1-5_ＦＬ鋼板__ディスク
  6
CONTINUOUS
 62
    5
 10
163.47146010171596
 20
116.78707643659423
 40
0.2999999999999999
 50
90.000000000000028
 51
180.00000000000006
  0
LINE
  8
_1-5_ＦＬ鋼板__ディスク
  6
CONTINUOUS
 62
    5
 10
166.50479343504929
 20
117.45374310326089
 11
163.47146010171596
 21
117.45374310326089
  0
LINE
  8
_1-5_ＦＬ鋼板__ディスク
  6
CONTINUOUS
 62
    5
 10
162.80479343504931
 20
116.78707643659423
 11
162.80479343504931
 21
107.43787643659422
  0
LINE
  8
_1-5_ＦＬ鋼板__ディスク
  6
CONTINUOUS
 62
    5
 10
166.50479343504929
 20
117.45374310326089
 11
166.50479343504929
 21
117.08707643659423
  0
LINE
  8
_1-5_ＦＬ鋼板__ディスク
  6
CONTINUOUS
 62
    5
 10
163.47146010171596
 20
117.08707643659423
 11
166.50479343504929
 21
117.08707643659423
  0
LINE
  8
_1-5_ＦＬ鋼板__ディスク
  6
CONTINUOUS
 62
    5
 10
163.17146010171595
 20
116.78707643659423
 11
163.17146010171595
 21
99.253743103260902
  0
LINE
  8
_1-5_ＦＬ鋼板__ディスク
  6
CONTINUOUS
 62
    5
 10
162.17146010171595
 20
99.253743103260902
 11
162.43812676838263
 21
101.42040976992756
  0
LINE
  8
_1-5_ＦＬ鋼板__ディスク
  6
CONTINUOUS
 62
    5
 10
162.80206010171597
 20
101.37560976992756
 11
162.43812676838263
 21
101.42040976992756
  0
LINE
  8
_1-5_ＦＬ鋼板__ディスク
  6
CONTINUOUS
 62
    5
 10
162.53899343504929
 20
99.238476436594226
 11
162.80206010171597
 21
101.37560976992756
  0
LINE
  8
_1-5_ＦＬ鋼板__ディスク
  6
CONTINUOUS
 62
    5
 10
162.80479343504931
 20
103.47807643659424
 11
162.80479343504931
 21
99.253743103260902
  0
LINE
  8
_1-5_ＦＬ鋼板__ディスク
  6
CONTINUOUS
 62
    5
 10
162.17146010171595
 20
106.62807643659423
 11
162.80479343504931
 21
107.43787643659422
  0
LINE
  8
_1-5_ＦＬ鋼板__ディスク
  6
CONTINUOUS
 62
    5
 10
162.59486010171597
 20
106.62807643659423
 11
162.17146010171595
 21
106.62807643659423
  0
LINE
  8
_1-5_ＦＬ鋼板__ディスク
  6
CONTINUOUS
 62
    5
 10
162.59486010171597
 20
106.62807643659423
 11
163.17146010171595
 21
107.33960976992756
  0
LINE
  8
_1-5_ＦＬ鋼板__ディスク
  6
CONTINUOUS
 62
    5
 10
162.17146010171595
 20
104.28800976992757
 11
162.80479343504931
 21
103.47807643659424
  0
LINE
  8
_1-5_ＦＬ鋼板__ディスク
  6
CONTINUOUS
 62
    5
 10
162.59486010171597
 20
104.28800976992757
 11
162.17146010171595
 21
104.28800976992757
  0
LINE
  8
_1-5_ＦＬ鋼板__ディスク
  6
CONTINUOUS
 62
    5
 10
162.59486010171597
 20
104.28800976992757
 11
163.17146010171595
 21
103.57627643659423
  0
ARC
  8
_1-5_ＦＬ鋼板__ディスク
  6
CONTINUOUS
 62
    5
 10
162.67146010171595
 20
99.253743103260902
 40
0.5
 50
180.00000000000006
 51
0.0000000000001017
  0
ARC
  8
_1-5_ＦＬ鋼板__ディスク
  6
CONTINUOUS
 62
    5
 10
162.67146010171595
 20
99.253743103260902
 40
0.1333333333333333
 50
186.59400000000005
 51
0.0000000000000763
  0
ARC
  8
_1-5_ＦＬ鋼板__ディスク
  6
CONTINUOUS
 62
    5
 10
163.47146010171596
 20
116.78707643659423
 40
0.6666666666666666
 50
90.000000000000028
 51
180.00000000000006
  0
LINE
  8
_1-c_アンカ__類②
  6
CONTINUOUS
 62
    4
 10
159.20479343504925
 20
106.4213431032609
 11
159.83812676838264
 21
106.58800976992757
  0
LINE
  8
_1-c_アンカ__類②
  6
CONTINUOUS
 62
    4
 10
159.83812676838264
 20
104.32800976992756
 11
159.20479343504925
 21
104.49467643659423
  0
LINE
  8
_1-c_アンカ__類②
  6
CONTINUOUS
 62
    4
 10
161.50479343504927
 20
104.49467643659423
 11
161.50479343504927
 21
106.4213431032609
  0
LINE
  8
_1-c_アンカ__類②
  6
CONTINUOUS
 62
    4
 10
161.13812676838259
 20
104.49467643659423
 11
161.13812676838259
 21
106.4213431032609
  0
LINE
  8
_1-c_アンカ__類②
  6
CONTINUOUS
 62
    4
 10
151.50479343504927
 20
106.15800976992756
 11
152.63812676838259
 21
106.45800976992757
  0
LINE
  8
_1-c_アンカ__類②
  6
CONTINUOUS
 62
    4
 10
151.50479343504927
 20
104.75800976992757
 11
151.50479343504927
 21
106.15800976992756
  0
LINE
  8
_1-c_アンカ__類②
  6
CONTINUOUS
 62
    4
 10
151.50479343504927
 20
104.75800976992757
 11
152.63812676838259
 21
104.45800976992757
  0
LINE
  8
_1-c_アンカ__類②
  6
CONTINUOUS
 62
    4
 10
153.50479343504927
 20
104.45800976992757
 11
154.10479343504929
 21
104.45800976992757
  0
LINE
  8
_1-c_アンカ__類②
  6
CONTINUOUS
 62
    4
 10
153.50479343504927
 20
106.45800976992757
 11
154.10479343504929
 21
106.45800976992757
  0
LINE
  8
_1-c_アンカ__類②
  6
CONTINUOUS
 62
    4
 10
153.32146010171593
 20
104.48300976992756
 11
153.32146010171593
 21
104.83300976992757
  0
LINE
  8
_1-c_アンカ__類②
  6
CONTINUOUS
 62
    4
 10
153.32146010171593
 20
106.08300976992757
 11
153.32146010171593
 21
106.43300976992757
  0
LINE
  8
_1-c_アンカ__類②
  6
CONTINUOUS
 62
    4
 10
153.1547934350493
 20
104.48300976992756
 11
153.1547934350493
 21
104.83300976992757
  0
LINE
  8
_1-c_アンカ__類②
  6
CONTINUOUS
 62
    4
 10
152.98812676838261
 20
104.48300976992756
 11
152.98812676838261
 21
104.83300976992757
  0
LINE
  8
_1-c_アンカ__類②
  6
CONTINUOUS
 62
    4
 10
152.98812676838261
 20
106.08300976992757
 11
152.98812676838261
 21
106.43300976992757
  0
LINE
  8
_1-c_アンカ__類②
  6
CONTINUOUS
 62
    4
 10
152.82146010171593
 20
104.48300976992756
 11
152.82146010171593
 21
104.83300976992757
  0
LINE
  8
_1-c_アンカ__類②
  6
CONTINUOUS
 62
    4
 10
152.82146010171593
 20
106.08300976992757
 11
152.82146010171593
 21
106.43300976992757
  0
LINE
  8
_1-c_アンカ__類②
  6
CONTINUOUS
 62
    4
 10
152.63812676838259
 20
106.08300976992757
 11
153.50479343504927
 21
106.08300976992757
  0
LINE
  8
_1-c_アンカ__類②
  6
CONTINUOUS
 62
    4
 10
152.63812676838259
 20
104.83300976992757
 11
153.50479343504927
 21
104.83300976992757
  0
LINE
  8
_1-c_アンカ__類②
  6
CONTINUOUS
 62
    4
 10
153.1547934350493
 20
106.08300976992757
 11
153.1547934350493
 21
106.43300976992757
  0
LINE
  8
_1-c_アンカ__類②
  6
CONTINUOUS
 62
    4
 10
152.63812676838259
 20
104.4583431032609
 11
152.63812676838259
 21
104.83300976992757
  0
LINE
  8
_1-c_アンカ__類②
  6
CONTINUOUS
 62
    4
 10
152.63812676838259
 20
106.08300976992757
 11
152.63812676838259
 21
106.45800976992757
  0
LINE
  8
_1-c_アンカ__類②
  6
CONTINUOUS
 62
    4
 10
153.50479343504927
 20
104.45800976992757
 11
153.50479343504927
 21
104.83300976992757
  0
LINE
  8
_1-c_アンカ__類②
  6
CONTINUOUS
 62
    4
 10
153.50479343504927
 20
106.08300976992757
 11
153.50479343504927
 21
106.45800976992757
  0
LINE
  8
_1-c_アンカ__類②
  6
CONTINUOUS
 62
    4
 10
154.10479343504929
 20
106.08300976992757
 11
154.10479343504929
 21
106.45800976992757
  0
LINE
  8
_1-c_アンカ__類②
  6
CONTINUOUS
 62
    4
 10
152.4381267683826
 20
105.45800976992757
 11
153.04319343504929
 21
104.99260976992757
  0
LINE
  8
_1-c_アンカ__類②
  6
CONTINUOUS
 62
    4
 10
152.60479343504929
 20
105.45800976992757
 11
153.21592676838262
 21
104.9879431032609
  0
LINE
  8
_1-c_アンカ__類②
  6
CONTINUOUS
 62
    4
 10
152.4381267683826
 20
105.45800976992757
 11
153.04319343504929
 21
105.92347643659423
  0
LINE
  8
_1-c_アンカ__類②
  6
CONTINUOUS
 62
    4
 10
152.60479343504929
 20
105.45800976992757
 11
153.21592676838262
 21
105.92814310326089
  0
LINE
  8
_1-c_アンカ__類②
  6
CONTINUOUS
 62
    4
 10
153.20579343504929
 20
104.95800976992757
 11
153.14479343504925
 21
104.95800976992757
  0
LINE
  8
_1-c_アンカ__類②
  6
CONTINUOUS
 62
    4
 10
153.20579343504929
 20
105.95800976992757
 11
153.14479343504925
 21
105.95800976992757
  0
LINE
  8
_1-c_アンカ__類②
  6
CONTINUOUS
 62
    4
 10
151.67146010171595
 20
105.45800976992757
 11
152.27652676838264
 21
104.99260976992757
  0
LINE
  8
_1-c_アンカ__類②
  6
CONTINUOUS
 62
    4
 10
151.83812676838264
 20
105.45800976992757
 11
152.44926010171596
 21
104.9879431032609
  0
LINE
  8
_1-c_アンカ__類②
  6
CONTINUOUS
 62
    4
 10
152.43912676838264
 20
104.95800976992757
 11
152.3781267683826
 21
104.95800976992757
  0
LINE
  8
_1-c_アンカ__類②
  6
CONTINUOUS
 62
    4
 10
151.83812676838264
 20
105.45800976992757
 11
152.44926010171596
 21
105.92814310326089
  0
LINE
  8
_1-c_アンカ__類②
  6
CONTINUOUS
 62
    4
 10
152.43912676838264
 20
105.95800976992757
 11
152.3781267683826
 21
105.95800976992757
  0
LINE
  8
_1-c_アンカ__類②
  6
CONTINUOUS
 62
    4
 10
151.67146010171595
 20
105.45800976992757
 11
152.27652676838264
 21
105.92347643659423
  0
LINE
  8
_1-c_アンカ__類②
  6
CONTINUOUS
 62
    4
 10
154.10479343504929
 20
106.08300976992757
 11
155.37146010171594
 21
106.14134310326089
  0
LINE
  8
_1-c_アンカ__類②
  6
CONTINUOUS
 62
    4
 10
154.10479343504929
 20
104.83300976992757
 11
155.37146010171594
 21
104.77467643659423
  0
LINE
  8
_1-c_アンカ__類②
  6
CONTINUOUS
 62
    4
 10
155.9381267683826
 20
104.4163431032609
 11
155.9381267683826
 21
104.77467643659423
  0
LINE
  8
_1-c_アンカ__類②
  6
CONTINUOUS
 62
    4
 10
155.9381267683826
 20
106.14134310326089
 11
155.9381267683826
 21
106.49967643659423
  0
LINE
  8
_1-c_アンカ__類②
  6
CONTINUOUS
 62
    4
 10
155.37146010171594
 20
104.42927643659424
 11
155.37146010171594
 21
104.77467643659423
  0
LINE
  8
_1-c_アンカ__類②
  6
CONTINUOUS
 62
    4
 10
155.37146010171594
 20
106.14134310326089
 11
155.37146010171594
 21
106.48680976992756
  0
LINE
  8
_1-c_アンカ__類②
  6
CONTINUOUS
 62
    4
 10
155.37146010171594
 20
106.48680976992756
 11
155.9381267683826
 21
106.49967643659423
  0
LINE
  8
_1-c_アンカ__類②
  6
CONTINUOUS
 62
    4
 10
155.37146010171594
 20
104.42927643659424
 11
155.9381267683826
 21
104.4163431032609
  0
LINE
  8
_1-c_アンカ__類②
  6
CONTINUOUS
 62
    4
 10
155.27146010171592
 20
106.1367431032609
 11
155.27146010171592
 21
106.47940976992757
  0
LINE
  8
_1-c_アンカ__類②
  6
CONTINUOUS
 62
    4
 10
154.10479343504929
 20
104.45800976992757
 11
154.10479343504929
 21
104.83300976992757
  0
LINE
  8
_1-c_アンカ__類②
  6
CONTINUOUS
 62
    4
 10
155.27146010171592
 20
104.4365431032609
 11
155.27146010171592
 21
104.78207643659422
  0
LINE
  8
_1-c_アンカ__類②
  6
CONTINUOUS
 62
    4
 10
152.63812676838259
 20
106.37467643659423
 11
153.50479343504927
 21
106.37467643659423
  0
LINE
  8
_1-c_アンカ__類②
  6
CONTINUOUS
 62
    4
 10
152.63812676838259
 20
104.5413431032609
 11
153.50479343504927
 21
104.5413431032609
  0
LINE
  8
_1-c_アンカ__類②
  6
CONTINUOUS
 62
    4
 10
154.10479343504929
 20
106.37467643659423
 11
155.37146010171594
 21
106.43300976992757
  0
LINE
  8
_1-c_アンカ__類②
  6
CONTINUOUS
 62
    4
 10
157.27146010171597
 20
106.53300976992756
 11
157.83812676838264
 21
106.53300976992756
  0
LINE
  8
_1-c_アンカ__類②
  6
CONTINUOUS
 62
    4
 10
157.27146010171597
 20
104.38300976992757
 11
157.83812676838264
 21
104.38300976992757
  0
LINE
  8
_1-c_アンカ__類②
  6
CONTINUOUS
 62
    4
 10
155.9381267683826
 20
106.14134310326089
 11
157.27146010171597
 21
106.17467643659424
  0
LINE
  8
_1-c_アンカ__類②
  6
CONTINUOUS
 62
    4
 10
155.9381267683826
 20
104.77467643659423
 11
157.27146010171597
 21
104.7413431032609
  0
LINE
  8
_1-c_アンカ__類②
  6
CONTINUOUS
 62
    4
 10
157.27146010171597
 20
104.38300976992757
 11
157.27146010171597
 21
104.7413431032609
  0
LINE
  8
_1-c_アンカ__類②
  6
CONTINUOUS
 62
    4
 10
157.27146010171597
 20
106.17467643659424
 11
157.27146010171597
 21
106.53300976992756
  0
LINE
  8
_1-c_アンカ__類②
  6
CONTINUOUS
 62
    4
 10
154.30479343504928
 20
106.09067643659424
 11
154.30479343504928
 21
106.46194310326089
  0
LINE
  8
_1-c_アンカ__類②
  6
CONTINUOUS
 62
    4
 10
154.50479343504927
 20
106.09840976992757
 11
154.50479343504927
 21
106.4655431032609
  0
LINE
  8
_1-c_アンカ__類②
  6
CONTINUOUS
 62
    4
 10
154.70479343504925
 20
106.10607643659424
 11
154.70479343504925
 21
106.4691431032609
  0
LINE
  8
_1-c_アンカ__類②
  6
CONTINUOUS
 62
    4
 10
154.9047934350493
 20
106.1137431032609
 11
154.9047934350493
 21
106.4727431032609
  0
LINE
  8
_1-c_アンカ__類②
  6
CONTINUOUS
 62
    4
 10
155.10479343504929
 20
106.12907643659423
 11
155.10479343504929
 21
106.47640976992756
  0
LINE
  8
_1-c_アンカ__類②
  6
CONTINUOUS
 62
    4
 10
155.10479343504929
 20
104.44027643659423
 11
155.10479343504929
 21
104.78700976992756
  0
LINE
  8
_1-c_アンカ__類②
  6
CONTINUOUS
 62
    4
 10
154.9047934350493
 20
104.44487643659423
 11
154.9047934350493
 21
104.8023431032609
  0
LINE
  8
_1-c_アンカ__類②
  6
CONTINUOUS
 62
    4
 10
154.70479343504925
 20
104.44940976992757
 11
154.70479343504925
 21
104.81000976992756
  0
LINE
  8
_1-c_アンカ__類②
  6
CONTINUOUS
 62
    4
 10
154.50479343504927
 20
104.4539431032609
 11
154.50479343504927
 21
104.81767643659423
  0
LINE
  8
_1-c_アンカ__類②
  6
CONTINUOUS
 62
    4
 10
154.30479343504928
 20
104.45847643659422
 11
154.30479343504928
 21
104.82534310326091
  0
LINE
  8
_1-c_アンカ__類②
  6
CONTINUOUS
 62
    4
 10
154.10479343504929
 20
104.5413431032609
 11
155.37146010171594
 21
104.51260976992756
  0
LINE
  8
_1-c_アンカ__類②
  6
CONTINUOUS
 62
    4
 10
155.9381267683826
 20
106.4459431032609
 11
157.27146010171597
 21
106.47927643659423
  0
LINE
  8
_1-c_アンカ__類②
  6
CONTINUOUS
 62
    4
 10
155.9381267683826
 20
104.4701431032609
 11
157.27146010171597
 21
104.43680976992756
  0
LINE
  8
_1-c_アンカ__類②
  6
CONTINUOUS
 62
    4
 10
156.13812676838259
 20
104.41420976992757
 11
156.13812676838259
 21
104.76967643659424
  0
LINE
  8
_1-c_アンカ__類②
  6
CONTINUOUS
 62
    4
 10
156.33812676838264
 20
104.40920976992757
 11
156.33812676838264
 21
104.7593431032609
  0
LINE
  8
_1-c_アンカ__類②
  6
CONTINUOUS
 62
    4
 10
156.53812676838263
 20
104.40420976992756
 11
156.53812676838263
 21
104.75967643659423
  0
LINE
  8
_1-c_アンカ__類②
  6
CONTINUOUS
 62
    4
 10
156.73812676838261
 20
104.39920976992757
 11
156.73812676838261
 21
104.75467643659422
  0
LINE
  8
_1-c_アンカ__類②
  6
CONTINUOUS
 62
    4
 10
156.9381267683826
 20
104.39420976992756
 11
156.9381267683826
 21
104.74967643659423
  0
LINE
  8
_1-c_アンカ__類②
  6
CONTINUOUS
 62
    4
 10
157.13812676838259
 20
104.38920976992756
 11
157.13812676838259
 21
104.74467643659423
  0
LINE
  8
_1-c_アンカ__類②
  6
CONTINUOUS
 62
    4
 10
156.13812676838259
 20
106.1463431032609
 11
156.13812676838259
 21
106.50187643659423
  0
LINE
  8
_1-c_アンカ__類②
  6
CONTINUOUS
 62
    4
 10
156.33812676838264
 20
106.1513431032609
 11
156.33812676838264
 21
106.50687643659424
  0
LINE
  8
_1-c_アンカ__類②
  6
CONTINUOUS
 62
    4
 10
156.53812676838263
 20
106.15634310326089
 11
156.53812676838263
 21
106.51187643659424
  0
LINE
  8
_1-c_アンカ__類②
  6
CONTINUOUS
 62
    4
 10
156.73812676838261
 20
106.16134310326089
 11
156.73812676838261
 21
106.51687643659423
  0
LINE
  8
_1-c_アンカ__類②
  6
CONTINUOUS
 62
    4
 10
156.9381267683826
 20
106.1663431032609
 11
156.9381267683826
 21
106.52187643659423
  0
LINE
  8
_1-c_アンカ__類②
  6
CONTINUOUS
 62
    4
 10
157.13812676838259
 20
106.1713431032609
 11
157.13812676838259
 21
106.52687643659424
  0
LINE
  8
_1-c_アンカ__類②
  6
CONTINUOUS
 62
    4
 10
159.10479343504929
 20
106.4213431032609
 11
161.50479343504927
 21
106.4213431032609
  0
LINE
  8
_1-c_アンカ__類②
  6
CONTINUOUS
 62
    4
 10
159.10479343504929
 20
104.49467643659423
 11
161.50479343504927
 21
104.49467643659423
  0
LINE
  8
_1-c_アンカ__類②
  6
CONTINUOUS
 62
    4
 10
157.83812676838264
 20
106.47927643659423
 11
159.10479343504929
 21
106.36760976992757
  0
LINE
  8
_1-c_アンカ__類②
  6
CONTINUOUS
 62
    4
 10
157.83812676838264
 20
104.43680976992756
 11
159.10479343504929
 21
104.54847643659423
  0
LINE
  8
_1-c_アンカ__類②
  6
CONTINUOUS
 62
    4
 10
159.10479343504929
 20
104.49467643659423
 11
159.10479343504929
 21
104.7913431032609
  0
LINE
  8
_1-c_アンカ__類②
  6
CONTINUOUS
 62
    4
 10
159.10479343504929
 20
106.12467643659423
 11
159.10479343504929
 21
106.4213431032609
  0
LINE
  8
_1-c_アンカ__類②
  6
CONTINUOUS
 62
    4
 10
159.9047934350493
 20
106.12467643659423
 11
159.9047934350493
 21
106.4213431032609
  0
LINE
  8
_1-c_アンカ__類②
  6
CONTINUOUS
 62
    4
 10
160.07146010171593
 20
106.12467643659423
 11
160.07146010171593
 21
106.4213431032609
  0
LINE
  8
_1-c_アンカ__類②
  6
CONTINUOUS
 62
    4
 10
160.23812676838261
 20
106.12467643659423
 11
160.23812676838261
 21
106.4213431032609
  0
LINE
  8
_1-c_アンカ__類②
  6
CONTINUOUS
 62
    4
 10
160.4047934350493
 20
106.12467643659423
 11
160.4047934350493
 21
106.4213431032609
  0
LINE
  8
_1-c_アンカ__類②
  6
CONTINUOUS
 62
    4
 10
160.57146010171593
 20
106.12467643659423
 11
160.57146010171593
 21
106.4213431032609
  0
LINE
  8
_1-c_アンカ__類②
  6
CONTINUOUS
 62
    4
 10
160.73812676838261
 20
106.11560976992757
 11
160.73812676838261
 21
106.4213431032609
  0
LINE
  8
_1-c_アンカ__類②
  6
CONTINUOUS
 62
    4
 10
160.9047934350493
 20
106.12467643659423
 11
160.9047934350493
 21
106.4213431032609
  0
LINE
  8
_1-c_アンカ__類②
  6
CONTINUOUS
 62
    4
 10
159.10479343504929
 20
106.12467643659423
 11
161.13812676838259
 21
106.12467643659423
  0
LINE
  8
_1-c_アンカ__類②
  6
CONTINUOUS
 62
    4
 10
159.9047934350493
 20
104.49467643659423
 11
159.9047934350493
 21
104.7913431032609
  0
LINE
  8
_1-c_アンカ__類②
  6
CONTINUOUS
 62
    4
 10
160.07146010171593
 20
104.49467643659423
 11
160.07146010171593
 21
104.7913431032609
  0
LINE
  8
_1-c_アンカ__類②
  6
CONTINUOUS
 62
    4
 10
160.23812676838261
 20
104.49467643659423
 11
160.23812676838261
 21
104.7913431032609
  0
LINE
  8
_1-c_アンカ__類②
  6
CONTINUOUS
 62
    4
 10
160.4047934350493
 20
104.49467643659423
 11
160.4047934350493
 21
104.7913431032609
  0
LINE
  8
_1-c_アンカ__類②
  6
CONTINUOUS
 62
    4
 10
160.57146010171593
 20
104.49467643659423
 11
160.57146010171593
 21
104.7913431032609
  0
LINE
  8
_1-c_アンカ__類②
  6
CONTINUOUS
 62
    4
 10
160.73812676838261
 20
104.49467643659423
 11
160.73812676838261
 21
104.7913431032609
  0
LINE
  8
_1-c_アンカ__類②
  6
CONTINUOUS
 62
    4
 10
160.9047934350493
 20
104.49467643659423
 11
160.9047934350493
 21
104.7913431032609
  0
LINE
  8
_1-c_アンカ__類②
  6
CONTINUOUS
 62
    4
 10
159.10479343504929
 20
104.7913431032609
 11
161.13812676838259
 21
104.7913431032609
  0
LINE
  8
_1-c_アンカ__類②
  6
CONTINUOUS
 62
    4
 10
159.70479343504925
 20
104.49467643659423
 11
159.70479343504925
 21
104.7913431032609
  0
LINE
  8
_1-c_アンカ__類②
  6
CONTINUOUS
 62
    4
 10
159.70479343504925
 20
106.12467643659423
 11
159.70479343504925
 21
106.4213431032609
  0
LINE
  8
_1-c_アンカ__類②
  6
CONTINUOUS
 62
    4
 10
159.03812676838263
 20
104.49167643659423
 11
159.03812676838263
 21
104.79100976992757
  0
LINE
  8
_1-c_アンカ__類②
  6
CONTINUOUS
 62
    4
 10
157.27146010171597
 20
106.17467643659424
 11
157.84092676838262
 21
106.17167643659423
  0
LINE
  8
_1-c_アンカ__類②
  6
CONTINUOUS
 62
    4
 10
157.27146010171597
 20
104.7413431032609
 11
157.83699343504927
 21
104.7443431032609
  0
LINE
  8
_1-c_アンカ__類②
  6
CONTINUOUS
 62
    4
 10
157.83812676838264
 20
106.17174310326089
 11
159.10479343504929
 21
106.12467643659423
  0
LINE
  8
_1-c_アンカ__類②
  6
CONTINUOUS
 62
    4
 10
157.83699343504927
 20
104.7443431032609
 11
159.10479343504929
 21
104.7913431032609
  0
LINE
  8
_1-c_アンカ__類②
  6
CONTINUOUS
 62
    4
 10
158.03812676838263
 20
106.16427643659424
 11
158.03812676838263
 21
106.5125431032609
  0
LINE
  8
_1-c_アンカ__類②
  6
CONTINUOUS
 62
    4
 10
158.23812676838261
 20
106.15687643659423
 11
158.23812676838261
 21
106.49494310326089
  0
LINE
  8
_1-c_アンカ__類②
  6
CONTINUOUS
 62
    4
 10
158.4381267683826
 20
106.14947643659423
 11
158.4381267683826
 21
106.47734310326089
  0
LINE
  8
_1-c_アンカ__類②
  6
CONTINUOUS
 62
    4
 10
158.63812676838259
 20
106.14200976992757
 11
158.63812676838259
 21
106.45967643659424
  0
LINE
  8
_1-c_アンカ__類②
  6
CONTINUOUS
 62
    4
 10
158.83812676838264
 20
106.13460976992756
 11
158.83812676838264
 21
106.44207643659423
  0
LINE
  8
_1-c_アンカ__類②
  6
CONTINUOUS
 62
    4
 10
159.03812676838263
 20
106.12714310326089
 11
159.03812676838263
 21
106.42440976992756
  0
LINE
  8
_1-c_アンカ__類②
  6
CONTINUOUS
 62
    4
 10
158.83812676838264
 20
104.47400976992756
 11
158.83812676838264
 21
104.78147643659423
  0
LINE
  8
_1-c_アンカ__類②
  6
CONTINUOUS
 62
    4
 10
158.63812676838259
 20
104.45640976992756
 11
158.63812676838259
 21
104.77407643659423
  0
LINE
  8
_1-c_アンカ__類②
  6
CONTINUOUS
 62
    4
 10
158.4381267683826
 20
104.43874310326089
 11
158.4381267683826
 21
104.76660976992757
  0
LINE
  8
_1-c_アンカ__類②
  6
CONTINUOUS
 62
    4
 10
158.23812676838261
 20
104.4211431032609
 11
158.23812676838261
 21
104.75920976992757
  0
LINE
  8
_1-c_アンカ__類②
  6
CONTINUOUS
 62
    4
 10
158.03812676838263
 20
104.40347643659423
 11
158.03812676838263
 21
104.75180976992756
  0
LINE
  8
_1-c_アンカ__類②
  6
CONTINUOUS
 62
    4
 10
157.83812676838264
 20
106.17174310326089
 11
157.83812676838264
 21
106.53300976992756
  0
LINE
  8
_1-c_アンカ__類②
  6
CONTINUOUS
 62
    4
 10
157.83812676838264
 20
104.38300976992757
 11
157.83812676838264
 21
104.74440976992756
  0
LINE
  8
_1-c_アンカ__類②
  6
CONTINUOUS
 62
    4
 10
159.60479343504929
 20
105.90800976992756
 11
159.9063934350493
 21
105.90800976992756
  0
LINE
  8
_1-c_アンカ__類②
  6
CONTINUOUS
 62
    4
 10
159.13646010171593
 20
105.90800976992756
 11
159.4381267683826
 21
105.90800976992756
  0
LINE
  8
_1-c_アンカ__類②
  6
CONTINUOUS
 62
    4
 10
159.60479343504929
 20
106.00800976992757
 11
159.9063934350493
 21
106.00800976992757
  0
LINE
  8
_1-c_アンカ__類②
  6
CONTINUOUS
 62
    4
 10
159.13646010171593
 20
106.00800976992757
 11
159.4381267683826
 21
106.00800976992757
  0
LINE
  8
_1-c_アンカ__類②
  6
CONTINUOUS
 62
    4
 10
152.83812676838264
 20
105.40800976992756
 11
152.83812676838264
 21
105.50800976992757
  0
LINE
  8
_1-c_アンカ__類②
  6
CONTINUOUS
 62
    4
 10
152.83812676838264
 20
105.40800976992756
 11
152.89606010171596
 21
105.40800976992756
  0
LINE
  8
_1-c_アンカ__類②
  6
CONTINUOUS
 62
    4
 10
152.83812676838264
 20
105.50800976992757
 11
152.89606010171596
 21
105.50800976992757
  0
LINE
  8
_1-c_アンカ__類②
  6
CONTINUOUS
 62
    4
 10
156.51972676838264
 20
105.75554310326089
 11
156.93912676838264
 21
105.10627643659423
  0
LINE
  8
_1-c_アンカ__類②
  6
CONTINUOUS
 62
    4
 10
155.4697934350493
 20
105.90800976992756
 11
156.23972676838261
 21
105.90800976992756
  0
LINE
  8
_1-c_アンカ__類②
  6
CONTINUOUS
 62
    4
 10
156.60372676838259
 20
105.80980976992757
 11
157.02312676838264
 21
105.16054310326089
  0
LINE
  8
_1-c_アンカ__類②
  6
CONTINUOUS
 62
    4
 10
155.4697934350493
 20
106.00800976992757
 11
156.23972676838261
 21
106.00800976992757
  0
LINE
  8
_1-c_アンカ__類②
  6
CONTINUOUS
 62
    4
 10
157.30312676838261
 20
104.90800976992756
 11
158.07306010171592
 21
104.90800976992756
  0
LINE
  8
_1-c_アンカ__類②
  6
CONTINUOUS
 62
    4
 10
158.85646010171595
 20
105.75554310326089
 11
158.43706010171596
 21
105.10627643659423
  0
LINE
  8
_1-c_アンカ__類②
  6
CONTINUOUS
 62
    4
 10
157.30312676838261
 20
105.00800976992757
 11
158.07306010171592
 21
105.00800976992757
  0
LINE
  8
_1-c_アンカ__類②
  6
CONTINUOUS
 62
    4
 10
158.77246010171595
 20
105.80980976992757
 11
158.35306010171595
 21
105.16054310326089
  0
LINE
  8
_1-c_アンカ__類②
  6
CONTINUOUS
 62
    4
 10
160.27039343504927
 20
105.80980976992757
 11
160.68979343504927
 21
105.16054310326089
  0
LINE
  8
_1-c_アンカ__類②
  6
CONTINUOUS
 62
    4
 10
160.18639343504927
 20
105.75554310326089
 11
160.60579343504926
 21
105.10627643659423
  0
LINE
  8
_1-c_アンカ__類②
  6
CONTINUOUS
 62
    4
 10
160.9697934350493
 20
104.90800976992756
 11
161.13812676838259
 21
104.90800976992756
  0
LINE
  8
_1-c_アンカ__類②
  6
CONTINUOUS
 62
    4
 10
160.9697934350493
 20
105.00800976992757
 11
161.13812676838259
 21
105.00800976992757
  0
LINE
  8
_1-c_アンカ__類②
  6
CONTINUOUS
 62
    4
 10
159.60479343504929
 20
105.90800976992756
 11
159.60479343504929
 21
106.00800976992757
  0
LINE
  8
_1-c_アンカ__類②
  6
CONTINUOUS
 62
    4
 10
159.4381267683826
 20
105.90800976992756
 11
159.4381267683826
 21
106.00800976992757
  0
LINE
  8
_1-c_アンカ__類②
  6
CONTINUOUS
 62
    4
 10
155.18979343504927
 20
105.75554310326089
 11
154.81346010171595
 21
105.17294310326091
  0
LINE
  8
_1-c_アンカ__類②
  6
CONTINUOUS
 62
    4
 10
153.59339343504931
 20
104.97467643659422
 11
154.44946010171597
 21
104.97467643659422
  0
LINE
  8
_1-c_アンカ__類②
  6
CONTINUOUS
 62
    4
 10
153.17606010171593
 20
105.25554310326089
 11
153.22939343504927
 21
105.17294310326091
  0
LINE
  8
_1-c_アンカ__類②
  6
CONTINUOUS
 62
    4
 10
153.26006010171594
 20
105.30980976992757
 11
153.31339343504928
 21
105.22720976992757
  0
LINE
  8
_1-c_アンカ__類②
  6
CONTINUOUS
 62
    4
 10
155.10579343504926
 20
105.80980976992757
 11
154.72946010171594
 21
105.22720976992757
  0
LINE
  8
_1-c_アンカ__類②
  6
CONTINUOUS
 62
    4
 10
153.59339343504931
 20
105.07467643659423
 11
154.44946010171597
 21
105.07467643659423
  0
LINE
  8
_1-c_アンカ__類②
  6
CONTINUOUS
 62
    4
 10
162.02146010171597
 20
106.68300976992757
 11
162.17146010171595
 21
106.68300976992757
  0
LINE
  8
_1-c_アンカ__類②
  6
CONTINUOUS
 62
    4
 10
162.17146010171595
 20
104.23300976992756
 11
162.17146010171595
 21
106.68300976992757
  0
LINE
  8
_1-c_アンカ__類②
  6
CONTINUOUS
 62
    4
 10
162.02146010171597
 20
104.23300976992756
 11
162.17146010171595
 21
104.23300976992756
  0
LINE
  8
_1-c_アンカ__類②
  6
CONTINUOUS
 62
    4
 10
162.02146010171597
 20
104.23300976992756
 11
162.02146010171597
 21
106.68300976992757
  0
LINE
  8
_1-c_アンカ__類②
  6
CONTINUOUS
 62
    4
 10
161.73812676838261
 20
106.4213431032609
 11
162.02146010171597
 21
106.68300976992757
  0
LINE
  8
_1-c_アンカ__類②
  6
CONTINUOUS
 62
    4
 10
161.73812676838261
 20
104.49467643659423
 11
161.73812676838261
 21
106.4213431032609
  0
LINE
  8
_1-c_アンカ__類②
  6
CONTINUOUS
 62
    4
 10
161.73812676838261
 20
104.49467643659423
 11
162.02146010171597
 21
104.23300976992756
  0
LINE
  8
_1-c_アンカ__類②
  6
CONTINUOUS
 62
    4
 10
161.73812676838261
 20
105.37467643659423
 11
161.57146010171593
 21
105.45800976992757
  0
LINE
  8
_1-c_アンカ__類②
  6
CONTINUOUS
 62
    4
 10
161.57146010171593
 20
105.45800976992757
 11
161.73812676838261
 21
105.5413431032609
  0
LINE
  8
_1-c_アンカ__類②
  6
CONTINUOUS
 62
    4
 10
159.83812676838264
 20
106.58800976992757
 11
161.57146010171593
 21
106.58800976992757
  0
LINE
  8
_1-c_アンカ__類②
  6
CONTINUOUS
 62
    4
 10
161.73812676838261
 20
106.38800976992756
 11
161.57146010171593
 21
106.58800976992757
  0
LINE
  8
_1-c_アンカ__類②
  6
CONTINUOUS
 62
    4
 10
161.57146010171593
 20
104.32800976992756
 11
161.73812676838261
 21
104.52800976992756
  0
LINE
  8
_1-c_アンカ__類②
  6
CONTINUOUS
 62
    4
 10
159.83812676838264
 20
104.32800976992756
 11
161.57146010171593
 21
104.32800976992756
  0
LINE
  8
_1-c_アンカ__類②
  6
CONTINUOUS
 62
    4
 10
161.50479343504927
 20
105.5413431032609
 11
161.57146010171593
 21
105.45800976992757
  0
LINE
  8
_1-c_アンカ__類②
  6
CONTINUOUS
 62
    4
 10
161.50479343504927
 20
105.37467643659423
 11
161.57146010171593
 21
105.45800976992757
  0
LINE
  8
_1-c_アンカ__類②
  6
CONTINUOUS
 62
    4
 10
161.50479343504927
 20
105.5413431032609
 11
161.73812676838261
 21
105.5413431032609
  0
LINE
  8
_1-c_アンカ__類②
  6
CONTINUOUS
 62
    4
 10
161.50479343504927
 20
105.37467643659423
 11
161.73812676838261
 21
105.37467643659423
  0
LINE
  8
_1-c_アンカ__類②
  6
CONTINUOUS
 62
    4
 10
161.50479343504927
 20
106.38800976992756
 11
161.73812676838261
 21
106.38800976992756
  0
LINE
  8
_1-c_アンカ__類②
  6
CONTINUOUS
 62
    4
 10
161.50479343504927
 20
104.52800976992756
 11
161.73812676838261
 21
104.52800976992756
  0
LINE
  8
_1-c_アンカ__類②
  6
CONTINUOUS
 62
    4
 10
162.03812676838263
 20
104.84467643659423
 11
162.03812676838263
 21
106.0713431032609
  0
LINE
  8
_1-c_アンカ__類②
  6
CONTINUOUS
 62
    4
 10
161.50479343504927
 20
104.84467643659423
 11
161.50479343504927
 21
106.0713431032609
  0
ARC
  8
_1-c_アンカ__類②
  6
CONTINUOUS
 62
    4
 10
153.14479343504925
 20
105.12467643659423
 40
0.1666666666666666
 50
232.4310000000001
 51
270.00000000000006
  0
ARC
  8
_1-c_アンカ__類②
  6
CONTINUOUS
 62
    4
 10
153.20579343504929
 20
104.97467643659422
 40
0.0166666666666666
 50
270.00000000000006
 51
52.431000000000132
  0
ARC
  8
_1-c_アンカ__類②
  6
CONTINUOUS
 62
    4
 10
153.14479343504925
 20
105.7913431032609
 40
0.1666666666666666
 50
90.000000000000028
 51
127.56899999999999
  0
ARC
  8
_1-c_アンカ__類②
  6
CONTINUOUS
 62
    4
 10
153.20579343504929
 20
105.94134310326089
 40
0.0166666666666666
 50
307.56900000000007
 51
90.000000000000071
  0
ARC
  8
_1-c_アンカ__類②
  6
CONTINUOUS
 62
    4
 10
152.3781267683826
 20
105.12467643659423
 40
0.1666666666666666
 50
232.4310000000001
 51
270.00000000000006
  0
ARC
  8
_1-c_アンカ__類②
  6
CONTINUOUS
 62
    4
 10
152.43912676838264
 20
104.97467643659422
 40
0.0166666666666666
 50
270.00000000000006
 51
52.431000000000132
  0
ARC
  8
_1-c_アンカ__類②
  6
CONTINUOUS
 62
    4
 10
152.43912676838264
 20
105.94134310326089
 40
0.0166666666666666
 50
307.56900000000007
 51
90.000000000000071
  0
ARC
  8
_1-c_アンカ__類②
  6
CONTINUOUS
 62
    4
 10
152.3781267683826
 20
105.7913431032609
 40
0.1666666666666666
 50
90.000000000000028
 51
127.56899999999999
  0
ARC
  8
_1-c_アンカ__類②
  6
CONTINUOUS
 62
    4
 10
152.89606010171596
 20
105.07467643659423
 40
0.4333333333333333
 50
32.858000000000011
 51
90.000000000000028
  0
ARC
  8
_1-c_アンカ__類②
  6
CONTINUOUS
 62
    4
 10
152.89606010171596
 20
105.07467643659423
 40
0.3333333333333333
 50
32.858000000000011
 51
90.000000000000028
  0
ARC
  8
_1-c_アンカ__類②
  6
CONTINUOUS
 62
    4
 10
156.23972676838261
 20
105.57467643659423
 40
0.3333333333333333
 50
32.858000000000011
 51
90.000000000000028
  0
ARC
  8
_1-c_アンカ__類②
  6
CONTINUOUS
 62
    4
 10
156.23972676838261
 20
105.57467643659423
 40
0.4333333333333333
 50
32.858000000000011
 51
90.000000000000028
  0
ARC
  8
_1-c_アンカ__類②
  6
CONTINUOUS
 62
    4
 10
155.4697934350493
 20
105.57467643659423
 40
0.3333333333333333
 50
90.000000000000028
 51
147.14200000000002
  0
ARC
  8
_1-c_アンカ__類②
  6
CONTINUOUS
 62
    4
 10
155.4697934350493
 20
105.57467643659423
 40
0.4333333333333333
 50
90.000000000000028
 51
147.14200000000002
  0
ARC
  8
_1-c_アンカ__類②
  6
CONTINUOUS
 62
    4
 10
157.30312676838261
 20
105.3413431032609
 40
0.4333333333333333
 50
212.858
 51
270.00000000000006
  0
ARC
  8
_1-c_アンカ__類②
  6
CONTINUOUS
 62
    4
 10
158.07306010171592
 20
105.3413431032609
 40
0.4333333333333333
 50
270.00000000000006
 51
327.14200000000005
  0
ARC
  8
_1-c_アンカ__類②
  6
CONTINUOUS
 62
    4
 10
158.07306010171592
 20
105.3413431032609
 40
0.3333333333333333
 50
270.00000000000006
 51
327.14200000000011
  0
ARC
  8
_1-c_アンカ__類②
  6
CONTINUOUS
 62
    4
 10
157.30312676838261
 20
105.3413431032609
 40
0.3333333333333333
 50
212.858
 51
270.00000000000006
  0
ARC
  8
_1-c_アンカ__類②
  6
CONTINUOUS
 62
    4
 10
159.13646010171593
 20
105.57467643659423
 40
0.3333333333333333
 50
90.000000000000028
 51
147.14200000000002
  0
ARC
  8
_1-c_アンカ__類②
  6
CONTINUOUS
 62
    4
 10
159.13646010171593
 20
105.57467643659423
 40
0.4333333333333333
 50
90.000000000000028
 51
147.14200000000002
  0
ARC
  8
_1-c_アンカ__類②
  6
CONTINUOUS
 62
    4
 10
159.9063934350493
 20
105.57467643659423
 40
0.4333333333333333
 50
32.858000000000011
 51
90.000000000000028
  0
ARC
  8
_1-c_アンカ__類②
  6
CONTINUOUS
 62
    4
 10
160.9697934350493
 20
105.3413431032609
 40
0.4333333333333333
 50
212.858
 51
270.00000000000006
  0
ARC
  8
_1-c_アンカ__類②
  6
CONTINUOUS
 62
    4
 10
159.9063934350493
 20
105.57467643659423
 40
0.3333333333333333
 50
32.858000000000011
 51
90.000000000000028
  0
ARC
  8
_1-c_アンカ__類②
  6
CONTINUOUS
 62
    4
 10
160.9697934350493
 20
105.3413431032609
 40
0.3333333333333333
 50
212.858
 51
270.00000000000006
  0
ARC
  8
_1-c_アンカ__類②
  6
CONTINUOUS
 62
    4
 10
154.44946010171597
 20
105.40800976992756
 40
0.4333333333333333
 50
270.00000000000006
 51
327.14200000000005
  0
ARC
  8
_1-c_アンカ__類②
  6
CONTINUOUS
 62
    4
 10
153.59339343504931
 20
105.40800976992756
 40
0.4333333333333333
 50
212.858
 51
270.00000000000006
  0
ARC
  8
_1-c_アンカ__類②
  6
CONTINUOUS
 62
    4
 10
153.59339343504931
 20
105.40800976992756
 40
0.3333333333333333
 50
212.858
 51
270.00000000000006
  0
ARC
  8
_1-c_アンカ__類②
  6
CONTINUOUS
 62
    4
 10
154.44946010171597
 20
105.40800976992756
 40
0.3333333333333333
 50
270.00000000000006
 51
327.14200000000011
  0
LINE
  8
_1-6_アンカ__類
  6
CONTINUOUS
 62
    4
 10
162.13572676838268
 20
106.16900976992757
 11
162.92479343504934
 21
106.95800976992757
  0
LINE
  8
_1-6_アンカ__類
  6
CONTINUOUS
 62
    4
 10
162.13572676838268
 20
104.74707643659424
 11
162.92479343504934
 21
103.95800976992757
  0
LINE
  8
_1-6_アンカ__類
  6
CONTINUOUS
 62
    4
 10
163.17146010171601
 20
106.95800976992757
 11
162.92479343504934
 21
106.95800976992757
  0
LINE
  8
_1-6_アンカ__類
  6
CONTINUOUS
 62
    4
 10
163.17146010171601
 20
103.95800976992757
 11
162.92479343504934
 21
103.95800976992757
  0
LINE
  8
_1-6_アンカ__類
  6
CONTINUOUS
 62
    4
 10
162.92479343504934
 20
103.95800976992757
 11
162.92479343504934
 21
106.95800976992757
  0
LINE
  8
_1-6_アンカ__類
  6
CONTINUOUS
 62
    4
 10
163.17146010171601
 20
103.95800976992757
 11
163.17146010171601
 21
106.95800976992757
  0
LINE
  8
_1-6_アンカ__類
  6
CONTINUOUS
 62
    4
 10
150.77006010171601
 20
105.03280976992757
 11
150.46619343504935
 21
105.9233431032609
  0
LINE
  8
_1-6_アンカ__類
  6
CONTINUOUS
 62
    4
 10
150.46619343504935
 20
105.9233431032609
 11
150.345060101716
 21
105.73500976992757
  0
LINE
  8
_1-6_アンカ__類
  6
CONTINUOUS
 62
    4
 10
150.66046010171601
 20
104.9095431032609
 11
150.46619343504935
 21
105.9233431032609
  0
LINE
  8
_1-6_アンカ__類
  6
CONTINUOUS
 62
    4
 10
150.345060101716
 20
105.73500976992757
 11
150.66046010171601
 21
104.9095431032609
  0
LINE
  8
_1-6_アンカ__類
  6
CONTINUOUS
 62
    4
 10
150.66046010171601
 20
104.9095431032609
 11
150.77006010171601
 21
105.03280976992757
  0
LINE
  8
_1-6_アンカ__類
  6
CONTINUOUS
 62
    4
 10
151.40499343504933
 20
104.93000976992757
 11
151.01426010171602
 21
106.15347643659423
  0
LINE
  8
_1-6_アンカ__類
  6
CONTINUOUS
 62
    4
 10
150.90552676838266
 20
105.9129431032609
 11
151.29539343504933
 21
104.68640976992756
  0
LINE
  8
_1-6_アンカ__類
  6
CONTINUOUS
 62
    4
 10
151.29539343504933
 20
104.68640976992756
 11
151.01426010171602
 21
106.15347643659423
  0
LINE
  8
_1-6_アンカ__類
  6
CONTINUOUS
 62
    4
 10
151.01426010171602
 20
106.15347643659423
 11
150.90552676838266
 21
105.9129431032609
  0
LINE
  8
_1-6_アンカ__類
  6
CONTINUOUS
 62
    4
 10
151.29539343504933
 20
104.68640976992756
 11
151.40499343504933
 21
104.93000976992757
  0
LINE
  8
_1-6_アンカ__類
  6
CONTINUOUS
 62
    4
 10
151.63146010171602
 20
106.23300976992758
 11
151.52186010171602
 21
105.99060976992757
  0
LINE
  8
_1-6_アンカ__類
  6
CONTINUOUS
 62
    4
 10
151.52186010171602
 20
105.99060976992757
 11
151.92872676838266
 21
104.6817431032609
  0
LINE
  8
_1-6_アンカ__類
  6
CONTINUOUS
 62
    4
 10
152.15512676838267
 20
105.99074310326091
 11
151.70686010171602
 21
105.99074310326091
  0
LINE
  8
_1-6_アンカ__類
  6
CONTINUOUS
 62
    4
 10
151.85299343504934
 20
104.9253431032609
 11
151.52919343504934
 21
104.9253431032609
  0
LINE
  8
_1-6_アンカ__類
  6
CONTINUOUS
 62
    4
 10
152.48632676838267
 20
104.9253431032609
 11
152.03832676838266
 21
104.9253431032609
  0
LINE
  8
_1-6_アンカ__類
  6
CONTINUOUS
 62
    4
 10
151.92872676838266
 20
104.6817431032609
 11
151.63146010171602
 21
106.23300976992758
  0
LINE
  8
_1-6_アンカ__類
  6
CONTINUOUS
 62
    4
 10
152.03832676838266
 20
104.9253431032609
 11
151.63146010171602
 21
106.23300976992758
  0
LINE
  8
_1-6_アンカ__類
  6
CONTINUOUS
 62
    4
 10
151.92872676838266
 20
104.6817431032609
 11
152.03832676838266
 21
104.9253431032609
  0
LINE
  8
_1-6_アンカ__類
  6
CONTINUOUS
 62
    4
 10
152.788460101716
 20
105.99074310326091
 11
152.34012676838267
 21
105.99074310326091
  0
LINE
  8
_1-6_アンカ__類
  6
CONTINUOUS
 62
    4
 10
153.11966010171599
 20
104.9253431032609
 11
152.67159343504935
 21
104.9253431032609
  0
LINE
  8
_1-6_アンカ__類
  6
CONTINUOUS
 62
    4
 10
152.56206010171601
 20
104.6817431032609
 11
152.26479343504934
 21
106.23300976992758
  0
LINE
  8
_1-6_アンカ__類
  6
CONTINUOUS
 62
    4
 10
152.67159343504935
 20
104.9253431032609
 11
152.26479343504934
 21
106.23300976992758
  0
LINE
  8
_1-6_アンカ__類
  6
CONTINUOUS
 62
    4
 10
152.56206010171601
 20
104.6817431032609
 11
152.67159343504935
 21
104.9253431032609
  0
LINE
  8
_1-6_アンカ__類
  6
CONTINUOUS
 62
    4
 10
152.26479343504934
 20
106.23300976992758
 11
152.15512676838267
 21
105.99074310326091
  0
LINE
  8
_1-6_アンカ__類
  6
CONTINUOUS
 62
    4
 10
152.15512676838267
 20
105.99074310326091
 11
152.56206010171601
 21
104.6817431032609
  0
LINE
  8
_1-6_アンカ__類
  6
CONTINUOUS
 62
    4
 10
153.42179343504935
 20
105.99074310326091
 11
152.973460101716
 21
105.99074310326091
  0
LINE
  8
_1-6_アンカ__類
  6
CONTINUOUS
 62
    4
 10
153.75292676838268
 20
104.9253431032609
 11
153.30492676838267
 21
104.9253431032609
  0
LINE
  8
_1-6_アンカ__類
  6
CONTINUOUS
 62
    4
 10
154.05612676838268
 20
105.99074310326091
 11
153.60679343504933
 21
105.99074310326091
  0
LINE
  8
_1-6_アンカ__類
  6
CONTINUOUS
 62
    4
 10
154.386260101716
 20
104.9253431032609
 11
153.938260101716
 21
104.9253431032609
  0
LINE
  8
_1-6_アンカ__類
  6
CONTINUOUS
 62
    4
 10
154.68839343504933
 20
105.99074310326091
 11
154.24012676838268
 21
105.99074310326091
  0
LINE
  8
_1-6_アンカ__類
  6
CONTINUOUS
 62
    4
 10
155.01959343504933
 20
104.9253431032609
 11
154.57159343504935
 21
104.9253431032609
  0
LINE
  8
_1-6_アンカ__類
  6
CONTINUOUS
 62
    4
 10
155.32172676838266
 20
105.99074310326091
 11
154.87346010171601
 21
105.99074310326091
  0
LINE
  8
_1-6_アンカ__類
  6
CONTINUOUS
 62
    4
 10
155.65292676838268
 20
104.9253431032609
 11
155.20492676838268
 21
104.9253431032609
  0
LINE
  8
_1-6_アンカ__類
  6
CONTINUOUS
 62
    4
 10
155.95506010171601
 20
105.99074310326091
 11
155.50672676838266
 21
105.99074310326091
  0
LINE
  8
_1-6_アンカ__類
  6
CONTINUOUS
 62
    4
 10
156.28619343504934
 20
104.9253431032609
 11
155.83819343504933
 21
104.9253431032609
  0
LINE
  8
_1-6_アンカ__類
  6
CONTINUOUS
 62
    4
 10
156.58939343504935
 20
105.99074310326091
 11
156.14006010171602
 21
105.99074310326091
  0
LINE
  8
_1-6_アンカ__類
  6
CONTINUOUS
 62
    4
 10
156.92052676838267
 20
104.9253431032609
 11
156.47152676838266
 21
104.9253431032609
  0
LINE
  8
_1-6_アンカ__類
  6
CONTINUOUS
 62
    4
 10
157.22366010171601
 20
105.99074310326091
 11
156.77439343504935
 21
105.99074310326091
  0
LINE
  8
_1-6_アンカ__類
  6
CONTINUOUS
 62
    4
 10
157.554860101716
 20
104.9253431032609
 11
157.10586010171599
 21
104.9253431032609
  0
LINE
  8
_1-6_アンカ__類
  6
CONTINUOUS
 62
    4
 10
157.85739343504935
 20
105.99074310326091
 11
157.40866010171601
 21
105.99074310326091
  0
LINE
  8
_1-6_アンカ__類
  6
CONTINUOUS
 62
    4
 10
158.18819343504933
 20
104.9253431032609
 11
157.74012676838268
 21
104.9253431032609
  0
LINE
  8
_1-6_アンカ__類
  6
CONTINUOUS
 62
    4
 10
158.82146010171601
 20
104.9253431032609
 11
158.37386010171602
 21
104.9253431032609
  0
LINE
  8
_1-6_アンカ__類
  6
CONTINUOUS
 62
    4
 10
158.49032676838266
 20
105.99074310326091
 11
158.04199343504933
 21
105.99074310326091
  0
LINE
  8
_1-6_アンカ__類
  6
CONTINUOUS
 62
    4
 10
159.12466010171602
 20
105.99074310326091
 11
158.67532676838266
 21
105.99074310326091
  0
LINE
  8
_1-6_アンカ__類
  6
CONTINUOUS
 62
    4
 10
159.45579343504934
 20
104.9253431032609
 11
159.00679343504933
 21
104.9253431032609
  0
LINE
  8
_1-6_アンカ__類
  6
CONTINUOUS
 62
    4
 10
160.08912676838267
 20
104.9253431032609
 11
159.64112676838266
 21
104.9253431032609
  0
LINE
  8
_1-6_アンカ__類
  6
CONTINUOUS
 62
    4
 10
159.75892676838268
 20
105.99074310326091
 11
159.30966010171599
 21
105.99074310326091
  0
LINE
  8
_1-6_アンカ__類
  6
CONTINUOUS
 62
    4
 10
160.391260101716
 20
105.99074310326091
 11
159.94292676838268
 21
105.99074310326091
  0
LINE
  8
_1-6_アンカ__類
  6
CONTINUOUS
 62
    4
 10
160.722460101716
 20
104.9253431032609
 11
160.27479343504933
 21
104.9253431032609
  0
LINE
  8
_1-6_アンカ__類
  6
CONTINUOUS
 62
    4
 10
161.35572676838268
 20
104.9253431032609
 11
160.90772676838267
 21
104.9253431032609
  0
LINE
  8
_1-6_アンカ__類
  6
CONTINUOUS
 62
    4
 10
161.02459343504933
 20
105.99074310326091
 11
160.576260101716
 21
105.99074310326091
  0
LINE
  8
_1-6_アンカ__類
  6
CONTINUOUS
 62
    4
 10
161.50479343504935
 20
105.99074310326091
 11
161.20959343504933
 21
105.99074310326091
  0
LINE
  8
_1-6_アンカ__類
  6
CONTINUOUS
 62
    4
 10
161.50479343504935
 20
105.04194310326091
 11
161.13419343504933
 21
106.23300976992758
  0
LINE
  8
_1-6_アンカ__類
  6
CONTINUOUS
 62
    4
 10
161.431460101716
 20
104.6817431032609
 11
161.50479343504935
 21
104.84467643659424
  0
LINE
  8
_1-6_アンカ__類
  6
CONTINUOUS
 62
    4
 10
161.431460101716
 20
104.6817431032609
 11
161.13419343504933
 21
106.23300976992758
  0
LINE
  8
_1-6_アンカ__類
  6
CONTINUOUS
 62
    4
 10
161.13419343504933
 20
106.23300976992758
 11
161.02459343504933
 21
105.99074310326091
  0
LINE
  8
_1-6_アンカ__類
  6
CONTINUOUS
 62
    4
 10
161.02459343504933
 20
105.99074310326091
 11
161.431460101716
 21
104.6817431032609
  0
LINE
  8
_1-6_アンカ__類
  6
CONTINUOUS
 62
    4
 10
160.79812676838267
 20
104.6817431032609
 11
160.500860101716
 21
106.23300976992758
  0
LINE
  8
_1-6_アンカ__類
  6
CONTINUOUS
 62
    4
 10
160.90772676838267
 20
104.9253431032609
 11
160.500860101716
 21
106.23300976992758
  0
LINE
  8
_1-6_アンカ__類
  6
CONTINUOUS
 62
    4
 10
160.79812676838267
 20
104.6817431032609
 11
160.90772676838267
 21
104.9253431032609
  0
LINE
  8
_1-6_アンカ__類
  6
CONTINUOUS
 62
    4
 10
160.500860101716
 20
106.23300976992758
 11
160.391260101716
 21
105.99074310326091
  0
LINE
  8
_1-6_アンカ__類
  6
CONTINUOUS
 62
    4
 10
160.391260101716
 20
105.99074310326091
 11
160.79812676838267
 21
104.6817431032609
  0
LINE
  8
_1-6_アンカ__類
  6
CONTINUOUS
 62
    4
 10
160.165260101716
 20
104.68040976992756
 11
159.86799343504933
 21
106.2317431032609
  0
LINE
  8
_1-6_アンカ__類
  6
CONTINUOUS
 62
    4
 10
160.27479343504933
 20
104.92400976992757
 11
159.86799343504933
 21
106.2317431032609
  0
LINE
  8
_1-6_アンカ__類
  6
CONTINUOUS
 62
    4
 10
160.165260101716
 20
104.68040976992756
 11
160.27479343504933
 21
104.92400976992757
  0
LINE
  8
_1-6_アンカ__類
  6
CONTINUOUS
 62
    4
 10
159.86799343504933
 20
106.2317431032609
 11
159.75832676838266
 21
105.98940976992756
  0
LINE
  8
_1-6_アンカ__類
  6
CONTINUOUS
 62
    4
 10
159.75832676838266
 20
105.98940976992756
 11
160.165260101716
 21
104.68040976992756
  0
LINE
  8
_1-6_アンカ__類
  6
CONTINUOUS
 62
    4
 10
159.53152676838266
 20
104.6817431032609
 11
159.23426010171602
 21
106.23300976992758
  0
LINE
  8
_1-6_アンカ__類
  6
CONTINUOUS
 62
    4
 10
159.64112676838266
 20
104.9253431032609
 11
159.23426010171602
 21
106.23300976992758
  0
LINE
  8
_1-6_アンカ__類
  6
CONTINUOUS
 62
    4
 10
159.53152676838266
 20
104.6817431032609
 11
159.64112676838266
 21
104.9253431032609
  0
LINE
  8
_1-6_アンカ__類
  6
CONTINUOUS
 62
    4
 10
159.23426010171602
 20
106.23300976992758
 11
159.12466010171602
 21
105.99074310326091
  0
LINE
  8
_1-6_アンカ__類
  6
CONTINUOUS
 62
    4
 10
159.12466010171602
 20
105.99074310326091
 11
159.53152676838266
 21
104.6817431032609
  0
LINE
  8
_1-6_アンカ__類
  6
CONTINUOUS
 62
    4
 10
158.89719343504933
 20
104.6817431032609
 11
158.59992676838266
 21
106.23300976992758
  0
LINE
  8
_1-6_アンカ__類
  6
CONTINUOUS
 62
    4
 10
159.00679343504933
 20
104.9253431032609
 11
158.59992676838266
 21
106.23300976992758
  0
LINE
  8
_1-6_アンカ__類
  6
CONTINUOUS
 62
    4
 10
158.89719343504933
 20
104.6817431032609
 11
159.00679343504933
 21
104.9253431032609
  0
LINE
  8
_1-6_アンカ__類
  6
CONTINUOUS
 62
    4
 10
158.59992676838266
 20
106.23300976992758
 11
158.49032676838266
 21
105.99074310326091
  0
LINE
  8
_1-6_アンカ__類
  6
CONTINUOUS
 62
    4
 10
158.49032676838266
 20
105.99074310326091
 11
158.89719343504933
 21
104.6817431032609
  0
LINE
  8
_1-6_アンカ__類
  6
CONTINUOUS
 62
    4
 10
158.26432676838266
 20
104.68040976992756
 11
157.96699343504935
 21
106.2317431032609
  0
LINE
  8
_1-6_アンカ__類
  6
CONTINUOUS
 62
    4
 10
158.37386010171602
 20
104.92400976992757
 11
157.96699343504935
 21
106.2317431032609
  0
LINE
  8
_1-6_アンカ__類
  6
CONTINUOUS
 62
    4
 10
158.26432676838266
 20
104.68040976992756
 11
158.37386010171602
 21
104.92400976992757
  0
LINE
  8
_1-6_アンカ__類
  6
CONTINUOUS
 62
    4
 10
157.96699343504935
 20
106.2317431032609
 11
157.85739343504935
 21
105.98940976992756
  0
LINE
  8
_1-6_アンカ__類
  6
CONTINUOUS
 62
    4
 10
157.85739343504935
 20
105.98940976992756
 11
158.26432676838266
 21
104.68040976992756
  0
LINE
  8
_1-6_アンカ__類
  6
CONTINUOUS
 62
    4
 10
157.63059343504935
 20
104.6817431032609
 11
157.33332676838268
 21
106.23300976992758
  0
LINE
  8
_1-6_アンカ__類
  6
CONTINUOUS
 62
    4
 10
157.74012676838268
 20
104.9253431032609
 11
157.33332676838268
 21
106.23300976992758
  0
LINE
  8
_1-6_アンカ__類
  6
CONTINUOUS
 62
    4
 10
157.63059343504935
 20
104.6817431032609
 11
157.74012676838268
 21
104.9253431032609
  0
LINE
  8
_1-6_アンカ__類
  6
CONTINUOUS
 62
    4
 10
157.33332676838268
 20
106.23300976992758
 11
157.22366010171601
 21
105.99074310326091
  0
LINE
  8
_1-6_アンカ__類
  6
CONTINUOUS
 62
    4
 10
157.22366010171601
 20
105.99074310326091
 11
157.63059343504935
 21
104.6817431032609
  0
LINE
  8
_1-6_アンカ__類
  6
CONTINUOUS
 62
    4
 10
156.99626010171602
 20
104.6817431032609
 11
156.69899343504935
 21
106.23300976992758
  0
LINE
  8
_1-6_アンカ__類
  6
CONTINUOUS
 62
    4
 10
157.10586010171599
 20
104.9253431032609
 11
156.69899343504935
 21
106.23300976992758
  0
LINE
  8
_1-6_アンカ__類
  6
CONTINUOUS
 62
    4
 10
156.99626010171602
 20
104.6817431032609
 11
157.10586010171599
 21
104.9253431032609
  0
LINE
  8
_1-6_アンカ__類
  6
CONTINUOUS
 62
    4
 10
156.69899343504935
 20
106.23300976992758
 11
156.58939343504935
 21
105.99074310326091
  0
LINE
  8
_1-6_アンカ__類
  6
CONTINUOUS
 62
    4
 10
156.58939343504935
 20
105.99074310326091
 11
156.99626010171602
 21
104.6817431032609
  0
LINE
  8
_1-6_アンカ__類
  6
CONTINUOUS
 62
    4
 10
156.36192676838266
 20
104.6817431032609
 11
156.06466010171602
 21
106.23300976992758
  0
LINE
  8
_1-6_アンカ__類
  6
CONTINUOUS
 62
    4
 10
156.47152676838266
 20
104.9253431032609
 11
156.06466010171602
 21
106.23300976992758
  0
LINE
  8
_1-6_アンカ__類
  6
CONTINUOUS
 62
    4
 10
156.36192676838266
 20
104.6817431032609
 11
156.47152676838266
 21
104.9253431032609
  0
LINE
  8
_1-6_アンカ__類
  6
CONTINUOUS
 62
    4
 10
156.06466010171602
 20
106.23300976992758
 11
155.95506010171601
 21
105.99074310326091
  0
LINE
  8
_1-6_アンカ__類
  6
CONTINUOUS
 62
    4
 10
155.95506010171601
 20
105.99074310326091
 11
156.36192676838266
 21
104.6817431032609
  0
LINE
  8
_1-6_アンカ__類
  6
CONTINUOUS
 62
    4
 10
155.728660101716
 20
104.6817431032609
 11
155.43132676838266
 21
106.23300976992758
  0
LINE
  8
_1-6_アンカ__類
  6
CONTINUOUS
 62
    4
 10
155.83819343504933
 20
104.9253431032609
 11
155.43132676838266
 21
106.23300976992758
  0
LINE
  8
_1-6_アンカ__類
  6
CONTINUOUS
 62
    4
 10
155.728660101716
 20
104.6817431032609
 11
155.83819343504933
 21
104.9253431032609
  0
LINE
  8
_1-6_アンカ__類
  6
CONTINUOUS
 62
    4
 10
155.43132676838266
 20
106.23300976992758
 11
155.32172676838266
 21
105.99074310326091
  0
LINE
  8
_1-6_アンカ__類
  6
CONTINUOUS
 62
    4
 10
155.32172676838266
 20
105.99074310326091
 11
155.728660101716
 21
104.6817431032609
  0
LINE
  8
_1-6_アンカ__類
  6
CONTINUOUS
 62
    4
 10
155.09532676838268
 20
104.6817431032609
 11
154.798060101716
 21
106.23300976992758
  0
LINE
  8
_1-6_アンカ__類
  6
CONTINUOUS
 62
    4
 10
155.20492676838268
 20
104.9253431032609
 11
154.798060101716
 21
106.23300976992758
  0
LINE
  8
_1-6_アンカ__類
  6
CONTINUOUS
 62
    4
 10
155.09532676838268
 20
104.6817431032609
 11
155.20492676838268
 21
104.9253431032609
  0
LINE
  8
_1-6_アンカ__類
  6
CONTINUOUS
 62
    4
 10
154.798060101716
 20
106.23300976992758
 11
154.68839343504933
 21
105.99074310326091
  0
LINE
  8
_1-6_アンカ__類
  6
CONTINUOUS
 62
    4
 10
154.68839343504933
 20
105.99074310326091
 11
155.09532676838268
 21
104.6817431032609
  0
LINE
  8
_1-6_アンカ__類
  6
CONTINUOUS
 62
    4
 10
154.46239343504934
 20
104.68040976992756
 11
154.16512676838266
 21
106.2317431032609
  0
LINE
  8
_1-6_アンカ__類
  6
CONTINUOUS
 62
    4
 10
154.57199343504934
 20
104.92400976992757
 11
154.16512676838266
 21
106.2317431032609
  0
LINE
  8
_1-6_アンカ__類
  6
CONTINUOUS
 62
    4
 10
154.46239343504934
 20
104.68040976992756
 11
154.57199343504934
 21
104.92400976992757
  0
LINE
  8
_1-6_アンカ__類
  6
CONTINUOUS
 62
    4
 10
154.16512676838266
 20
106.2317431032609
 11
154.05552676838266
 21
105.98940976992756
  0
LINE
  8
_1-6_アンカ__類
  6
CONTINUOUS
 62
    4
 10
154.05552676838266
 20
105.98940976992756
 11
154.46239343504934
 21
104.68040976992756
  0
LINE
  8
_1-6_アンカ__類
  6
CONTINUOUS
 62
    4
 10
153.828660101716
 20
104.6817431032609
 11
153.53139343504935
 21
106.23300976992758
  0
LINE
  8
_1-6_アンカ__類
  6
CONTINUOUS
 62
    4
 10
153.938260101716
 20
104.9253431032609
 11
153.53139343504935
 21
106.23300976992758
  0
LINE
  8
_1-6_アンカ__類
  6
CONTINUOUS
 62
    4
 10
153.828660101716
 20
104.6817431032609
 11
153.938260101716
 21
104.9253431032609
  0
LINE
  8
_1-6_アンカ__類
  6
CONTINUOUS
 62
    4
 10
153.53139343504935
 20
106.23300976992758
 11
153.42179343504935
 21
105.99074310326091
  0
LINE
  8
_1-6_アンカ__類
  6
CONTINUOUS
 62
    4
 10
153.42179343504935
 20
105.99074310326091
 11
153.828660101716
 21
104.6817431032609
  0
LINE
  8
_1-6_アンカ__類
  6
CONTINUOUS
 62
    4
 10
153.19532676838267
 20
104.6817431032609
 11
152.898060101716
 21
106.23300976992758
  0
LINE
  8
_1-6_アンカ__類
  6
CONTINUOUS
 62
    4
 10
153.30492676838267
 20
104.9253431032609
 11
152.898060101716
 21
106.23300976992758
  0
LINE
  8
_1-6_アンカ__類
  6
CONTINUOUS
 62
    4
 10
153.19532676838267
 20
104.6817431032609
 11
153.30492676838267
 21
104.9253431032609
  0
LINE
  8
_1-6_アンカ__類
  6
CONTINUOUS
 62
    4
 10
152.898060101716
 20
106.23300976992758
 11
152.788460101716
 21
105.99074310326091
  0
LINE
  8
_1-6_アンカ__類
  6
CONTINUOUS
 62
    4
 10
152.788460101716
 20
105.99074310326091
 11
153.19532676838267
 21
104.6817431032609
  0
LINE
  8
_1-6_アンカ__類
  6
CONTINUOUS
 62
    4
 10
161.90006010171601
 20
106.0713431032609
 11
161.50479343504935
 21
106.0713431032609
  0
LINE
  8
_1-6_アンカ__類
  6
CONTINUOUS
 62
    4
 10
161.90006010171601
 20
104.84467643659424
 11
161.50479343504935
 21
104.84467643659424
  0
ARC
  8
_1-6_アンカ__類
  6
CONTINUOUS
 62
    4
 10
151.58479343504933
 20
102.86367643659423
 40
3.1275333333333331
 50
91.153000000000034
 51
99.302000000000035
  0
ARC
  8
_1-6_アンカ__類
  6
CONTINUOUS
 62
    4
 10
151.58479343504933
 20
108.05240976992756
 40
3.1275333333333331
 50
266.70400000000001
 51
268.98100000000005
  0
ARC
  8
_1-6_アンカ__類
  6
CONTINUOUS
 62
    4
 10
151.58479343504933
 20
102.86367643659423
 40
3.1275333333333331
 50
102.55800000000001
 51
110.13300000000007
  0
ARC
  8
_1-6_アンカ__類
  6
CONTINUOUS
 62
    4
 10
151.58479343504933
 20
102.86367643659423
 40
3.1275333333333331
 50
113.352
 51
123.95100000000006
  0
ARC
  8
_1-6_アンカ__類
  6
CONTINUOUS
 62
    4
 10
151.58479343504933
 20
108.05240976992756
 40
3.1275333333333331
 50
236.04900000000004
 51
251.51100000000002
  0
ARC
  8
_1-6_アンカ__類
  6
CONTINUOUS
 62
    4
 10
151.58479343504933
 20
108.05240976992756
 40
3.1275333333333331
 50
254.90100000000012
 51
263.16500000000002
  0
ARC
  8
_1-6_アンカ__類
  6
CONTINUOUS
 62
    4
 10
161.90006010171601
 20
106.40467643659423
 40
0.3333333333333333
 50
270.00000000000006
 51
315.00000000000006
  0
ARC
  8
_1-6_アンカ__類
  6
CONTINUOUS
 62
    4
 10
161.90006010171601
 20
104.5113431032609
 40
0.3333333333333333
 50
45.000000000000014
 51
90.000000000000028
  0
LINE
  8
_e-e_
  6
CONTINUOUS
 62
    7
 10
177.56538475028043
 20
76.641495916228536
 11
182.56538475028043
 21
76.641495916228536
  0
LINE
  8
_e-e_
  6
CONTINUOUS
 62
    7
 10
177.56538475028043
 20
76.641495916228536
 11
162.56538475028043
 21
50.660733802695376
  0
TEXT
  8
_e-e_
 62
    7
 10
182.56538475028043
 20
74.641495916228536
 40
4
 41
1
 50
0
  1
リベットルーフ
  0
LINE
  8
_e-e_
  6
CONTINUOUS
 62
    7
 10
170.74199459876527
 20
111.32338872117859
 11
175.74199459876527
 21
111.32338872117859
  0
LINE
  8
_e-e_
  6
CONTINUOUS
 62
    7
 10
170.74199459876527
 20
111.32338872117859
 11
165.74199459876527
 21
119.98364275902297
  0
TEXT
  8
_e-e_
 62
    7
 10
175.74199459876527
 20
109.32338872117859
 40
4
 41
1
 50
0
  1
ＡＹシールＭＳ－１
  0
LINE
  8
_e-e_
  6
CONTINUOUS
 62
    7
 10
167.47116126543193
 20
93.942997685185148
 11
172.47116126543193
 21
93.942997685185148
  0
LINE
  8
_e-e_
  6
CONTINUOUS
 62
    7
 10
167.47116126543193
 20
93.942997685185148
 11
162.47116126543193
 21
102.60325172302954
  0
LINE
  8
_e-e_
  6
CONTINUOUS
 62
    7
 10
168.01661581088649
 20
103.0945128367003
 11
173.01661581088649
 21
103.0945128367003
  0
LINE
  8
_e-e_
  6
CONTINUOUS
 62
    7
 10
168.01661581088649
 20
103.0945128367003
 11
163.01661581088649
 21
111.7547668745447
  0
TEXT
  8
_e-e_
 62
    7
 10
173.01661581088649
 20
101.0945128367003
 40
4
 41
1
 50
0
  1
ＦＬ鋼板
  0
TEXT
  8
_e-e_
 62
    7
 10
172.47116126543193
 20
91.942997685185148
 40
4
 41
1
 50
0
  1
ＡＹブチルテープ
  0
LINE
  8
_e-e_
  6
CONTINUOUS
 62
    7
 10
161.65866126543193
 20
169.50145248060528
 11
151.65866126543193
 21
152.18094440491649
  0
LINE
  8
_e-e_
  6
CONTINUOUS
 62
    7
 10
161.65866126543193
 20
169.50145248060528
 11
166.65866126543193
 21
169.50145248060528
  0
TEXT
  8
_e-e_
 62
    7
 10
166.65866126543193
 20
167.50145248060528
 40
4
 41
1
 50
0
  1
ウレタン系塗膜防水システム
  0
TEXT
  8
_e-e_
 62
    7
 10
166.65866126543193
 20
162.50145248060528
 40
4
 41
1
 50
0
  1
「アクシスコート」
  0
TEXT
  8
_e-e_
 62
    7
 10
188.5
 20
22.5
 40
4
 41
1
 50
0
  1
あご下部の例
  0
TEXT
  8
_e-e_
 62
    7
 10
188.5
 20
17.5
 40
4
 41
1
 50
0
  1
（アンカー固定工法）
  0
ENDSEC
  0
EOF
