  0
SECTION
  2
HEADER
  9
$ACADVER
  1
AC1009
  9
$INSBASE
 10
0
 20
0
 30
0
  9
$EXTMIN
 10
0
 20
0
  9
$EXTMAX
 10
297
 20
210
  9
$LIMMIN
 10
0
 20
0
  9
$LIMMAX
 10
297
 20
210
  9
$LTSCALE
 40
1
  0
ENDSEC
  0
SECTION
  2
TABLES
  0
TABLE
  2
LTYPE
 70
     9
  0
LTYPE
  2
CONTINUOUS
 70
    64
  3
実線
 72
    65
 73
     0
 40
0.0
  0
LTYPE
  2
DASHED1
 70
    64
  3
--  --  --  --  --  --  --  --  
 72
    65
 73
     2
 40
2.5
 49
1.25
 49
-1.25
  0
LTYPE
  2
DASHED2
 70
    64
  3
----    ----    ----    ----    
 72
    65
 73
     2
 40
5.0
 49
2.5
 49
-2.5
  0
LTYPE
  2
DASHED3
 70
    64
  3
------  ------  ------  ------  
 72
    65
 73
     2
 40
5.0
 49
3.75
 49
-1.25
  0
LTYPE
  2
CENTER1
 70
    64
  3
----- - ----- - ----- - ----- - 
 72
    65
 73
     4
 40
10.0
 49
6.25
 49
-1.25
 49
1.25
 49
-1.25
  0
LTYPE
  2
CENTER2
 70
    64
  3
----------  --  ----------  --  
 72
    65
 73
     4
 40
20.0
 49
12.5
 49
-2.5
 49
2.5
 49
-2.5
  0
LTYPE
  2
PHANTOM1
 70
    64
  3
--- - - --- - - --- - - --- - - 
 72
    65
 73
     6
 40
10.0
 49
3.25
 49
-1.25
 49
1.25
 49
-1.25
 49
1.25
 49
-1.25
  0
LTYPE
  2
PHANTOM2
 70
    64
  3
--------  -  -  --------  -  -  
 72
    65
 73
     6
 40
20.0
 49
10.0
 49
-2.5
 49
1.25
 49
-2.5
 49
1.25
 49
-2.5
  0
LTYPE
  2
DOT
 70
    64
  3
-   -   -   -   -   -   -   -   
 72
    65
 73
     2
 40
2.5
 49
0.625
 49
-1.875
  0
LTYPE
  2
DUMMY
 70
    64
  3
ダミー
 72
    65
 73
     0
 40
0.0
  0
LTYPE
  2
RAND1
 70
    64
  3
ランダム線1
 72
    65
 73
     4
 40
10.0
 49
1.0
 49
-2.0
 49
3.0
 49
-4.0
  0
LTYPE
  2
RAND2
 70
    64
  3
ランダム線2
 72
    65
 73
     4
 40
14.0
 49
2.0
 49
-3.0
 49
4.0
 49
-5.0
  0
LTYPE
  2
RAND3
 70
    64
  3
ランダム線3
 72
    65
 73
     4
 40
18.0
 49
3.0
 49
-4.0
 49
5.0
 49
-6.0
  0
LTYPE
  2
RAND4
 70
    64
  3
ランダム線4
 72
    65
 73
     4
 40
22.0
 49
4.0
 49
-5.0
 49
6.0
 49
-7.0
  0
LTYPE
  2
RAND5
 70
    64
  3
ランダム線5
 72
    65
 73
     4
 40
26.0
 49
5.0
 49
-6.0
 49
7.0
 49
-8.0
  0
LTYPE
  2
LONG1
 70
    64
  3
----------  --  ----------  --  
 72
    65
 73
     4
 40
40.0
 49
32.5
 49
-2.5
 49
2.5
 49
-2.5
  0
LTYPE
  2
LONG2
 70
    64
  3
--------  -  -  --------  -  -  
 72
    65
 73
     6
 40
40.0
 49
30.0
 49
-2.5
 49
1.25
 49
-2.5
 49
1.25
 49
-2.5
  0
LTYPE
  2
LONG3
 70
    64
  3
+++++++++++++++..+++++++++++++++
 72
    65
 73
     2
 40
40.0
 49
37.5
 49
-2.5
  0
LTYPE
  2
LONG4
 70
    64
  3
+++++++++++++++..+++++++++++++++
 72
    65
 73
     2
 40
80.0
 49
75.0
 49
-5.0
  0
LTYPE
  2
LONG5
 70
    64
  3
----------  --  ----------  --  
 72
    65
 73
     4
 40
60.0
 49
37.5
 49
-7.5
 49
7.5
 49
-7.5
  0
LTYPE
  2
dashed
 70
   64
  3
-------   -------------   ------
 72
   65
 73
    2
 40
7.5
 49
6
 49
-1.5
  0
LTYPE
  2
dashed_spaced
 70
   64
  3
----        --------        ----
 72
   65
 73
    2
 40
12
 49
6
 49
-6
  0
LTYPE
  2
long_dashed_dotted
 70
   64
  3
------------- --- --------------
 72
   65
 73
    4
 40
15.25
 49
12
 49
-1.5
 49
0.25
 49
-1.5
  0
LTYPE
  2
long_dashed_double-dotted
 70
   64
  3
----------- --- --- ------------
 72
   65
 73
    6
 40
17
 49
12
 49
-1.5
 49
0.25
 49
-1.5
 49
0.25
 49
-1.5
  0
LTYPE
  2
long_dashed_triplicate-dotted
 70
   64
  3
--------- --- --- --- ----------
 72
   65
 73
    8
 40
18.75
 49
12
 49
-1.5
 49
0.25
 49
-1.5
 49
0.25
 49
-1.5
 49
0.25
 49
-1.5
  0
LTYPE
  2
dotted
 70
   64
  3
   -       -       -       -    
 72
   65
 73
    2
 40
1.75
 49
0.25
 49
-1.5
  0
LTYPE
  2
chain
 70
   64
  3
-------------- -- --------------
 72
   65
 73
    4
 40
18.5
 49
12
 49
-1.5
 49
3.5
 49
-1.5
  0
LTYPE
  2
chain_double_dash
 70
   64
  3
------------ -- -- -------------
 72
   65
 73
    6
 40
23.5
 49
12
 49
-1.5
 49
3.5
 49
-1.5
 49
3.5
 49
-1.5
  0
LTYPE
  2
dashed_dotted
 70
   64
  3
-----------     -     ----------
 72
   65
 73
    4
 40
9.25
 49
6
 49
-1.5
 49
0.25
 49
-1.5
  0
LTYPE
  2
double-dashed_dotted
 70
   64
  3
------   -----------   -   -----
 72
   65
 73
    6
 40
16.75
 49
6
 49
-1.5
 49
6
 49
-1.5
 49
0.25
 49
-1.5
  0
LTYPE
  2
dashed_double-dotted
 70
   64
  3
---------    -    -    ---------
 72
   65
 73
    6
 40
11
 49
6
 49
-1.5
 49
0.25
 49
-1.5
 49
0.25
 49
-1.5
  0
LTYPE
  2
double-dashed_double-dotted
 70
   64
  3
-----   ---------   -   -   ----
 72
   65
 73
    8
 40
18.5
 49
6
 49
-1.5
 49
6
 49
-1.5
 49
0.25
 49
-1.5
 49
0.25
 49
-1.5
  0
LTYPE
  2
dashed_triplicate-dotted
 70
   64
  3
-------    -    -    -    ------
 72
   65
 73
    8
 40
12.75
 49
6
 49
-1.5
 49
0.25
 49
-1.5
 49
0.25
 49
-1.5
 49
0.25
 49
-1.5
  0
LTYPE
  2
double-dashed_triplicate-dotted
 70
   64
  3
-----  ---------  -  -  -  -----
 72
   65
 73
   10
 40
20.25
 49
6
 49
-1.5
 49
6
 49
-1.5
 49
0.25
 49
-1.5
 49
0.25
 49
-1.5
 49
0.25
 49
-1.5
  0
LTYPE
  2
undefined
 70
   64
  3
--------------------------------
 72
   65
 73
    0
 40
0
  0
LTYPE
  2
AIGENLINE001
 70
   64
  3
                                
 72
   65
 73
    4
 40
4.2333600000000002
 49
2.1166800000000001
 49
-0.7055599999999999
 49
0.7055599999999999
 49
-0.7055599999999999
  0
LTYPE
  2
2-AXIS
 70
   64
  3
                                
 72
   65
 73
    0
 40
0
  0
LTYPE
  2
BORDER
 70
   64
  3
                                
 72
   65
 73
    0
 40
0
  0
LTYPE
  2
BORDER2
 70
   64
  3
                                
 72
   65
 73
    0
 40
0
  0
LTYPE
  2
BORDERX2
 70
   64
  3
                                
 72
   65
 73
    0
 40
0
  0
LTYPE
  2
CENTER
 70
   64
  3
                                
 72
   65
 73
    0
 40
0
  0
LTYPE
  2
CENTER2_23
 70
   64
  3
                                
 72
   65
 73
    0
 40
0
  0
LTYPE
  2
CENTERX2
 70
   64
  3
                                
 72
   65
 73
    0
 40
0
  0
LTYPE
  2
DASHDOT
 70
   64
  3
                                
 72
   65
 73
    0
 40
0
  0
LTYPE
  2
DASHDOT2
 70
   64
  3
                                
 72
   65
 73
    0
 40
0
  0
LTYPE
  2
DASHDOTX2
 70
   64
  3
                                
 72
   65
 73
    0
 40
0
  0
LTYPE
  2
DASHED
 70
   64
  3
                                
 72
   65
 73
    0
 40
0
  0
LTYPE
  2
DASHED2_29
 70
   64
  3
                                
 72
   65
 73
    0
 40
0
  0
LTYPE
  2
DASHEDX2
 70
   64
  3
                                
 72
   65
 73
    0
 40
0
  0
LTYPE
  2
DIVIDE
 70
   64
  3
                                
 72
   65
 73
    0
 40
0
  0
LTYPE
  2
DIVIDE2
 70
   64
  3
                                
 72
   65
 73
    0
 40
0
  0
ENDTAB
  0
TABLE
  2
STYLE
  5
3
100
AcDbSymbolTable
 70
     1
  0
STYLE
  5
10
100
AcDbSymbolTableRecord
100
AcDbTextStyleTableRecord
  2
STANDARD
 70
     0
 40
0.0
 41
1.0
 50
0.0
 71
     0
 42
0.2
  3
txt
  4
bigfont.shx
  0
STYLE
  5
26
100
AcDbSymbolTableRecord
100
AcDbTextStyleTableRecord
  2
TATEGAKI
 70
    68
 40
0.0
 41
1.0
 50
0.0
 71
     0
 42
1.0
  3
txt
  4
bigfont.shx
  0
ENDTAB
  0
TABLE
  2
LAYER
 70
   12
  0
LAYER
  2
_1-2_ハッチング
 70
   64
 62
    7
  6
CONTINUOUS
  0
LAYER
  2
_1-3_断熱材
 70
   64
 62
    7
  6
CONTINUOUS
  0
LAYER
  2
_1-4_リベットル__フ
 70
   64
 62
    7
  6
CONTINUOUS
  0
LAYER
  2
_1-5_ＦＬ鋼板__ディスク
 70
   64
 62
    7
  6
CONTINUOUS
  0
LAYER
  2
_1-6_アンカ__類
 70
   64
 62
    7
  6
CONTINUOUS
  0
LAYER
  2
_1-8_下地など
 70
   64
 62
    7
  6
CONTINUOUS
  0
LAYER
  2
_1-a_元図__躯体
 70
   64
 62
    7
  6
CONTINUOUS
  0
LAYER
  2
_1-b_その他
 70
   64
 62
    7
  6
CONTINUOUS
  0
LAYER
  2
_1-c_アンカ__類②
 70
   64
 62
    7
  6
CONTINUOUS
  0
LAYER
  2
_e-e_
 70
   64
 62
    7
  6
CONTINUOUS
  0
LAYER
  2
_f-f_
 70
   64
 62
    7
  6
CONTINUOUS
  0
LAYER
  2
ADD_LINE
 70
   64
 62
    7
  6
CONTINUOUS
  0
ENDTAB
  0
ENDSEC
  0
SECTION
  2
BLOCKS
  0
ENDSEC
  0
SECTION
  2
ENTITIES
  0
LINE
  8
_1-a_元図__躯体
  6
CONTINUOUS
 62
    7
 10
140.22724551561089
 20
136.85911899647473
 11
143.22724551561089
 21
139.85911899647473
  0
TEXT
  8
_e-e_
 62
    7
 10
188.5
 20
17.5
 40
4
 41
1
 50
0
  1
（断熱材埋め）
  0
LINE
  8
_f-f_
  6
CONTINUOUS
 62
    7
 10
13.5
 20
197
 11
13.5
 21
17
  0
LINE
  8
_f-f_
  6
CONTINUOUS
 62
    7
 10
13.5
 20
197
 11
283.5
 21
197
  0
LINE
  8
_f-f_
  6
CONTINUOUS
 62
    7
 10
283.5
 20
197
 11
283.5
 21
17
  0
LINE
  8
_f-f_
  6
CONTINUOUS
 62
    7
 10
283.5
 20
17
 11
13.5
 21
17
  0
SOLID
  8
_f-f_
  6
CONTINUOUS
 62
    5
 10
236.97536482015869
 20
15.135014055698207
 11
235.41260194015859
 21
14.597233959698244
 12
233.7490795136022
 22
12.030232905347191
 13
233.7490795136022
 23
12.030232905347191
  0
SOLID
  8
_f-f_
  6
CONTINUOUS
 62
    5
 10
236.97536482015869
 20
15.135014055698207
 11
235.44783384279719
 21
14.653922266010412
 12
235.41260194015859
 22
14.597233959698244
 13
235.41260194015859
 23
14.597233959698244
  0
SOLID
  8
_f-f_
  6
CONTINUOUS
 62
    5
 10
236.97536482015869
 20
15.135014055698207
 11
235.44348964523115
 21
14.814711211354776
 12
235.44783384279719
 22
14.653922266010412
 13
235.44783384279719
 23
14.653922266010412
  0
SOLID
  8
_f-f_
  6
CONTINUOUS
 62
    5
 10
236.97536482015869
 20
15.135014055698207
 11
235.37802752940809
 21
14.882325091646777
 12
235.44348964523115
 22
14.814711211354776
 13
235.44348964523115
 23
14.814711211354776
  0
SOLID
  8
_f-f_
  6
CONTINUOUS
 62
    5
 10
236.97536482015869
 20
15.135014055698207
 11
235.23671672676957
 21
14.943561152901822
 12
235.37802752940809
 22
14.882325091646777
 13
235.37802752940809
 23
14.882325091646777
  0
SOLID
  8
_f-f_
  6
CONTINUOUS
 62
    5
 10
236.97536482015869
 20
15.135014055698207
 11
231.75858153825016
 21
14.827104307519747
 12
235.23671672676957
 22
14.943561152901822
 13
235.23671672676957
 23
14.943561152901822
  0
SOLID
  8
_f-f_
  6
CONTINUOUS
 62
    5
 10
236.97536482015869
 20
15.135014055698207
 11
232.06580002015863
 21
15.134816487698203
 12
231.75858153825016
 22
14.827104307519747
 13
231.75858153825016
 23
14.827104307519747
  0
SOLID
  8
_f-f_
  6
CONTINUOUS
 62
    5
 10
233.7490795136022
 20
12.030232905347191
 11
237.28752157062101
 21
14.827697368205875
 12
236.97536482015869
 22
15.135014055698207
 13
236.97536482015869
 23
15.135014055698207
  0
SOLID
  8
_f-f_
  6
CONTINUOUS
 62
    5
 10
233.7490795136022
 20
12.030232905347191
 11
237.23911742342443
 21
14.662629348534509
 12
237.28752157062101
 22
14.827697368205875
 13
237.28752157062101
 23
14.827697368205875
  0
SOLID
  8
_f-f_
  6
CONTINUOUS
 62
    5
 10
233.7490795136022
 20
12.030232905347191
 11
234.52749735533226
 21
10.733752628573797
 12
234.7892749001586
 22
10.88042668929819
 13
234.7892749001586
 23
10.88042668929819
  0
SOLID
  8
_f-f_
  6
CONTINUOUS
 62
    5
 10
233.7490795136022
 20
12.030232905347191
 11
234.31609954015863
 21
10.81863729729821
 12
234.52749735533226
 22
10.733752628573797
 13
234.52749735533226
 23
10.733752628573797
  0
SOLID
  8
_f-f_
  6
CONTINUOUS
 62
    5
 10
233.7490795136022
 20
12.030232905347191
 11
233.74611586015862
 21
11.682740458898223
 12
234.31609954015863
 22
10.81863729729821
 13
234.31609954015863
 23
10.81863729729821
  0
SOLID
  8
_f-f_
  6
CONTINUOUS
 62
    5
 10
233.7490795136022
 20
12.030232905347191
 11
233.69277264325217
 21
11.856303946266479
 12
233.74611586015862
 22
11.682740458898223
 13
233.74611586015862
 23
11.682740458898223
  0
SOLID
  8
_f-f_
  6
CONTINUOUS
 62
    5
 10
231.75858153825016
 20
14.827104307519747
 11
235.08661474015867
 21
14.909095047698244
 12
235.23671672676957
 22
14.943561152901822
 13
235.23671672676957
 23
14.943561152901822
  0
SOLID
  8
_f-f_
  6
CONTINUOUS
 62
    5
 10
231.75858153825016
 20
14.827104307519747
 11
233.61868450015868
 21
12.669167847698219
 12
235.08661474015867
 22
14.909095047698244
 13
235.08661474015867
 23
14.909095047698244
  0
SOLID
  8
_f-f_
  6
CONTINUOUS
 62
    5
 10
231.75858153825016
 20
14.827104307519747
 11
233.36184569383056
 21
12.528992955061909
 12
233.61868450015868
 22
12.669167847698219
 13
233.61868450015868
 23
12.669167847698219
  0
SOLID
  8
_f-f_
  6
CONTINUOUS
 62
    5
 10
231.75858153825016
 20
14.827104307519747
 11
233.14254562015859
 21
12.622541799698183
 12
233.36184569383056
 22
12.528992955061909
 13
233.36184569383056
 23
12.528992955061909
  0
SOLID
  8
_f-f_
  6
CONTINUOUS
 62
    5
 10
231.75858153825016
 20
14.827104307519747
 11
231.79611970015864
 21
14.683571175698262
 12
233.14254562015859
 22
12.622541799698183
 13
233.14254562015859
 23
12.622541799698183
  0
ARC
  8
_f-f_
  6
CONTINUOUS
 62
    1
 10
235.22789232415863
 20
14.712033315698221
 40
0.217477092
 50
328.13846999999998
 51
2.2615330000000116
  0
ARC
  8
_f-f_
  6
CONTINUOUS
 62
    1
 10
235.20651958255868
 20
14.716275265298208
 40
0.2387205912
 50
1.0417719999999999
 51
44.073639999999997
  0
ARC
  8
_f-f_
  6
CONTINUOUS
 62
    1
 10
235.19156286175863
 20
14.452033827698216
 40
0.4689556368
 50
66.570734999999999
 51
102.931843
  0
ARC
  8
_f-f_
  6
CONTINUOUS
 62
    1
 10
237.02758780495867
 20
14.814288750098285
 40
0.260279376
 50
324.36078900000001
 51
2.9529709999999993
  0
ARC
  8
_f-f_
  6
CONTINUOUS
 62
    1
 10
232.07207198095867
 20
14.832415614098267
 40
0.3135354768
 50
180.97063600000004
 51
208.34173000000004
  0
ARC
  8
_f-f_
  6
CONTINUOUS
 62
    1
 10
233.98573291615867
 20
11.857541216498191
 40
0.2929628856
 50
143.88086999999999
 51
180.24197799999999
  0
ARC
  8
_f-f_
  6
CONTINUOUS
 62
    1
 10
234.52945733935863
 20
11.04430852209822
 40
0.3105620784
 50
226.60652999999999
 51
269.63839899999999
  0
ARC
  8
_f-f_
  6
CONTINUOUS
 62
    1
 10
234.52688648575864
 20
11.041782944498237
 40
0.3080315616
 50
270.11356000000001
 51
328.41042499999998
  0
ARC
  8
_f-f_
  6
CONTINUOUS
 62
    1
 10
234.00220761775864
 20
11.856427426898193
 40
0.3094359408
 50
180.022864
 51
214.145926
  0
ARC
  8
_f-f_
  6
CONTINUOUS
 62
    1
 10
233.36445399775863
 20
12.838928151698155
 40
0.3099455016
 50
224.27817500000003
 51
269.51790500000004
  0
ARC
  8
_f-f_
  6
CONTINUOUS
 62
    1
 10
233.35885129855865
 20
12.839866599698212
 40
0.3108880655999999
 50
270.55186700000002
 51
326.69684100000006
  0
ARC
  8
_f-f_
  6
CONTINUOUS
 62
    1
 10
236.97555497935861
 20
14.823012200498198
 40
0.3120026784
 50
0.860427
 51
90.034943999999982
  0
ARC
  8
_f-f_
  6
CONTINUOUS
 62
    1
 10
232.06827949855861
 20
14.825122062098245
 40
0.309704304
 50
90.458761999999993
 51
179.63327899999999
  0
SOLID
  8
_f-f_
  6
CONTINUOUS
 62
   70
 10
235.3592583789839
 20
15.664101361536453
 11
236.00431761052957
 21
15.467422329706778
 12
236.2927671804093
 22
15.73818913178016
 13
236.2927671804093
 23
15.73818913178016
  0
SOLID
  8
_f-f_
  6
CONTINUOUS
 62
   70
 10
235.60029133369804
 20
16.279624399265259
 11
235.3592583789839
 21
15.664101361536453
 12
236.5328128054206
 22
16.353613516858246
 13
236.2927671804093
 23
15.73818913178016
  0
SOLID
  8
_f-f_
  6
CONTINUOUS
 62
   70
 10
236.19101981268187
 20
16.670512794070959
 11
235.60029133369804
 21
16.279624399265259
 12
236.42019869045436
 22
16.615391008345767
 13
236.5328128054206
 23
16.353613516858246
  0
ARC
  8
_f-f_
  6
CONTINUOUS
 62
    1
 10
236.00221070815871
 20
16.616671155698256
 40
1.1492505864
 50
235.98198100000002
 51
270.10504300000002
  0
ARC
  8
_f-f_
  6
CONTINUOUS
 62
    1
 10
235.63663664335866
 20
16.148141113298266
 40
0.7736713488000001
 50
298.37509499999999
 51
328.00274300000001
  0
ARC
  8
_f-f_
  6
CONTINUOUS
 62
    1
 10
234.71712471295865
 20
16.707292304498239
 40
1.8498135431999998
 50
328.40629300000006
 51
348.97735100000006
  0
ARC
  8
_f-f_
  6
CONTINUOUS
 62
    1
 10
237.17571194335866
 20
15.307750227698264
 40
1.8510779783999998
 50
148.329635
 51
168.90069299999999
  0
ARC
  8
_f-f_
  6
CONTINUOUS
 62
    1
 10
236.05002628015859
 20
16.301035695698289
 40
0.4856410776
 50
6.2152969999999996
 51
40.338358999999997
  0
SOLID
  8
_f-f_
  6
CONTINUOUS
 62
    5
 10
233.7490795136022
 20
12.030232905347191
 11
234.7892749001586
 21
10.88042668929819
 12
237.23911742342443
 22
14.662629348534509
 13
237.23911742342443
 23
14.662629348534509
  0
ARC
  8
_f-f_
  6
CONTINUOUS
 62
    1
 10
236.23946353375865
 20
16.367937159698243
 40
0.3064287911999999
 50
53.856383000000008
 51
99.096113000000003
  0
ARC
  8
_f-f_
  6
CONTINUOUS
 62
    1
 10
236.36472164575864
 20
15.766194423698238
 40
0.9208496303999999
 50
100.872968
 51
146.11269799999999
  0
LINE
  8
_f-f_
  6
CONTINUOUS
 62
    7
 10
267.37625600000001
 20
14.687935999999993
 11
267.06892800000003
 21
14.687935999999993
  0
LINE
  8
_f-f_
  6
CONTINUOUS
 62
    7
 10
267.06892800000003
 20
14.687935999999993
 11
267.06892800000003
 21
13.853760000000037
  0
LINE
  8
_f-f_
  6
CONTINUOUS
 62
    7
 10
267.04697599999997
 20
13.458624000000043
 11
267.02502399999992
 21
13.370815999999991
  0
LINE
  8
_f-f_
  6
CONTINUOUS
 62
    7
 10
267.02502399999992
 20
13.370815999999991
 11
267.02502399999992
 21
13.326912000000021
  0
LINE
  8
_f-f_
  6
CONTINUOUS
 62
    7
 10
267.02502399999992
 20
13.326912000000021
 11
266.99209599999995
 21
13.195199999999971
  0
LINE
  8
_f-f_
  6
CONTINUOUS
 62
    7
 10
266.99209599999995
 20
13.195199999999971
 11
266.97014399999995
 21
13.151296000000031
  0
LINE
  8
_f-f_
  6
CONTINUOUS
 62
    7
 10
266.97014399999995
 20
13.151296000000031
 11
266.93721599999992
 21
13.019583999999952
  0
LINE
  8
_f-f_
  6
CONTINUOUS
 62
    7
 10
266.93721599999992
 20
13.019583999999952
 11
266.91526399999998
 21
12.975680000000011
  0
LINE
  8
_f-f_
  6
CONTINUOUS
 62
    7
 10
266.91526399999998
 20
12.975680000000011
 11
266.90428799999995
 21
12.931776000000013
  0
LINE
  8
_f-f_
  6
CONTINUOUS
 62
    7
 10
266.90428799999995
 20
12.931776000000013
 11
266.88233600000001
 21
12.887871999999987
  0
LINE
  8
_f-f_
  6
CONTINUOUS
 62
    7
 10
266.88233600000001
 20
12.887871999999987
 11
266.87135999999998
 21
12.84396799999999
  0
LINE
  8
_f-f_
  6
CONTINUOUS
 62
    7
 10
266.87135999999998
 20
12.84396799999999
 11
266.82745599999998
 21
12.756160000000023
  0
LINE
  8
_f-f_
  6
CONTINUOUS
 62
    7
 10
266.82745599999998
 20
12.756160000000023
 11
266.81647999999996
 21
12.712256000000025
  0
LINE
  8
_f-f_
  6
CONTINUOUS
 62
    7
 10
266.81647999999996
 20
12.712256000000025
 11
266.7506239999999
 21
12.580544000000003
  0
LINE
  8
_f-f_
  6
CONTINUOUS
 62
    7
 10
266.7506239999999
 20
12.580544000000003
 11
266.71769599999999
 21
12.536639999999977
  0
LINE
  8
_f-f_
  6
CONTINUOUS
 62
    7
 10
266.71769599999999
 20
12.536639999999977
 11
266.67379199999993
 21
12.448831999999982
  0
LINE
  8
_f-f_
  6
CONTINUOUS
 62
    7
 10
266.67379199999993
 20
12.448831999999982
 11
266.64086399999997
 21
12.404927999999984
  0
LINE
  8
_f-f_
  6
CONTINUOUS
 62
    7
 10
266.64086399999997
 20
12.404927999999984
 11
266.61891199999997
 21
12.361024000000015
  0
LINE
  8
_f-f_
  6
CONTINUOUS
 62
    7
 10
266.61891199999997
 20
12.361024000000015
 11
266.48719999999992
 21
12.185407999999995
  0
LINE
  8
_f-f_
  6
CONTINUOUS
 62
    7
 10
266.48719999999992
 20
12.185407999999995
 11
266.44329599999992
 21
12.141503999999998
  0
LINE
  8
_f-f_
  6
CONTINUOUS
 62
    7
 10
266.44329599999992
 20
12.141503999999998
 11
266.41036799999995
 21
12.0976
  0
LINE
  8
_f-f_
  6
CONTINUOUS
 62
    7
 10
266.41036799999995
 20
12.0976
 11
266.36646399999995
 21
12.053696000000031
  0
LINE
  8
_f-f_
  6
CONTINUOUS
 62
    7
 10
266.36646399999995
 20
12.053696000000031
 11
266.36646399999995
 21
12.009792000000004
  0
LINE
  8
_f-f_
  6
CONTINUOUS
 62
    7
 10
266.36646399999995
 20
12.009792000000004
 11
266.38841599999989
 21
11.965888000000007
  0
LINE
  8
_f-f_
  6
CONTINUOUS
 62
    7
 10
266.38841599999989
 20
11.965888000000007
 11
266.42134399999998
 21
11.921984000000009
  0
LINE
  8
_f-f_
  6
CONTINUOUS
 62
    7
 10
266.42134399999998
 20
11.921984000000009
 11
266.44329599999992
 21
11.878080000000011
  0
LINE
  8
_f-f_
  6
CONTINUOUS
 62
    7
 10
266.44329599999992
 20
11.878080000000011
 11
266.476224
 21
11.834176000000014
  0
LINE
  8
_f-f_
  6
CONTINUOUS
 62
    7
 10
266.476224
 20
11.834176000000014
 11
266.49817599999994
 21
11.790272000000016
  0
LINE
  8
_f-f_
  6
CONTINUOUS
 62
    7
 10
266.49817599999994
 20
11.790272000000016
 11
266.53110399999997
 21
11.746368000000018
  0
LINE
  8
_f-f_
  6
CONTINUOUS
 62
    7
 10
266.53110399999997
 20
11.746368000000018
 11
266.55305599999997
 21
11.70246400000002
  0
LINE
  8
_f-f_
  6
CONTINUOUS
 62
    7
 10
269.22022399999992
 20
14.687935999999993
 11
268.9019199999999
 21
14.687935999999993
  0
LINE
  8
_f-f_
  6
CONTINUOUS
 62
    7
 10
268.9019199999999
 20
14.687935999999993
 11
268.9019199999999
 21
13.941568000000032
  0
LINE
  8
_f-f_
  6
CONTINUOUS
 62
    7
 10
268.9019199999999
 20
13.941568000000032
 11
268.56166399999995
 21
13.941568000000032
  0
LINE
  8
_f-f_
  6
CONTINUOUS
 62
    7
 10
268.37507199999993
 20
14.336704000000026
 11
268.35311999999999
 21
14.336704000000026
  0
LINE
  8
_f-f_
  6
CONTINUOUS
 62
    7
 10
268.35311999999999
 20
14.336704000000026
 11
268.34214399999996
 21
14.292800000000028
  0
LINE
  8
_f-f_
  6
CONTINUOUS
 62
    7
 10
268.34214399999996
 20
14.292800000000028
 11
268.32019199999996
 21
14.248896000000016
  0
LINE
  8
_f-f_
  6
CONTINUOUS
 62
    7
 10
268.32019199999996
 20
14.248896000000016
 11
268.29823999999996
 21
14.161087999999992
  0
LINE
  8
_f-f_
  6
CONTINUOUS
 62
    7
 10
268.29823999999996
 20
14.161087999999992
 11
268.27628800000002
 21
14.117184000000023
  0
LINE
  8
_f-f_
  6
CONTINUOUS
 62
    7
 10
268.27628800000002
 20
14.117184000000023
 11
268.26531199999999
 21
14.073279999999997
  0
LINE
  8
_f-f_
  6
CONTINUOUS
 62
    7
 10
268.26531199999999
 20
14.073279999999997
 11
268.24335999999994
 21
14.029375999999999
  0
LINE
  8
_f-f_
  6
CONTINUOUS
 62
    7
 10
268.24335999999994
 20
14.029375999999999
 11
268.23238399999997
 21
13.985471999999987
  0
LINE
  8
_f-f_
  6
CONTINUOUS
 62
    7
 10
268.23238399999997
 20
13.985471999999987
 11
268.18847999999991
 21
13.897663999999992
  0
LINE
  8
_f-f_
  6
CONTINUOUS
 62
    7
 10
268.18847999999991
 20
13.897663999999992
 11
268.17750399999989
 21
13.853760000000037
  0
LINE
  8
_f-f_
  6
CONTINUOUS
 62
    7
 10
268.17750399999989
 20
13.853760000000037
 11
268.11164799999995
 21
13.722048000000001
  0
LINE
  8
_f-f_
  6
CONTINUOUS
 62
    7
 10
268.11164799999995
 20
13.722048000000001
 11
268.07871999999998
 21
13.678143999999975
  0
LINE
  8
_f-f_
  6
CONTINUOUS
 62
    7
 10
268.07871999999998
 20
13.678143999999975
 11
268.03481599999992
 21
13.590336000000008
  0
LINE
  8
_f-f_
  6
CONTINUOUS
 62
    7
 10
268.03481599999992
 20
13.590336000000008
 11
267.90310399999998
 21
13.414720000000017
  0
LINE
  8
_f-f_
  6
CONTINUOUS
 62
    7
 10
267.90310399999998
 20
13.414720000000017
 11
267.85919999999999
 21
13.370815999999991
  0
LINE
  8
_f-f_
  6
CONTINUOUS
 62
    7
 10
267.85919999999999
 20
13.370815999999991
 11
267.99091199999998
 21
13.239103999999998
  0
LINE
  8
_f-f_
  6
CONTINUOUS
 62
    7
 10
267.99091199999998
 20
13.239103999999998
 11
268.02383999999995
 21
13.195199999999971
  0
LINE
  8
_f-f_
  6
CONTINUOUS
 62
    7
 10
268.02383999999995
 20
13.195199999999971
 11
268.11164799999995
 21
13.107392000000061
  0
LINE
  8
_f-f_
  6
CONTINUOUS
 62
    7
 10
268.9019199999999
 20
13.546432000000038
 11
268.9019199999999
 21
13.019583999999952
  0
LINE
  8
_f-f_
  6
CONTINUOUS
 62
    7
 10
268.87996799999996
 20
12.624447999999973
 11
268.85801599999996
 21
12.580544000000003
  0
LINE
  8
_f-f_
  6
CONTINUOUS
 62
    7
 10
268.85801599999996
 20
12.580544000000003
 11
268.82508799999994
 21
12.536639999999977
  0
LINE
  8
_f-f_
  6
CONTINUOUS
 62
    7
 10
268.82508799999994
 20
12.536639999999977
 11
268.80313599999999
 21
12.492735999999979
  0
LINE
  8
_f-f_
  6
CONTINUOUS
 62
    7
 10
268.80313599999999
 20
12.492735999999979
 11
268.70435199999997
 21
12.361024000000015
  0
LINE
  8
_f-f_
  6
CONTINUOUS
 62
    7
 10
268.70435199999997
 20
12.361024000000015
 11
268.68239999999997
 21
12.317120000000017
  0
LINE
  8
_f-f_
  6
CONTINUOUS
 62
    7
 10
268.68239999999997
 20
12.317120000000017
 11
268.64947199999995
 21
12.273216000000019
  0
LINE
  8
_f-f_
  6
CONTINUOUS
 62
    7
 10
268.64947199999995
 20
12.273216000000019
 11
268.60556799999995
 21
12.229311999999993
  0
LINE
  8
_f-f_
  6
CONTINUOUS
 62
    7
 10
268.60556799999995
 20
12.229311999999993
 11
268.50678399999998
 21
12.0976
  0
LINE
  8
_f-f_
  6
CONTINUOUS
 62
    7
 10
268.50678399999998
 20
12.0976
 11
268.41897599999993
 21
12.009792000000004
  0
LINE
  8
_f-f_
  6
CONTINUOUS
 62
    7
 10
268.41897599999993
 20
12.009792000000004
 11
268.38604799999996
 21
11.965888000000007
  0
LINE
  8
_f-f_
  6
CONTINUOUS
 62
    7
 10
268.38604799999996
 20
11.965888000000007
 11
268.21043199999997
 21
11.790272000000016
  0
LINE
  8
_f-f_
  6
CONTINUOUS
 62
    7
 10
268.21043199999997
 20
11.790272000000016
 11
268.15555199999994
 21
11.746368000000018
  0
LINE
  8
_f-f_
  6
CONTINUOUS
 62
    7
 10
268.15555199999994
 20
11.746368000000018
 11
268.11164799999995
 21
11.70246400000002
  0
LINE
  8
_f-f_
  6
CONTINUOUS
 62
    7
 10
268.11164799999995
 20
11.70246400000002
 11
268.05676799999998
 21
11.658559999999994
  0
LINE
  8
_f-f_
  6
CONTINUOUS
 62
    7
 10
268.05676799999998
 20
11.658559999999994
 11
268.01286399999992
 21
11.614655999999997
  0
LINE
  8
_f-f_
  6
CONTINUOUS
 62
    7
 10
268.01286399999992
 20
11.614655999999997
 11
267.95798399999995
 21
11.570752000000027
  0
LINE
  8
_f-f_
  6
CONTINUOUS
 62
    7
 10
267.95798399999995
 20
11.570752000000027
 11
267.89212799999996
 21
11.52684800000003
  0
LINE
  8
_f-f_
  6
CONTINUOUS
 62
    7
 10
267.89212799999996
 20
11.52684800000003
 11
267.72748799999999
 21
11.395136000000008
  0
LINE
  8
_f-f_
  6
CONTINUOUS
 62
    7
 10
267.72748799999999
 20
11.395136000000008
 11
267.79334399999999
 21
11.263423999999986
  0
LINE
  8
_f-f_
  6
CONTINUOUS
 62
    7
 10
267.79334399999999
 20
11.263423999999986
 11
267.8262719999999
 21
11.219519999999989
  0
LINE
  8
_f-f_
  6
CONTINUOUS
 62
    7
 10
267.8262719999999
 20
11.219519999999989
 11
267.89212799999996
 21
11.087808000000024
  0
LINE
  8
_f-f_
  6
CONTINUOUS
 62
    7
 10
267.44211199999995
 20
12.536639999999977
 11
267.48601599999995
 21
12.492735999999979
  0
LINE
  8
_f-f_
  6
CONTINUOUS
 62
    7
 10
267.48601599999995
 20
12.492735999999979
 11
267.61772799999994
 21
12.317120000000017
  0
LINE
  8
_f-f_
  6
CONTINUOUS
 62
    7
 10
267.61772799999994
 20
12.317120000000017
 11
267.63968
 21
12.273216000000019
  0
LINE
  8
_f-f_
  6
CONTINUOUS
 62
    7
 10
267.63968
 20
12.273216000000019
 11
267.67260799999997
 21
12.229311999999993
  0
LINE
  8
_f-f_
  6
CONTINUOUS
 62
    7
 10
267.67260799999997
 20
12.229311999999993
 11
267.69455999999997
 21
12.185407999999995
  0
LINE
  8
_f-f_
  6
CONTINUOUS
 62
    7
 10
267.69455999999997
 20
12.185407999999995
 11
267.72748799999999
 21
12.141503999999998
  0
LINE
  8
_f-f_
  6
CONTINUOUS
 62
    7
 10
267.06892800000003
 20
12.448831999999982
 11
267.06892800000003
 21
10.736576000000014
  0
LINE
  8
_f-f_
  6
CONTINUOUS
 62
    7
 10
268.9019199999999
 20
12.0976
 11
268.9019199999999
 21
10.736576000000014
  0
LINE
  8
_f-f_
  6
CONTINUOUS
 62
    7
 10
269.27510399999994
 20
12.0976
 11
269.37388799999991
 21
11.965888000000007
  0
LINE
  8
_f-f_
  6
CONTINUOUS
 62
    7
 10
269.37388799999991
 20
11.965888000000007
 11
269.41779199999996
 21
11.921984000000009
  0
LINE
  8
_f-f_
  6
CONTINUOUS
 62
    7
 10
269.41779199999996
 20
11.921984000000009
 11
269.45071999999993
 21
11.878080000000011
  0
LINE
  8
_f-f_
  6
CONTINUOUS
 62
    7
 10
269.45071999999993
 20
11.878080000000011
 11
269.49462399999999
 21
11.834176000000014
  0
LINE
  8
_f-f_
  6
CONTINUOUS
 62
    7
 10
269.49462399999999
 20
11.834176000000014
 11
269.5275519999999
 21
11.790272000000016
  0
LINE
  8
_f-f_
  6
CONTINUOUS
 62
    7
 10
269.5275519999999
 20
11.790272000000016
 11
269.70316800000001
 21
11.614655999999997
  0
LINE
  8
_f-f_
  6
CONTINUOUS
 62
    7
 10
269.70316800000001
 20
11.614655999999997
 11
269.75804799999997
 21
11.570752000000027
  0
LINE
  8
_f-f_
  6
CONTINUOUS
 62
    7
 10
269.75804799999997
 20
11.570752000000027
 11
269.80195199999991
 21
11.52684800000003
  0
LINE
  8
_f-f_
  6
CONTINUOUS
 62
    7
 10
269.80195199999991
 20
11.52684800000003
 11
269.91171199999997
 21
11.439040000000034
  0
LINE
  8
_f-f_
  6
CONTINUOUS
 62
    7
 10
269.91171199999997
 20
11.439040000000034
 11
269.95561599999996
 21
11.395136000000008
  0
LINE
  8
_f-f_
  6
CONTINUOUS
 62
    7
 10
269.95561599999996
 20
11.395136000000008
 11
270.01049599999999
 21
11.35123200000001
  0
LINE
  8
_f-f_
  6
CONTINUOUS
 62
    7
 10
270.01049599999999
 20
11.35123200000001
 11
270.07635199999993
 21
11.307327999999984
  0
LINE
  8
_f-f_
  6
CONTINUOUS
 62
    7
 10
270.07635199999993
 20
11.307327999999984
 11
270.18611199999998
 21
11.219519999999989
  0
LINE
  8
_f-f_
  6
CONTINUOUS
 62
    7
 10
267.37625600000001
 20
14.687935999999993
 11
267.44211199999995
 21
14.644031999999967
  0
LINE
  8
_f-f_
  6
CONTINUOUS
 62
    7
 10
267.44211199999995
 20
14.644031999999967
 11
267.39820799999995
 21
14.600128000000012
  0
LINE
  8
_f-f_
  6
CONTINUOUS
 62
    7
 10
267.39820799999995
 20
14.600128000000012
 11
267.38723200000004
 21
14.556224000000014
  0
LINE
  8
_f-f_
  6
CONTINUOUS
 62
    7
 10
267.38723200000004
 20
14.556224000000014
 11
267.38723200000004
 21
13.853760000000037
  0
LINE
  8
_f-f_
  6
CONTINUOUS
 62
    7
 10
267.38723200000004
 20
13.458624000000043
 11
267.38723200000004
 21
12.975680000000011
  0
LINE
  8
_f-f_
  6
CONTINUOUS
 62
    7
 10
267.38723200000004
 20
12.975680000000011
 11
267.51894399999992
 21
12.887871999999987
  0
LINE
  8
_f-f_
  6
CONTINUOUS
 62
    7
 10
267.51894399999992
 20
12.887871999999987
 11
267.683584
 21
12.756160000000023
  0
LINE
  8
_f-f_
  6
CONTINUOUS
 62
    7
 10
267.683584
 20
12.756160000000023
 11
267.90310399999998
 21
12.536639999999977
  0
LINE
  8
_f-f_
  6
CONTINUOUS
 62
    7
 10
267.90310399999998
 20
12.536639999999977
 11
267.96895999999992
 21
12.448831999999982
  0
LINE
  8
_f-f_
  6
CONTINUOUS
 62
    7
 10
267.96895999999992
 20
12.448831999999982
 11
267.80431999999996
 21
12.229311999999993
  0
LINE
  8
_f-f_
  6
CONTINUOUS
 62
    7
 10
267.80431999999996
 20
12.229311999999993
 11
267.76041599999996
 21
12.185407999999995
  0
LINE
  8
_f-f_
  6
CONTINUOUS
 62
    7
 10
267.76041599999996
 20
12.185407999999995
 11
267.72748799999999
 21
12.141503999999998
  0
LINE
  8
_f-f_
  6
CONTINUOUS
 62
    7
 10
269.22022399999992
 20
14.687935999999993
 11
269.27510399999994
 21
14.644031999999967
  0
LINE
  8
_f-f_
  6
CONTINUOUS
 62
    7
 10
269.27510399999994
 20
14.644031999999967
 11
269.23119999999994
 21
14.600128000000012
  0
LINE
  8
_f-f_
  6
CONTINUOUS
 62
    7
 10
269.23119999999994
 20
14.600128000000012
 11
269.23119999999994
 21
13.941568000000032
  0
LINE
  8
_f-f_
  6
CONTINUOUS
 62
    7
 10
269.23119999999994
 20
13.546432000000038
 11
269.23119999999994
 21
13.019583999999952
  0
LINE
  8
_f-f_
  6
CONTINUOUS
 62
    7
 10
269.26412799999991
 20
12.624447999999973
 11
269.28607999999997
 21
12.580544000000003
  0
LINE
  8
_f-f_
  6
CONTINUOUS
 62
    7
 10
269.28607999999997
 20
12.580544000000003
 11
269.48364800000002
 21
12.317120000000017
  0
LINE
  8
_f-f_
  6
CONTINUOUS
 62
    7
 10
269.48364800000002
 20
12.317120000000017
 11
269.5275519999999
 21
12.273216000000019
  0
LINE
  8
_f-f_
  6
CONTINUOUS
 62
    7
 10
269.5275519999999
 20
12.273216000000019
 11
269.56047999999998
 21
12.229311999999993
  0
LINE
  8
_f-f_
  6
CONTINUOUS
 62
    7
 10
269.56047999999998
 20
12.229311999999993
 11
269.64828799999998
 21
12.141503999999998
  0
LINE
  8
_f-f_
  6
CONTINUOUS
 62
    7
 10
269.64828799999998
 20
12.141503999999998
 11
269.70316800000001
 21
12.0976
  0
LINE
  8
_f-f_
  6
CONTINUOUS
 62
    7
 10
269.70316800000001
 20
12.0976
 11
269.74707199999995
 21
12.053696000000031
  0
LINE
  8
_f-f_
  6
CONTINUOUS
 62
    7
 10
269.74707199999995
 20
12.053696000000031
 11
270.02147199999996
 21
11.834176000000014
  0
LINE
  8
_f-f_
  6
CONTINUOUS
 62
    7
 10
270.02147199999996
 20
11.834176000000014
 11
270.35075199999994
 21
11.614655999999997
  0
LINE
  8
_f-f_
  6
CONTINUOUS
 62
    7
 10
270.35075199999994
 20
11.614655999999997
 11
270.42758399999991
 21
11.570752000000027
  0
LINE
  8
_f-f_
  6
CONTINUOUS
 62
    7
 10
270.42758399999991
 20
11.570752000000027
 11
270.38367999999997
 21
11.482944000000003
  0
LINE
  8
_f-f_
  6
CONTINUOUS
 62
    7
 10
270.38367999999997
 20
11.482944000000003
 11
270.35075199999994
 21
11.439040000000034
  0
LINE
  8
_f-f_
  6
CONTINUOUS
 62
    7
 10
270.35075199999994
 20
11.439040000000034
 11
270.24099199999989
 21
11.219519999999989
  0
LINE
  8
_f-f_
  6
CONTINUOUS
 62
    7
 10
270.24099199999989
 20
11.219519999999989
 11
270.18611199999998
 21
11.219519999999989
  0
LINE
  8
_f-f_
  6
CONTINUOUS
 62
    7
 10
268.37507199999993
 20
14.336704000000026
 11
268.55068799999992
 21
14.292800000000028
  0
LINE
  8
_f-f_
  6
CONTINUOUS
 62
    7
 10
268.55068799999992
 20
14.292800000000028
 11
268.70435199999997
 21
14.248896000000016
  0
LINE
  8
_f-f_
  6
CONTINUOUS
 62
    7
 10
268.70435199999997
 20
14.248896000000016
 11
268.70435199999997
 21
14.204992000000018
  0
LINE
  8
_f-f_
  6
CONTINUOUS
 62
    7
 10
268.70435199999997
 20
14.204992000000018
 11
268.63849599999992
 21
14.161087999999992
  0
LINE
  8
_f-f_
  6
CONTINUOUS
 62
    7
 10
268.63849599999992
 20
14.161087999999992
 11
268.62752
 21
14.117184000000023
  0
LINE
  8
_f-f_
  6
CONTINUOUS
 62
    7
 10
268.62752
 20
14.117184000000023
 11
268.60556799999995
 21
14.073279999999997
  0
LINE
  8
_f-f_
  6
CONTINUOUS
 62
    7
 10
268.60556799999995
 20
14.073279999999997
 11
268.58361600000001
 21
13.985471999999987
  0
LINE
  8
_f-f_
  6
CONTINUOUS
 62
    7
 10
268.58361600000001
 20
13.985471999999987
 11
268.56166399999995
 21
13.941568000000032
  0
LINE
  8
_f-f_
  6
CONTINUOUS
 62
    7
 10
268.9019199999999
 20
13.546432000000038
 11
268.40799999999996
 21
13.546432000000038
  0
LINE
  8
_f-f_
  6
CONTINUOUS
 62
    7
 10
268.40799999999996
 20
13.546432000000038
 11
268.34214399999996
 21
13.414720000000017
  0
LINE
  8
_f-f_
  6
CONTINUOUS
 62
    7
 10
268.34214399999996
 20
13.414720000000017
 11
268.30921599999999
 21
13.370815999999991
  0
LINE
  8
_f-f_
  6
CONTINUOUS
 62
    7
 10
268.30921599999999
 20
13.370815999999991
 11
268.26531199999999
 21
13.283008000000024
  0
LINE
  8
_f-f_
  6
CONTINUOUS
 62
    7
 10
268.26531199999999
 20
13.283008000000024
 11
268.13359999999994
 21
13.107392000000061
  0
LINE
  8
_f-f_
  6
CONTINUOUS
 62
    7
 10
268.13359999999994
 20
13.107392000000061
 11
268.11164799999995
 21
13.107392000000061
  0
LINE
  8
_f-f_
  6
CONTINUOUS
 62
    7
 10
267.44211199999995
 20
12.536639999999977
 11
267.38723200000004
 21
12.536639999999977
  0
LINE
  8
_f-f_
  6
CONTINUOUS
 62
    7
 10
267.38723200000004
 20
12.536639999999977
 11
267.38723200000004
 21
10.736576000000014
  0
LINE
  8
_f-f_
  6
CONTINUOUS
 62
    7
 10
267.38723200000004
 20
10.736576000000014
 11
267.06892800000003
 21
10.736576000000014
  0
LINE
  8
_f-f_
  6
CONTINUOUS
 62
    7
 10
267.06892800000003
 20
12.448831999999982
 11
267.03599999999994
 21
12.448831999999982
  0
LINE
  8
_f-f_
  6
CONTINUOUS
 62
    7
 10
267.03599999999994
 20
12.448831999999982
 11
266.99209599999995
 21
12.361024000000015
  0
LINE
  8
_f-f_
  6
CONTINUOUS
 62
    7
 10
266.99209599999995
 20
12.361024000000015
 11
266.98111999999998
 21
12.317120000000017
  0
LINE
  8
_f-f_
  6
CONTINUOUS
 62
    7
 10
266.98111999999998
 20
12.317120000000017
 11
266.91526399999998
 21
12.185407999999995
  0
LINE
  8
_f-f_
  6
CONTINUOUS
 62
    7
 10
266.91526399999998
 20
12.185407999999995
 11
266.88233600000001
 21
12.141503999999998
  0
LINE
  8
_f-f_
  6
CONTINUOUS
 62
    7
 10
266.88233600000001
 20
12.141503999999998
 11
266.8384319999999
 21
12.053696000000031
  0
LINE
  8
_f-f_
  6
CONTINUOUS
 62
    7
 10
266.8384319999999
 20
12.053696000000031
 11
266.77257599999996
 21
11.965888000000007
  0
LINE
  8
_f-f_
  6
CONTINUOUS
 62
    7
 10
266.77257599999996
 20
11.965888000000007
 11
266.7506239999999
 21
11.921984000000009
  0
LINE
  8
_f-f_
  6
CONTINUOUS
 62
    7
 10
266.7506239999999
 20
11.921984000000009
 11
266.65183999999999
 21
11.790272000000016
  0
LINE
  8
_f-f_
  6
CONTINUOUS
 62
    7
 10
266.65183999999999
 20
11.790272000000016
 11
266.607936
 21
11.746368000000018
  0
LINE
  8
_f-f_
  6
CONTINUOUS
 62
    7
 10
266.607936
 20
11.746368000000018
 11
266.57500799999991
 21
11.70246400000002
  0
LINE
  8
_f-f_
  6
CONTINUOUS
 62
    7
 10
266.57500799999991
 20
11.70246400000002
 11
266.55305599999997
 21
11.70246400000002
  0
LINE
  8
_f-f_
  6
CONTINUOUS
 62
    7
 10
268.9019199999999
 20
12.0976
 11
268.87996799999996
 21
12.0976
  0
LINE
  8
_f-f_
  6
CONTINUOUS
 62
    7
 10
268.87996799999996
 20
12.0976
 11
268.84703999999994
 21
12.053696000000031
  0
LINE
  8
_f-f_
  6
CONTINUOUS
 62
    7
 10
268.84703999999994
 20
12.053696000000031
 11
268.82508799999994
 21
12.009792000000004
  0
LINE
  8
_f-f_
  6
CONTINUOUS
 62
    7
 10
268.82508799999994
 20
12.009792000000004
 11
268.79215999999997
 21
11.965888000000007
  0
LINE
  8
_f-f_
  6
CONTINUOUS
 62
    7
 10
268.79215999999997
 20
11.965888000000007
 11
268.77020799999997
 21
11.921984000000009
  0
LINE
  8
_f-f_
  6
CONTINUOUS
 62
    7
 10
268.77020799999997
 20
11.921984000000009
 11
268.60556799999995
 21
11.70246400000002
  0
LINE
  8
_f-f_
  6
CONTINUOUS
 62
    7
 10
268.60556799999995
 20
11.70246400000002
 11
268.56166399999995
 21
11.658559999999994
  0
LINE
  8
_f-f_
  6
CONTINUOUS
 62
    7
 10
268.56166399999995
 20
11.658559999999994
 11
268.52873599999998
 21
11.614655999999997
  0
LINE
  8
_f-f_
  6
CONTINUOUS
 62
    7
 10
268.52873599999998
 20
11.614655999999997
 11
268.26531199999999
 21
11.35123200000001
  0
LINE
  8
_f-f_
  6
CONTINUOUS
 62
    7
 10
268.26531199999999
 20
11.35123200000001
 11
267.99091199999998
 21
11.131712000000022
  0
LINE
  8
_f-f_
  6
CONTINUOUS
 62
    7
 10
267.99091199999998
 20
11.131712000000022
 11
267.92505599999993
 21
11.087808000000024
  0
LINE
  8
_f-f_
  6
CONTINUOUS
 62
    7
 10
267.92505599999993
 20
11.087808000000024
 11
267.89212799999996
 21
11.087808000000024
  0
LINE
  8
_f-f_
  6
CONTINUOUS
 62
    7
 10
269.27510399999994
 20
12.0976
 11
269.23119999999994
 21
12.0976
  0
LINE
  8
_f-f_
  6
CONTINUOUS
 62
    7
 10
269.23119999999994
 20
12.0976
 11
269.23119999999994
 21
10.736576000000014
  0
LINE
  8
_f-f_
  6
CONTINUOUS
 62
    7
 10
269.23119999999994
 20
10.736576000000014
 11
268.9019199999999
 21
10.736576000000014
  0
LINE
  8
_f-f_
  6
CONTINUOUS
 62
    7
 10
273.48988799999995
 20
14.600128000000012
 11
273.07279999999992
 21
14.600128000000012
  0
LINE
  8
_f-f_
  6
CONTINUOUS
 62
    7
 10
273.07279999999992
 20
14.600128000000012
 11
273.07279999999992
 21
13.853760000000037
  0
LINE
  8
_f-f_
  6
CONTINUOUS
 62
    7
 10
273.083776
 20
13.458624000000043
 11
273.083776
 21
13.414720000000017
  0
LINE
  8
_f-f_
  6
CONTINUOUS
 62
    7
 10
273.083776
 20
13.414720000000017
 11
273.09475199999997
 21
13.370815999999991
  0
LINE
  8
_f-f_
  6
CONTINUOUS
 62
    7
 10
273.09475199999997
 20
13.370815999999991
 11
273.09475199999997
 21
13.151296000000031
  0
LINE
  8
_f-f_
  6
CONTINUOUS
 62
    7
 10
273.09475199999997
 20
13.151296000000031
 11
273.105728
 21
13.107392000000061
  0
LINE
  8
_f-f_
  6
CONTINUOUS
 62
    7
 10
273.105728
 20
13.107392000000061
 11
273.105728
 21
12.975680000000011
  0
LINE
  8
_f-f_
  6
CONTINUOUS
 62
    7
 10
273.105728
 20
12.975680000000011
 11
273.11670399999991
 21
12.931776000000013
  0
LINE
  8
_f-f_
  6
CONTINUOUS
 62
    7
 10
273.11670399999991
 20
12.931776000000013
 11
273.11670399999991
 21
12.84396799999999
  0
LINE
  8
_f-f_
  6
CONTINUOUS
 62
    7
 10
273.11670399999991
 20
12.84396799999999
 11
273.12767999999994
 21
12.800064000000049
  0
LINE
  8
_f-f_
  6
CONTINUOUS
 62
    7
 10
273.12767999999994
 20
12.800064000000049
 11
273.12767999999994
 21
12.756160000000023
  0
LINE
  8
_f-f_
  6
CONTINUOUS
 62
    7
 10
273.12767999999994
 20
12.756160000000023
 11
273.13865599999997
 21
12.712256000000025
  0
LINE
  8
_f-f_
  6
CONTINUOUS
 62
    7
 10
273.13865599999997
 20
12.712256000000025
 11
273.13865599999997
 21
12.668351999999999
  0
LINE
  8
_f-f_
  6
CONTINUOUS
 62
    7
 10
273.13865599999997
 20
12.668351999999999
 11
273.149632
 21
12.624447999999973
  0
LINE
  8
_f-f_
  6
CONTINUOUS
 62
    7
 10
273.149632
 20
12.624447999999973
 11
273.149632
 21
12.580544000000003
  0
LINE
  8
_f-f_
  6
CONTINUOUS
 62
    7
 10
273.149632
 20
12.580544000000003
 11
273.17158399999994
 21
12.492735999999979
  0
LINE
  8
_f-f_
  6
CONTINUOUS
 62
    7
 10
273.17158399999994
 20
12.492735999999979
 11
273.17158399999994
 21
12.448831999999982
  0
LINE
  8
_f-f_
  6
CONTINUOUS
 62
    7
 10
273.17158399999994
 20
12.448831999999982
 11
273.20451199999991
 21
12.317120000000017
  0
LINE
  8
_f-f_
  6
CONTINUOUS
 62
    7
 10
273.20451199999991
 20
12.317120000000017
 11
273.20451199999991
 21
12.273216000000019
  0
LINE
  8
_f-f_
  6
CONTINUOUS
 62
    7
 10
273.20451199999991
 20
12.273216000000019
 11
273.25939199999999
 21
12.053696000000031
  0
LINE
  8
_f-f_
  6
CONTINUOUS
 62
    7
 10
273.25939199999999
 20
12.053696000000031
 11
273.28134399999999
 21
12.009792000000004
  0
LINE
  8
_f-f_
  6
CONTINUOUS
 62
    7
 10
273.28134399999999
 20
12.009792000000004
 11
273.31427199999996
 21
11.878080000000011
  0
LINE
  8
_f-f_
  6
CONTINUOUS
 62
    7
 10
273.31427199999996
 20
11.878080000000011
 11
273.3362239999999
 21
11.834176000000014
  0
LINE
  8
_f-f_
  6
CONTINUOUS
 62
    7
 10
273.3362239999999
 20
11.834176000000014
 11
273.34719999999999
 21
11.790272000000016
  0
LINE
  8
_f-f_
  6
CONTINUOUS
 62
    7
 10
273.34719999999999
 20
11.790272000000016
 11
273.41305599999998
 21
11.658559999999994
  0
LINE
  8
_f-f_
  6
CONTINUOUS
 62
    7
 10
273.41305599999998
 20
11.658559999999994
 11
273.42403199999995
 21
11.614655999999997
  0
LINE
  8
_f-f_
  6
CONTINUOUS
 62
    7
 10
273.42403199999995
 20
11.614655999999997
 11
273.44598400000001
 21
11.570752000000027
  0
LINE
  8
_f-f_
  6
CONTINUOUS
 62
    7
 10
273.44598400000001
 20
11.570752000000027
 11
273.47891199999992
 21
11.52684800000003
  0
LINE
  8
_f-f_
  6
CONTINUOUS
 62
    7
 10
273.47891199999992
 20
11.52684800000003
 11
273.52281599999992
 21
11.439040000000034
  0
LINE
  8
_f-f_
  6
CONTINUOUS
 62
    7
 10
273.52281599999992
 20
11.439040000000034
 11
273.555744
 21
11.395136000000008
  0
LINE
  8
_f-f_
  6
CONTINUOUS
 62
    7
 10
273.555744
 20
11.395136000000008
 11
273.57769599999995
 21
11.35123200000001
  0
LINE
  8
_f-f_
  6
CONTINUOUS
 62
    7
 10
273.57769599999995
 20
11.35123200000001
 11
273.70940799999994
 21
11.175616000000019
  0
LINE
  8
_f-f_
  6
CONTINUOUS
 62
    7
 10
273.70940799999994
 20
11.175616000000019
 11
273.79721599999993
 21
11.087808000000024
  0
LINE
  8
_f-f_
  6
CONTINUOUS
 62
    7
 10
273.79721599999993
 20
11.087808000000024
 11
273.85209599999996
 21
11.043903999999998
  0
LINE
  8
_f-f_
  6
CONTINUOUS
 62
    7
 10
273.85209599999996
 20
11.043903999999998
 11
273.98380799999995
 21
10.956095999999974
  0
LINE
  8
_f-f_
  6
CONTINUOUS
 62
    7
 10
273.98380799999995
 20
10.956095999999974
 11
274.093568
 21
10.912192000000005
  0
LINE
  8
_f-f_
  6
CONTINUOUS
 62
    7
 10
273.95087999999998
 20
14.512320000000003
 11
273.90697599999999
 21
14.512320000000003
  0
LINE
  8
_f-f_
  6
CONTINUOUS
 62
    7
 10
273.90697599999999
 20
14.512320000000003
 11
273.85209599999996
 21
14.468416000000005
  0
LINE
  8
_f-f_
  6
CONTINUOUS
 62
    7
 10
273.85209599999996
 20
14.468416000000005
 11
273.80819200000002
 21
14.424512000000007
  0
LINE
  8
_f-f_
  6
CONTINUOUS
 62
    7
 10
273.80819200000002
 20
14.424512000000007
 11
273.69843199999997
 21
14.336704000000026
  0
LINE
  8
_f-f_
  6
CONTINUOUS
 62
    7
 10
273.69843199999997
 20
14.336704000000026
 11
273.65452800000003
 21
14.292800000000028
  0
LINE
  8
_f-f_
  6
CONTINUOUS
 62
    7
 10
273.65452800000003
 20
14.292800000000028
 11
273.69843199999997
 21
14.248896000000016
  0
LINE
  8
_f-f_
  6
CONTINUOUS
 62
    7
 10
273.69843199999997
 20
14.248896000000016
 11
273.77526399999999
 21
14.204992000000018
  0
LINE
  8
_f-f_
  6
CONTINUOUS
 62
    7
 10
273.77526399999999
 20
14.204992000000018
 11
273.84111999999993
 21
14.161087999999992
  0
LINE
  8
_f-f_
  6
CONTINUOUS
 62
    7
 10
273.84111999999993
 20
14.161087999999992
 11
274.06063999999998
 21
13.985471999999987
  0
LINE
  8
_f-f_
  6
CONTINUOUS
 62
    7
 10
272.83132799999998
 20
12.84396799999999
 11
271.15199999999993
 21
12.84396799999999
  0
LINE
  8
_f-f_
  6
CONTINUOUS
 62
    7
 10
271.83251199999995
 20
12.536639999999977
 11
271.83251199999995
 21
11.570752000000027
  0
LINE
  8
_f-f_
  6
CONTINUOUS
 62
    7
 10
271.83251199999995
 20
11.570752000000027
 11
271.56908799999997
 21
11.52684800000003
  0
LINE
  8
_f-f_
  6
CONTINUOUS
 62
    7
 10
271.56908799999997
 20
11.52684800000003
 11
271.19590399999998
 21
11.482944000000003
  0
LINE
  8
_f-f_
  6
CONTINUOUS
 62
    7
 10
271.19590399999998
 20
11.482944000000003
 11
270.99833599999994
 21
11.439040000000034
  0
LINE
  8
_f-f_
  6
CONTINUOUS
 62
    7
 10
270.99833599999994
 20
11.439040000000034
 11
271.04223999999999
 21
11.263423999999986
  0
LINE
  8
_f-f_
  6
CONTINUOUS
 62
    7
 10
271.04223999999999
 20
11.263423999999986
 11
271.04223999999999
 21
11.219519999999989
  0
LINE
  8
_f-f_
  6
CONTINUOUS
 62
    7
 10
271.04223999999999
 20
11.219519999999989
 11
271.08614399999999
 21
11.043903999999998
  0
LINE
  8
_f-f_
  6
CONTINUOUS
 62
    7
 10
271.08614399999999
 20
11.043903999999998
 11
271.11907199999996
 21
11
  0
LINE
  8
_f-f_
  6
CONTINUOUS
 62
    7
 10
273.07279999999992
 20
11.746368000000018
 11
272.95206399999995
 21
11.746368000000018
  0
LINE
  8
_f-f_
  6
CONTINUOUS
 62
    7
 10
272.95206399999995
 20
11.746368000000018
 11
272.71059199999996
 21
11.70246400000002
  0
LINE
  8
_f-f_
  6
CONTINUOUS
 62
    7
 10
272.71059199999996
 20
11.70246400000002
 11
272.44716799999998
 21
11.658559999999994
  0
LINE
  8
_f-f_
  6
CONTINUOUS
 62
    7
 10
272.44716799999998
 20
11.658559999999994
 11
272.16179199999999
 21
11.658559999999994
  0
LINE
  8
_f-f_
  6
CONTINUOUS
 62
    7
 10
274.38991999999996
 20
11.70246400000002
 11
274.31308799999994
 21
11.70246400000002
  0
LINE
  8
_f-f_
  6
CONTINUOUS
 62
    7
 10
274.31308799999994
 20
11.70246400000002
 11
274.31308799999994
 21
11.614655999999997
  0
LINE
  8
_f-f_
  6
CONTINUOUS
 62
    7
 10
274.31308799999994
 20
11.614655999999997
 11
274.30211199999997
 21
11.570752000000027
  0
LINE
  8
_f-f_
  6
CONTINUOUS
 62
    7
 10
274.30211199999997
 20
11.570752000000027
 11
274.30211199999997
 21
11.52684800000003
  0
LINE
  8
_f-f_
  6
CONTINUOUS
 62
    7
 10
274.30211199999997
 20
11.52684800000003
 11
274.29113599999994
 21
11.482944000000003
  0
LINE
  8
_f-f_
  6
CONTINUOUS
 62
    7
 10
274.29113599999994
 20
11.482944000000003
 11
274.29113599999994
 21
11.439040000000034
  0
LINE
  8
_f-f_
  6
CONTINUOUS
 62
    7
 10
274.29113599999994
 20
11.439040000000034
 11
274.269184
 21
11.395136000000008
  0
LINE
  8
_f-f_
  6
CONTINUOUS
 62
    7
 10
274.269184
 20
11.395136000000008
 11
274.23625599999997
 21
11.35123200000001
  0
LINE
  8
_f-f_
  6
CONTINUOUS
 62
    7
 10
274.23625599999997
 20
11.35123200000001
 11
274.137472
 21
11.35123200000001
  0
LINE
  8
_f-f_
  6
CONTINUOUS
 62
    7
 10
273.48988799999995
 20
14.600128000000012
 11
273.51183999999995
 21
14.556224000000014
  0
LINE
  8
_f-f_
  6
CONTINUOUS
 62
    7
 10
273.51183999999995
 20
14.556224000000014
 11
273.44598400000001
 21
14.468416000000005
  0
LINE
  8
_f-f_
  6
CONTINUOUS
 62
    7
 10
273.44598400000001
 20
14.468416000000005
 11
273.44598400000001
 21
13.853760000000037
  0
LINE
  8
_f-f_
  6
CONTINUOUS
 62
    7
 10
273.44598400000001
 20
13.458624000000043
 11
273.44598400000001
 21
13.370815999999991
  0
LINE
  8
_f-f_
  6
CONTINUOUS
 62
    7
 10
273.44598400000001
 20
13.370815999999991
 11
273.45695999999998
 21
13.326912000000021
  0
LINE
  8
_f-f_
  6
CONTINUOUS
 62
    7
 10
273.45695999999998
 20
13.326912000000021
 11
273.45695999999998
 21
13.239103999999998
  0
LINE
  8
_f-f_
  6
CONTINUOUS
 62
    7
 10
273.45695999999998
 20
13.239103999999998
 11
273.46793600000001
 21
13.195199999999971
  0
LINE
  8
_f-f_
  6
CONTINUOUS
 62
    7
 10
273.46793600000001
 20
13.195199999999971
 11
273.46793600000001
 21
13.107392000000061
  0
LINE
  8
_f-f_
  6
CONTINUOUS
 62
    7
 10
273.46793600000001
 20
13.107392000000061
 11
273.47891199999992
 21
13.063488000000007
  0
LINE
  8
_f-f_
  6
CONTINUOUS
 62
    7
 10
273.47891199999992
 20
13.063488000000007
 11
273.47891199999992
 21
13.019583999999952
  0
LINE
  8
_f-f_
  6
CONTINUOUS
 62
    7
 10
273.47891199999992
 20
13.019583999999952
 11
273.48988799999995
 21
12.975680000000011
  0
LINE
  8
_f-f_
  6
CONTINUOUS
 62
    7
 10
273.48988799999995
 20
12.975680000000011
 11
273.48988799999995
 21
12.887871999999987
  0
LINE
  8
_f-f_
  6
CONTINUOUS
 62
    7
 10
273.48988799999995
 20
12.887871999999987
 11
273.50086399999998
 21
12.84396799999999
  0
LINE
  8
_f-f_
  6
CONTINUOUS
 62
    7
 10
273.50086399999998
 20
12.84396799999999
 11
273.50086399999998
 21
12.800064000000049
  0
LINE
  8
_f-f_
  6
CONTINUOUS
 62
    7
 10
273.50086399999998
 20
12.800064000000049
 11
273.52281599999992
 21
12.712256000000025
  0
LINE
  8
_f-f_
  6
CONTINUOUS
 62
    7
 10
273.52281599999992
 20
12.712256000000025
 11
273.52281599999992
 21
12.668351999999999
  0
LINE
  8
_f-f_
  6
CONTINUOUS
 62
    7
 10
273.52281599999992
 20
12.668351999999999
 11
273.53379199999995
 21
12.624447999999973
  0
LINE
  8
_f-f_
  6
CONTINUOUS
 62
    7
 10
273.53379199999995
 20
12.624447999999973
 11
273.53379199999995
 21
12.580544000000003
  0
LINE
  8
_f-f_
  6
CONTINUOUS
 62
    7
 10
273.53379199999995
 20
12.580544000000003
 11
273.56671999999992
 21
12.448831999999982
  0
LINE
  8
_f-f_
  6
CONTINUOUS
 62
    7
 10
273.56671999999992
 20
12.448831999999982
 11
273.56671999999992
 21
12.404927999999984
  0
LINE
  8
_f-f_
  6
CONTINUOUS
 62
    7
 10
273.56671999999992
 20
12.404927999999984
 11
273.63257599999997
 21
12.141503999999998
  0
LINE
  8
_f-f_
  6
CONTINUOUS
 62
    7
 10
273.63257599999997
 20
12.141503999999998
 11
273.65452800000003
 21
12.0976
  0
LINE
  8
_f-f_
  6
CONTINUOUS
 62
    7
 10
273.65452800000003
 20
12.0976
 11
273.67647999999997
 21
12.009792000000004
  0
LINE
  8
_f-f_
  6
CONTINUOUS
 62
    7
 10
273.67647999999997
 20
12.009792000000004
 11
273.69843199999997
 21
11.965888000000007
  0
LINE
  8
_f-f_
  6
CONTINUOUS
 62
    7
 10
273.69843199999997
 20
11.965888000000007
 11
273.70940799999994
 21
11.921984000000009
  0
LINE
  8
_f-f_
  6
CONTINUOUS
 62
    7
 10
273.70940799999994
 20
11.921984000000009
 11
273.84111999999993
 21
11.658559999999994
  0
LINE
  8
_f-f_
  6
CONTINUOUS
 62
    7
 10
273.84111999999993
 20
11.658559999999994
 11
273.87404799999996
 21
11.614655999999997
  0
LINE
  8
_f-f_
  6
CONTINUOUS
 62
    7
 10
273.87404799999996
 20
11.614655999999997
 11
273.89599999999996
 21
11.570752000000027
  0
LINE
  8
_f-f_
  6
CONTINUOUS
 62
    7
 10
273.89599999999996
 20
11.570752000000027
 11
273.92892799999993
 21
11.52684800000003
  0
LINE
  8
_f-f_
  6
CONTINUOUS
 62
    7
 10
273.92892799999993
 20
11.52684800000003
 11
273.97283199999998
 21
11.482944000000003
  0
LINE
  8
_f-f_
  6
CONTINUOUS
 62
    7
 10
273.97283199999998
 20
11.482944000000003
 11
274.0057599999999
 21
11.439040000000034
  0
LINE
  8
_f-f_
  6
CONTINUOUS
 62
    7
 10
274.0057599999999
 20
11.439040000000034
 11
274.06063999999998
 21
11.395136000000008
  0
LINE
  8
_f-f_
  6
CONTINUOUS
 62
    7
 10
274.06063999999998
 20
11.395136000000008
 11
274.137472
 21
11.35123200000001
  0
LINE
  8
_f-f_
  6
CONTINUOUS
 62
    7
 10
273.95087999999998
 20
14.512320000000003
 11
274.10454399999992
 21
14.424512000000007
  0
LINE
  8
_f-f_
  6
CONTINUOUS
 62
    7
 10
274.10454399999992
 20
14.424512000000007
 11
274.15942399999994
 21
14.380608000000009
  0
LINE
  8
_f-f_
  6
CONTINUOUS
 62
    7
 10
274.15942399999994
 20
14.380608000000009
 11
274.22528
 21
14.336704000000026
  0
LINE
  8
_f-f_
  6
CONTINUOUS
 62
    7
 10
274.22528
 20
14.336704000000026
 11
274.28016000000002
 21
14.292800000000028
  0
LINE
  8
_f-f_
  6
CONTINUOUS
 62
    7
 10
274.28016000000002
 20
14.292800000000028
 11
274.32406400000002
 21
14.248896000000016
  0
LINE
  8
_f-f_
  6
CONTINUOUS
 62
    7
 10
274.32406400000002
 20
14.248896000000016
 11
274.35699199999999
 21
14.204992000000018
  0
LINE
  8
_f-f_
  6
CONTINUOUS
 62
    7
 10
274.35699199999999
 20
14.204992000000018
 11
274.24723199999994
 21
14.117184000000023
  0
LINE
  8
_f-f_
  6
CONTINUOUS
 62
    7
 10
274.24723199999994
 20
14.117184000000023
 11
274.20332799999994
 21
14.073279999999997
  0
LINE
  8
_f-f_
  6
CONTINUOUS
 62
    7
 10
274.20332799999994
 20
14.073279999999997
 11
274.093568
 21
13.985471999999987
  0
LINE
  8
_f-f_
  6
CONTINUOUS
 62
    7
 10
274.093568
 20
13.985471999999987
 11
274.06063999999998
 21
13.985471999999987
  0
LINE
  8
_f-f_
  6
CONTINUOUS
 62
    7
 10
273.07279999999992
 20
11.746368000000018
 11
273.083776
 21
11.70246400000002
  0
LINE
  8
_f-f_
  6
CONTINUOUS
 62
    7
 10
273.083776
 20
11.70246400000002
 11
273.083776
 21
11.658559999999994
  0
LINE
  8
_f-f_
  6
CONTINUOUS
 62
    7
 10
273.083776
 20
11.658559999999994
 11
273.105728
 21
11.570752000000027
  0
LINE
  8
_f-f_
  6
CONTINUOUS
 62
    7
 10
273.105728
 20
11.570752000000027
 11
273.105728
 21
11.52684800000003
  0
LINE
  8
_f-f_
  6
CONTINUOUS
 62
    7
 10
273.105728
 20
11.52684800000003
 11
273.11670399999991
 21
11.482944000000003
  0
LINE
  8
_f-f_
  6
CONTINUOUS
 62
    7
 10
273.11670399999991
 20
11.482944000000003
 11
273.03987199999995
 21
11.439040000000034
  0
LINE
  8
_f-f_
  6
CONTINUOUS
 62
    7
 10
273.03987199999995
 20
11.439040000000034
 11
272.62278400000002
 21
11.35123200000001
  0
LINE
  8
_f-f_
  6
CONTINUOUS
 62
    7
 10
272.62278400000002
 20
11.35123200000001
 11
272.18374399999993
 21
11.263423999999986
  0
LINE
  8
_f-f_
  6
CONTINUOUS
 62
    7
 10
272.18374399999993
 20
11.263423999999986
 11
271.72275199999996
 21
11.175616000000019
  0
LINE
  8
_f-f_
  6
CONTINUOUS
 62
    7
 10
271.72275199999996
 20
11.175616000000019
 11
271.48127999999997
 21
11.131712000000022
  0
LINE
  8
_f-f_
  6
CONTINUOUS
 62
    7
 10
271.48127999999997
 20
11.131712000000022
 11
271.2288319999999
 21
11.087808000000024
  0
LINE
  8
_f-f_
  6
CONTINUOUS
 62
    7
 10
271.2288319999999
 20
11.087808000000024
 11
271.17395199999999
 21
11.043903999999998
  0
LINE
  8
_f-f_
  6
CONTINUOUS
 62
    7
 10
271.17395199999999
 20
11.043903999999998
 11
271.15199999999993
 21
11
  0
LINE
  8
_f-f_
  6
CONTINUOUS
 62
    7
 10
271.15199999999993
 20
11
 11
271.11907199999996
 21
11
  0
LINE
  8
_f-f_
  6
CONTINUOUS
 62
    7
 10
274.38991999999996
 20
11.70246400000002
 11
274.47772799999996
 21
11.658559999999994
  0
LINE
  8
_f-f_
  6
CONTINUOUS
 62
    7
 10
274.47772799999996
 20
11.658559999999994
 11
274.67529599999995
 21
11.570752000000027
  0
LINE
  8
_f-f_
  6
CONTINUOUS
 62
    7
 10
274.67529599999995
 20
11.570752000000027
 11
274.67529599999995
 21
11.52684800000003
  0
LINE
  8
_f-f_
  6
CONTINUOUS
 62
    7
 10
274.67529599999995
 20
11.52684800000003
 11
274.65334399999995
 21
11.439040000000034
  0
LINE
  8
_f-f_
  6
CONTINUOUS
 62
    7
 10
274.65334399999995
 20
11.439040000000034
 11
274.65334399999995
 21
11.395136000000008
  0
LINE
  8
_f-f_
  6
CONTINUOUS
 62
    7
 10
274.65334399999995
 20
11.395136000000008
 11
274.63139200000001
 21
11.307327999999984
  0
LINE
  8
_f-f_
  6
CONTINUOUS
 62
    7
 10
274.63139200000001
 20
11.307327999999984
 11
274.63139200000001
 21
11.263423999999986
  0
LINE
  8
_f-f_
  6
CONTINUOUS
 62
    7
 10
274.63139200000001
 20
11.263423999999986
 11
274.60943999999995
 21
11.175616000000019
  0
LINE
  8
_f-f_
  6
CONTINUOUS
 62
    7
 10
274.60943999999995
 20
11.175616000000019
 11
274.60943999999995
 21
11.131712000000022
  0
LINE
  8
_f-f_
  6
CONTINUOUS
 62
    7
 10
274.60943999999995
 20
11.131712000000022
 11
274.59846399999998
 21
11.087808000000024
  0
LINE
  8
_f-f_
  6
CONTINUOUS
 62
    7
 10
274.59846399999998
 20
11.087808000000024
 11
274.55455999999992
 21
11
  0
LINE
  8
_f-f_
  6
CONTINUOUS
 62
    7
 10
274.55455999999992
 20
11
 11
274.52163199999995
 21
10.956095999999974
  0
LINE
  8
_f-f_
  6
CONTINUOUS
 62
    7
 10
274.52163199999995
 20
10.956095999999974
 11
274.46675199999993
 21
10.912192000000005
  0
LINE
  8
_f-f_
  6
CONTINUOUS
 62
    7
 10
274.46675199999993
 20
10.912192000000005
 11
274.093568
 21
10.912192000000005
  0
LINE
  8
_f-f_
  6
CONTINUOUS
 62
    7
 10
277.05708800000002
 20
14.644031999999967
 11
276.99123199999997
 21
14.644031999999967
  0
LINE
  8
_f-f_
  6
CONTINUOUS
 62
    7
 10
276.99123199999997
 20
14.644031999999967
 11
276.94732799999997
 21
14.556224000000014
  0
LINE
  8
_f-f_
  6
CONTINUOUS
 62
    7
 10
276.94732799999997
 20
14.556224000000014
 11
276.9144
 21
14.512320000000003
  0
LINE
  8
_f-f_
  6
CONTINUOUS
 62
    7
 10
276.9144
 20
14.512320000000003
 11
276.89244799999994
 21
14.468416000000005
  0
LINE
  8
_f-f_
  6
CONTINUOUS
 62
    7
 10
276.89244799999994
 20
14.468416000000005
 11
276.82659199999995
 21
14.380608000000009
  0
LINE
  8
_f-f_
  6
CONTINUOUS
 62
    7
 10
276.82659199999995
 20
14.380608000000009
 11
276.80463999999995
 21
14.336704000000026
  0
LINE
  8
_f-f_
  6
CONTINUOUS
 62
    7
 10
276.80463999999995
 20
14.336704000000026
 11
276.70585599999993
 21
14.204992000000018
  0
LINE
  8
_f-f_
  6
CONTINUOUS
 62
    7
 10
276.70585599999993
 20
14.204992000000018
 11
276.66195199999999
 21
14.161087999999992
  0
LINE
  8
_f-f_
  6
CONTINUOUS
 62
    7
 10
276.66195199999999
 20
14.161087999999992
 11
276.59609599999999
 21
14.073279999999997
  0
LINE
  8
_f-f_
  6
CONTINUOUS
 62
    7
 10
276.59609599999999
 20
14.073279999999997
 11
276.42048
 21
13.897663999999992
  0
LINE
  8
_f-f_
  6
CONTINUOUS
 62
    7
 10
276.42048
 20
13.897663999999992
 11
276.36559999999997
 21
13.853760000000037
  0
LINE
  8
_f-f_
  6
CONTINUOUS
 62
    7
 10
276.36559999999997
 20
13.853760000000037
 11
276.32169599999997
 21
13.809856000000011
  0
LINE
  8
_f-f_
  6
CONTINUOUS
 62
    7
 10
276.32169599999997
 20
13.809856000000011
 11
276.21193599999998
 21
13.722048000000001
  0
LINE
  8
_f-f_
  6
CONTINUOUS
 62
    7
 10
276.21193599999998
 20
13.722048000000001
 11
276.01436799999999
 21
13.590336000000008
  0
LINE
  8
_f-f_
  6
CONTINUOUS
 62
    7
 10
276.01436799999999
 20
13.590336000000008
 11
275.860704
 21
13.502527999999984
  0
LINE
  8
_f-f_
  6
CONTINUOUS
 62
    7
 10
275.860704
 20
13.502527999999984
 11
275.68508799999995
 21
13.414720000000017
  0
LINE
  8
_f-f_
  6
CONTINUOUS
 62
    7
 10
275.68508799999995
 20
13.414720000000017
 11
275.46556799999996
 21
13.326912000000021
  0
LINE
  8
_f-f_
  6
CONTINUOUS
 62
    7
 10
275.46556799999996
 20
13.326912000000021
 11
275.33385599999997
 21
13.283008000000024
  0
LINE
  8
_f-f_
  6
CONTINUOUS
 62
    7
 10
275.33385599999997
 20
13.283008000000024
 11
275.22409599999997
 21
13.239103999999998
  0
LINE
  8
_f-f_
  6
CONTINUOUS
 62
    7
 10
275.22409599999997
 20
13.239103999999998
 11
275.23507199999995
 21
13.195199999999971
  0
LINE
  8
_f-f_
  6
CONTINUOUS
 62
    7
 10
275.23507199999995
 20
13.195199999999971
 11
275.257024
 21
13.151296000000031
  0
LINE
  8
_f-f_
  6
CONTINUOUS
 62
    7
 10
275.257024
 20
13.151296000000031
 11
275.26800000000003
 21
13.107392000000061
  0
LINE
  8
_f-f_
  6
CONTINUOUS
 62
    7
 10
275.26800000000003
 20
13.107392000000061
 11
275.28995199999997
 21
13.063488000000007
  0
LINE
  8
_f-f_
  6
CONTINUOUS
 62
    7
 10
275.28995199999997
 20
13.063488000000007
 11
275.300928
 21
13.019583999999952
  0
LINE
  8
_f-f_
  6
CONTINUOUS
 62
    7
 10
275.300928
 20
13.019583999999952
 11
275.32287999999994
 21
12.975680000000011
  0
LINE
  8
_f-f_
  6
CONTINUOUS
 62
    7
 10
275.32287999999994
 20
12.975680000000011
 11
275.33385599999997
 21
12.931776000000013
  0
LINE
  8
_f-f_
  6
CONTINUOUS
 62
    7
 10
275.33385599999997
 20
12.931776000000013
 11
275.35580800000002
 21
12.887871999999987
  0
LINE
  8
_f-f_
  6
CONTINUOUS
 62
    7
 10
277.17782399999993
 20
14.292800000000028
 11
277.19977599999999
 21
14.248896000000016
  0
LINE
  8
_f-f_
  6
CONTINUOUS
 62
    7
 10
277.19977599999999
 20
14.248896000000016
 11
277.2327039999999
 21
14.204992000000018
  0
LINE
  8
_f-f_
  6
CONTINUOUS
 62
    7
 10
277.2327039999999
 20
14.204992000000018
 11
277.25465599999995
 21
14.161087999999992
  0
LINE
  8
_f-f_
  6
CONTINUOUS
 62
    7
 10
277.25465599999995
 20
14.161087999999992
 11
277.48515199999997
 21
13.853760000000037
  0
LINE
  8
_f-f_
  6
CONTINUOUS
 62
    7
 10
277.48515199999997
 20
13.853760000000037
 11
277.70467199999996
 21
13.634240000000005
  0
LINE
  8
_f-f_
  6
CONTINUOUS
 62
    7
 10
277.70467199999996
 20
13.634240000000005
 11
277.86931199999992
 21
13.502527999999984
  0
LINE
  8
_f-f_
  6
CONTINUOUS
 62
    7
 10
277.86931199999992
 20
13.502527999999984
 11
278.06687999999991
 21
13.370815999999991
  0
LINE
  8
_f-f_
  6
CONTINUOUS
 62
    7
 10
278.06687999999991
 20
13.370815999999991
 11
278.14371199999994
 21
13.326912000000021
  0
LINE
  8
_f-f_
  6
CONTINUOUS
 62
    7
 10
278.14371199999994
 20
13.326912000000021
 11
276.27779199999998
 21
13.326912000000021
  0
LINE
  8
_f-f_
  6
CONTINUOUS
 62
    7
 10
276.24486400000001
 20
13.283008000000024
 11
276.24486400000001
 21
12.975680000000011
  0
LINE
  8
_f-f_
  6
CONTINUOUS
 62
    7
 10
278.23151999999993
 20
13.283008000000024
 11
278.38518399999998
 21
13.195199999999971
  0
LINE
  8
_f-f_
  6
CONTINUOUS
 62
    7
 10
278.38518399999998
 20
13.195199999999971
 11
278.56079999999997
 21
13.107392000000061
  0
LINE
  8
_f-f_
  6
CONTINUOUS
 62
    7
 10
278.56079999999997
 20
13.107392000000061
 11
278.78031999999996
 21
13.019583999999952
  0
LINE
  8
_f-f_
  6
CONTINUOUS
 62
    7
 10
278.78031999999996
 20
13.019583999999952
 11
278.91203199999995
 21
12.975680000000011
  0
LINE
  8
_f-f_
  6
CONTINUOUS
 62
    7
 10
278.9339839999999
 20
12.536639999999977
 11
275.43263999999999
 21
12.536639999999977
  0
LINE
  8
_f-f_
  6
CONTINUOUS
 62
    7
 10
276.66195199999999
 20
12.141503999999998
 11
276.6290239999999
 21
12.0976
  0
LINE
  8
_f-f_
  6
CONTINUOUS
 62
    7
 10
276.6290239999999
 20
12.0976
 11
276.54121599999996
 21
11.921984000000009
  0
LINE
  8
_f-f_
  6
CONTINUOUS
 62
    7
 10
276.54121599999996
 20
11.921984000000009
 11
276.50828799999999
 21
11.878080000000011
  0
LINE
  8
_f-f_
  6
CONTINUOUS
 62
    7
 10
276.50828799999999
 20
11.878080000000011
 11
276.42048
 21
11.70246400000002
  0
LINE
  8
_f-f_
  6
CONTINUOUS
 62
    7
 10
276.42048
 20
11.70246400000002
 11
276.38755199999997
 21
11.658559999999994
  0
LINE
  8
_f-f_
  6
CONTINUOUS
 62
    7
 10
276.38755199999997
 20
11.658559999999994
 11
276.29974399999992
 21
11.482944000000003
  0
LINE
  8
_f-f_
  6
CONTINUOUS
 62
    7
 10
276.29974399999992
 20
11.482944000000003
 11
276.26681599999995
 21
11.439040000000034
  0
LINE
  8
_f-f_
  6
CONTINUOUS
 62
    7
 10
276.26681599999995
 20
11.439040000000034
 11
276.20096000000001
 21
11.307327999999984
  0
LINE
  8
_f-f_
  6
CONTINUOUS
 62
    7
 10
276.20096000000001
 20
11.307327999999984
 11
275.57532799999996
 21
11.263423999999986
  0
LINE
  8
_f-f_
  6
CONTINUOUS
 62
    7
 10
275.57532799999996
 20
11.263423999999986
 11
275.49849599999993
 21
11.219519999999989
  0
LINE
  8
_f-f_
  6
CONTINUOUS
 62
    7
 10
275.49849599999993
 20
11.219519999999989
 11
275.50947199999996
 21
11.175616000000019
  0
LINE
  8
_f-f_
  6
CONTINUOUS
 62
    7
 10
275.50947199999996
 20
11.175616000000019
 11
275.53142400000002
 21
11.131712000000022
  0
LINE
  8
_f-f_
  6
CONTINUOUS
 62
    7
 10
275.53142400000002
 20
11.131712000000022
 11
275.59727999999996
 21
10.868288000000035
  0
LINE
  8
_f-f_
  6
CONTINUOUS
 62
    7
 10
275.59727999999996
 20
10.868288000000035
 11
275.63020799999993
 21
10.824384000000038
  0
LINE
  8
_f-f_
  6
CONTINUOUS
 62
    7
 10
277.81443200000001
 20
12.009792000000004
 11
277.77052800000001
 21
12.009792000000004
  0
LINE
  8
_f-f_
  6
CONTINUOUS
 62
    7
 10
277.77052800000001
 20
12.009792000000004
 11
277.50710400000003
 21
11.834176000000014
  0
LINE
  8
_f-f_
  6
CONTINUOUS
 62
    7
 10
277.50710400000003
 20
11.834176000000014
 11
277.55100799999997
 21
11.790272000000016
  0
LINE
  8
_f-f_
  6
CONTINUOUS
 62
    7
 10
277.55100799999997
 20
11.790272000000016
 11
277.88028799999995
 21
11.52684800000003
  0
LINE
  8
_f-f_
  6
CONTINUOUS
 62
    7
 10
277.88028799999995
 20
11.52684800000003
 11
277.92419200000001
 21
11.482944000000003
  0
LINE
  8
_f-f_
  6
CONTINUOUS
 62
    7
 10
277.92419200000001
 20
11.482944000000003
 11
277.97907199999997
 21
11.439040000000034
  0
LINE
  8
_f-f_
  6
CONTINUOUS
 62
    7
 10
277.97907199999997
 20
11.439040000000034
 11
277.73759999999999
 21
11.395136000000008
  0
LINE
  8
_f-f_
  6
CONTINUOUS
 62
    7
 10
277.73759999999999
 20
11.395136000000008
 11
277.14489600000002
 21
11.35123200000001
  0
LINE
  8
_f-f_
  6
CONTINUOUS
 62
    7
 10
277.14489600000002
 20
11.35123200000001
 11
276.58511999999996
 21
11.35123200000001
  0
LINE
  8
_f-f_
  6
CONTINUOUS
 62
    7
 10
278.26444799999996
 20
11.131712000000022
 11
278.30835200000001
 21
11.087808000000024
  0
LINE
  8
_f-f_
  6
CONTINUOUS
 62
    7
 10
278.30835200000001
 20
11.087808000000024
 11
278.36323199999993
 21
11.043903999999998
  0
LINE
  8
_f-f_
  6
CONTINUOUS
 62
    7
 10
278.36323199999993
 20
11.043903999999998
 11
278.3961599999999
 21
11
  0
LINE
  8
_f-f_
  6
CONTINUOUS
 62
    7
 10
278.3961599999999
 20
11
 11
278.44006399999995
 21
10.956095999999974
  0
LINE
  8
_f-f_
  6
CONTINUOUS
 62
    7
 10
278.44006399999995
 20
10.956095999999974
 11
278.47299199999998
 21
10.912192000000005
  0
LINE
  8
_f-f_
  6
CONTINUOUS
 62
    7
 10
278.47299199999998
 20
10.912192000000005
 11
278.51689599999997
 21
10.868288000000035
  0
LINE
  8
_f-f_
  6
CONTINUOUS
 62
    7
 10
278.51689599999997
 20
10.868288000000035
 11
278.54982399999994
 21
10.824384000000038
  0
LINE
  8
_f-f_
  6
CONTINUOUS
 62
    7
 10
277.05708800000002
 20
14.644031999999967
 11
277.36441599999995
 21
14.600128000000012
  0
LINE
  8
_f-f_
  6
CONTINUOUS
 62
    7
 10
277.36441599999995
 20
14.600128000000012
 11
277.40832
 21
14.556224000000014
  0
LINE
  8
_f-f_
  6
CONTINUOUS
 62
    7
 10
277.40832
 20
14.556224000000014
 11
277.36441599999995
 21
14.512320000000003
  0
LINE
  8
_f-f_
  6
CONTINUOUS
 62
    7
 10
277.36441599999995
 20
14.512320000000003
 11
277.37539199999998
 21
14.468416000000005
  0
LINE
  8
_f-f_
  6
CONTINUOUS
 62
    7
 10
277.37539199999998
 20
14.468416000000005
 11
277.50710400000003
 21
14.292800000000028
  0
LINE
  8
_f-f_
  6
CONTINUOUS
 62
    7
 10
277.50710400000003
 20
14.292800000000028
 11
277.59491200000002
 21
14.204992000000018
  0
LINE
  8
_f-f_
  6
CONTINUOUS
 62
    7
 10
277.59491200000002
 20
14.204992000000018
 11
277.62783999999999
 21
14.161087999999992
  0
LINE
  8
_f-f_
  6
CONTINUOUS
 62
    7
 10
277.62783999999999
 20
14.161087999999992
 11
277.67174399999999
 21
14.117184000000023
  0
LINE
  8
_f-f_
  6
CONTINUOUS
 62
    7
 10
277.67174399999999
 20
14.117184000000023
 11
277.72662399999996
 21
14.073279999999997
  0
LINE
  8
_f-f_
  6
CONTINUOUS
 62
    7
 10
277.72662399999996
 20
14.073279999999997
 11
277.77052800000001
 21
14.029375999999999
  0
LINE
  8
_f-f_
  6
CONTINUOUS
 62
    7
 10
277.77052800000001
 20
14.029375999999999
 11
277.93516799999998
 21
13.897663999999992
  0
LINE
  8
_f-f_
  6
CONTINUOUS
 62
    7
 10
277.93516799999998
 20
13.897663999999992
 11
278.13273600000002
 21
13.765952000000013
  0
LINE
  8
_f-f_
  6
CONTINUOUS
 62
    7
 10
278.13273600000002
 20
13.765952000000013
 11
278.28639999999996
 21
13.678143999999975
  0
LINE
  8
_f-f_
  6
CONTINUOUS
 62
    7
 10
278.28639999999996
 20
13.678143999999975
 11
278.46201599999995
 21
13.590336000000008
  0
LINE
  8
_f-f_
  6
CONTINUOUS
 62
    7
 10
278.46201599999995
 20
13.590336000000008
 11
278.68153599999994
 21
13.502527999999984
  0
LINE
  8
_f-f_
  6
CONTINUOUS
 62
    7
 10
278.68153599999994
 20
13.502527999999984
 11
278.80227199999996
 21
13.458624000000043
  0
LINE
  8
_f-f_
  6
CONTINUOUS
 62
    7
 10
278.80227199999996
 20
13.458624000000043
 11
278.94495999999992
 21
13.414720000000017
  0
LINE
  8
_f-f_
  6
CONTINUOUS
 62
    7
 10
278.94495999999992
 20
13.414720000000017
 11
279.09862399999997
 21
13.370815999999991
  0
LINE
  8
_f-f_
  6
CONTINUOUS
 62
    7
 10
279.09862399999997
 20
13.370815999999991
 11
279.08764799999994
 21
13.326912000000021
  0
LINE
  8
_f-f_
  6
CONTINUOUS
 62
    7
 10
279.08764799999994
 20
13.326912000000021
 11
279.04374399999995
 21
13.239103999999998
  0
LINE
  8
_f-f_
  6
CONTINUOUS
 62
    7
 10
279.04374399999995
 20
13.239103999999998
 11
279.03276799999992
 21
13.195199999999971
  0
LINE
  8
_f-f_
  6
CONTINUOUS
 62
    7
 10
279.03276799999992
 20
13.195199999999971
 11
278.98886399999998
 21
13.107392000000061
  0
LINE
  8
_f-f_
  6
CONTINUOUS
 62
    7
 10
278.98886399999998
 20
13.107392000000061
 11
278.97788799999995
 21
13.063488000000007
  0
LINE
  8
_f-f_
  6
CONTINUOUS
 62
    7
 10
278.97788799999995
 20
13.063488000000007
 11
278.9339839999999
 21
12.975680000000011
  0
LINE
  8
_f-f_
  6
CONTINUOUS
 62
    7
 10
278.9339839999999
 20
12.975680000000011
 11
278.91203199999995
 21
12.975680000000011
  0
LINE
  8
_f-f_
  6
CONTINUOUS
 62
    7
 10
277.17782399999993
 20
14.292800000000028
 11
277.14489600000002
 21
14.292800000000028
  0
LINE
  8
_f-f_
  6
CONTINUOUS
 62
    7
 10
277.14489600000002
 20
14.292800000000028
 11
277.11196799999999
 21
14.248896000000016
  0
LINE
  8
_f-f_
  6
CONTINUOUS
 62
    7
 10
277.11196799999999
 20
14.248896000000016
 11
277.09001599999993
 21
14.204992000000018
  0
LINE
  8
_f-f_
  6
CONTINUOUS
 62
    7
 10
277.09001599999993
 20
14.204992000000018
 11
277.05708800000002
 21
14.161087999999992
  0
LINE
  8
_f-f_
  6
CONTINUOUS
 62
    7
 10
277.05708800000002
 20
14.161087999999992
 11
277.03513599999997
 21
14.117184000000023
  0
LINE
  8
_f-f_
  6
CONTINUOUS
 62
    7
 10
277.03513599999997
 20
14.117184000000023
 11
276.83756799999998
 21
13.853760000000037
  0
LINE
  8
_f-f_
  6
CONTINUOUS
 62
    7
 10
276.83756799999998
 20
13.853760000000037
 11
276.79366399999992
 21
13.809856000000011
  0
LINE
  8
_f-f_
  6
CONTINUOUS
 62
    7
 10
276.79366399999992
 20
13.809856000000011
 11
276.76073599999995
 21
13.765952000000013
  0
LINE
  8
_f-f_
  6
CONTINUOUS
 62
    7
 10
276.76073599999995
 20
13.765952000000013
 11
276.49731199999997
 21
13.502527999999984
  0
LINE
  8
_f-f_
  6
CONTINUOUS
 62
    7
 10
276.49731199999997
 20
13.502527999999984
 11
276.27779199999998
 21
13.326912000000021
  0
LINE
  8
_f-f_
  6
CONTINUOUS
 62
    7
 10
276.24486400000001
 20
13.283008000000024
 11
276.21193599999998
 21
13.283008000000024
  0
LINE
  8
_f-f_
  6
CONTINUOUS
 62
    7
 10
276.21193599999998
 20
13.283008000000024
 11
276.01436799999999
 21
13.151296000000031
  0
LINE
  8
_f-f_
  6
CONTINUOUS
 62
    7
 10
276.01436799999999
 20
13.151296000000031
 11
275.78387199999997
 21
13.019583999999952
  0
LINE
  8
_f-f_
  6
CONTINUOUS
 62
    7
 10
275.78387199999997
 20
13.019583999999952
 11
275.58630399999993
 21
12.931776000000013
  0
LINE
  8
_f-f_
  6
CONTINUOUS
 62
    7
 10
275.58630399999993
 20
12.931776000000013
 11
275.47654399999999
 21
12.887871999999987
  0
LINE
  8
_f-f_
  6
CONTINUOUS
 62
    7
 10
275.47654399999999
 20
12.887871999999987
 11
275.35580800000002
 21
12.887871999999987
  0
LINE
  8
_f-f_
  6
CONTINUOUS
 62
    7
 10
278.23151999999993
 20
13.283008000000024
 11
278.16566399999994
 21
13.283008000000024
  0
LINE
  8
_f-f_
  6
CONTINUOUS
 62
    7
 10
278.16566399999994
 20
13.283008000000024
 11
278.16566399999994
 21
12.975680000000011
  0
LINE
  8
_f-f_
  6
CONTINUOUS
 62
    7
 10
278.16566399999994
 20
12.975680000000011
 11
276.24486400000001
 21
12.975680000000011
  0
LINE
  8
_f-f_
  6
CONTINUOUS
 62
    7
 10
277.05708800000002
 20
12.141503999999998
 11
277.01318399999997
 21
12.053696000000031
  0
LINE
  8
_f-f_
  6
CONTINUOUS
 62
    7
 10
277.01318399999997
 20
12.053696000000031
 11
276.98025599999994
 21
12.009792000000004
  0
LINE
  8
_f-f_
  6
CONTINUOUS
 62
    7
 10
276.98025599999994
 20
12.009792000000004
 11
276.958304
 21
11.965888000000007
  0
LINE
  8
_f-f_
  6
CONTINUOUS
 62
    7
 10
276.958304
 20
11.965888000000007
 11
276.92537599999997
 21
11.921984000000009
  0
LINE
  8
_f-f_
  6
CONTINUOUS
 62
    7
 10
276.92537599999997
 20
11.921984000000009
 11
276.88147199999992
 21
11.834176000000014
  0
LINE
  8
_f-f_
  6
CONTINUOUS
 62
    7
 10
276.88147199999992
 20
11.834176000000014
 11
276.84854399999995
 21
11.790272000000016
  0
LINE
  8
_f-f_
  6
CONTINUOUS
 62
    7
 10
276.84854399999995
 20
11.790272000000016
 11
276.82659199999995
 21
11.746368000000018
  0
LINE
  8
_f-f_
  6
CONTINUOUS
 62
    7
 10
276.82659199999995
 20
11.746368000000018
 11
276.79366399999992
 21
11.70246400000002
  0
LINE
  8
_f-f_
  6
CONTINUOUS
 62
    7
 10
276.79366399999992
 20
11.70246400000002
 11
276.74975999999998
 21
11.614655999999997
  0
LINE
  8
_f-f_
  6
CONTINUOUS
 62
    7
 10
276.74975999999998
 20
11.614655999999997
 11
276.71683199999995
 21
11.570752000000027
  0
LINE
  8
_f-f_
  6
CONTINUOUS
 62
    7
 10
276.71683199999995
 20
11.570752000000027
 11
276.69488000000001
 21
11.52684800000003
  0
LINE
  8
_f-f_
  6
CONTINUOUS
 62
    7
 10
276.69488000000001
 20
11.52684800000003
 11
276.66195199999999
 21
11.482944000000003
  0
LINE
  8
_f-f_
  6
CONTINUOUS
 62
    7
 10
276.66195199999999
 20
11.482944000000003
 11
276.61804799999993
 21
11.395136000000008
  0
LINE
  8
_f-f_
  6
CONTINUOUS
 62
    7
 10
276.61804799999993
 20
11.395136000000008
 11
276.58511999999996
 21
11.35123200000001
  0
LINE
  8
_f-f_
  6
CONTINUOUS
 62
    7
 10
277.81443200000001
 20
12.009792000000004
 11
277.92419200000001
 21
11.921984000000009
  0
LINE
  8
_f-f_
  6
CONTINUOUS
 62
    7
 10
277.92419200000001
 20
11.921984000000009
 11
277.990048
 21
11.878080000000011
  0
LINE
  8
_f-f_
  6
CONTINUOUS
 62
    7
 10
277.990048
 20
11.878080000000011
 11
278.20956799999988
 21
11.70246400000002
  0
LINE
  8
_f-f_
  6
CONTINUOUS
 62
    7
 10
278.20956799999988
 20
11.70246400000002
 11
278.25347199999993
 21
11.658559999999994
  0
LINE
  8
_f-f_
  6
CONTINUOUS
 62
    7
 10
278.25347199999993
 20
11.658559999999994
 11
278.36323199999993
 21
11.570752000000027
  0
LINE
  8
_f-f_
  6
CONTINUOUS
 62
    7
 10
278.36323199999993
 20
11.570752000000027
 11
278.40713599999992
 21
11.52684800000003
  0
LINE
  8
_f-f_
  6
CONTINUOUS
 62
    7
 10
278.40713599999992
 20
11.52684800000003
 11
278.46201599999995
 21
11.482944000000003
  0
LINE
  8
_f-f_
  6
CONTINUOUS
 62
    7
 10
278.46201599999995
 20
11.482944000000003
 11
278.54982399999994
 21
11.395136000000008
  0
LINE
  8
_f-f_
  6
CONTINUOUS
 62
    7
 10
278.54982399999994
 20
11.395136000000008
 11
278.60470399999997
 21
11.35123200000001
  0
LINE
  8
_f-f_
  6
CONTINUOUS
 62
    7
 10
278.60470399999997
 20
11.35123200000001
 11
278.73641599999996
 21
11.219519999999989
  0
LINE
  8
_f-f_
  6
CONTINUOUS
 62
    7
 10
278.73641599999996
 20
11.219519999999989
 11
278.76934399999993
 21
11.175616000000019
  0
LINE
  8
_f-f_
  6
CONTINUOUS
 62
    7
 10
278.76934399999993
 20
11.175616000000019
 11
278.81324799999999
 21
11.131712000000022
  0
LINE
  8
_f-f_
  6
CONTINUOUS
 62
    7
 10
278.81324799999999
 20
11.131712000000022
 11
278.87910399999993
 21
11.043903999999998
  0
LINE
  8
_f-f_
  6
CONTINUOUS
 62
    7
 10
278.87910399999993
 20
11.043903999999998
 11
278.90105599999998
 21
11
  0
LINE
  8
_f-f_
  6
CONTINUOUS
 62
    7
 10
278.90105599999998
 20
11
 11
278.82422399999996
 21
10.956095999999974
  0
LINE
  8
_f-f_
  6
CONTINUOUS
 62
    7
 10
278.82422399999996
 20
10.956095999999974
 11
278.69251199999997
 21
10.868288000000035
  0
LINE
  8
_f-f_
  6
CONTINUOUS
 62
    7
 10
278.69251199999997
 20
10.868288000000035
 11
278.61567999999994
 21
10.824384000000038
  0
LINE
  8
_f-f_
  6
CONTINUOUS
 62
    7
 10
278.61567999999994
 20
10.824384000000038
 11
278.54982399999994
 21
10.824384000000038
  0
LINE
  8
_f-f_
  6
CONTINUOUS
 62
    7
 10
278.26444799999996
 20
11.131712000000022
 11
278.08883199999997
 21
11.131712000000022
  0
LINE
  8
_f-f_
  6
CONTINUOUS
 62
    7
 10
278.08883199999997
 20
11.131712000000022
 11
277.69369599999993
 21
11.087808000000024
  0
LINE
  8
_f-f_
  6
CONTINUOUS
 62
    7
 10
277.69369599999993
 20
11.087808000000024
 11
277.28758399999992
 21
11.043903999999998
  0
LINE
  8
_f-f_
  6
CONTINUOUS
 62
    7
 10
277.28758399999992
 20
11.043903999999998
 11
276.10217599999993
 21
10.912192000000005
  0
LINE
  8
_f-f_
  6
CONTINUOUS
 62
    7
 10
276.10217599999993
 20
10.912192000000005
 11
275.73996799999998
 21
10.868288000000035
  0
LINE
  8
_f-f_
  6
CONTINUOUS
 62
    7
 10
275.73996799999998
 20
10.868288000000035
 11
275.67411199999998
 21
10.824384000000038
  0
LINE
  8
_f-f_
  6
CONTINUOUS
 62
    7
 10
275.67411199999998
 20
10.824384000000038
 11
275.63020799999993
 21
10.824384000000038
  0
LINE
  8
_f-f_
  6
CONTINUOUS
 62
    7
 10
280.723072
 20
14.600128000000012
 11
280.33891199999999
 21
14.600128000000012
  0
LINE
  8
_f-f_
  6
CONTINUOUS
 62
    7
 10
280.82185599999991
 20
13.546432000000038
 11
280.79990399999997
 21
13.502527999999984
  0
LINE
  8
_f-f_
  6
CONTINUOUS
 62
    7
 10
280.79990399999997
 20
13.502527999999984
 11
280.76697599999994
 21
13.458624000000043
  0
LINE
  8
_f-f_
  6
CONTINUOUS
 62
    7
 10
280.76697599999994
 20
13.458624000000043
 11
280.74502399999994
 21
13.414720000000017
  0
LINE
  8
_f-f_
  6
CONTINUOUS
 62
    7
 10
280.74502399999994
 20
13.414720000000017
 11
280.67916799999995
 21
13.326912000000021
  0
LINE
  8
_f-f_
  6
CONTINUOUS
 62
    7
 10
280.67916799999995
 20
13.326912000000021
 11
280.65721599999995
 21
13.283008000000024
  0
LINE
  8
_f-f_
  6
CONTINUOUS
 62
    7
 10
280.65721599999995
 20
13.283008000000024
 11
280.59135999999995
 21
13.195199999999971
  0
LINE
  8
_f-f_
  6
CONTINUOUS
 62
    7
 10
280.59135999999995
 20
13.195199999999971
 11
280.54745600000001
 21
13.151296000000031
  0
LINE
  8
_f-f_
  6
CONTINUOUS
 62
    7
 10
280.54745600000001
 20
13.151296000000031
 11
280.48159999999996
 21
13.063488000000007
  0
LINE
  8
_f-f_
  6
CONTINUOUS
 62
    7
 10
280.48159999999996
 20
13.063488000000007
 11
280.43769599999996
 21
13.019583999999952
  0
LINE
  8
_f-f_
  6
CONTINUOUS
 62
    7
 10
280.43769599999996
 20
13.019583999999952
 11
280.40476799999999
 21
12.975680000000011
  0
LINE
  8
_f-f_
  6
CONTINUOUS
 62
    7
 10
280.40476799999999
 20
12.975680000000011
 11
280.22915199999994
 21
12.800064000000049
  0
LINE
  8
_f-f_
  6
CONTINUOUS
 62
    7
 10
280.22915199999994
 20
12.800064000000049
 11
280.17427199999997
 21
12.756160000000023
  0
LINE
  8
_f-f_
  6
CONTINUOUS
 62
    7
 10
280.17427199999997
 20
12.756160000000023
 11
280.13036799999998
 21
12.712256000000025
  0
LINE
  8
_f-f_
  6
CONTINUOUS
 62
    7
 10
280.13036799999998
 20
12.712256000000025
 11
280.02060799999992
 21
12.624447999999973
  0
LINE
  8
_f-f_
  6
CONTINUOUS
 62
    7
 10
280.02060799999992
 20
12.624447999999973
 11
279.95475199999993
 21
12.580544000000003
  0
LINE
  8
_f-f_
  6
CONTINUOUS
 62
    7
 10
279.95475199999993
 20
12.580544000000003
 11
279.89987199999996
 21
12.536639999999977
  0
LINE
  8
_f-f_
  6
CONTINUOUS
 62
    7
 10
279.89987199999996
 20
12.536639999999977
 11
279.70230399999997
 21
12.404927999999984
  0
LINE
  8
_f-f_
  6
CONTINUOUS
 62
    7
 10
279.70230399999997
 20
12.404927999999984
 11
279.62547199999995
 21
12.361024000000015
  0
LINE
  8
_f-f_
  6
CONTINUOUS
 62
    7
 10
279.62547199999995
 20
12.361024000000015
 11
279.55961599999989
 21
12.317120000000017
  0
LINE
  8
_f-f_
  6
CONTINUOUS
 62
    7
 10
279.55961599999989
 20
12.317120000000017
 11
279.60351999999995
 21
12.229311999999993
  0
LINE
  8
_f-f_
  6
CONTINUOUS
 62
    7
 10
279.60351999999995
 20
12.229311999999993
 11
279.61449599999997
 21
12.185407999999995
  0
LINE
  8
_f-f_
  6
CONTINUOUS
 62
    7
 10
279.61449599999997
 20
12.185407999999995
 11
279.70230399999997
 21
12.009792000000004
  0
LINE
  8
_f-f_
  6
CONTINUOUS
 62
    7
 10
282.59996799999999
 20
14.512320000000003
 11
282.17190399999993
 21
14.512320000000003
  0
LINE
  8
_f-f_
  6
CONTINUOUS
 62
    7
 10
282.17190399999993
 20
14.512320000000003
 11
282.17190399999993
 21
13.502527999999984
  0
LINE
  8
_f-f_
  6
CONTINUOUS
 62
    7
 10
282.17190399999993
 20
13.107392000000061
 11
282.17190399999993
 21
11.35123200000001
  0
LINE
  8
_f-f_
  6
CONTINUOUS
 62
    7
 10
281.11820799999992
 20
13.941568000000032
 11
281.08528000000001
 21
13.941568000000032
  0
LINE
  8
_f-f_
  6
CONTINUOUS
 62
    7
 10
281.08528000000001
 20
13.941568000000032
 11
281.06332799999996
 21
13.897663999999992
  0
LINE
  8
_f-f_
  6
CONTINUOUS
 62
    7
 10
281.06332799999996
 20
13.897663999999992
 11
280.69014399999992
 21
13.897663999999992
  0
LINE
  8
_f-f_
  6
CONTINUOUS
 62
    7
 10
280.33891199999999
 20
12.448831999999982
 11
280.33891199999999
 21
10.78048000000004
  0
LINE
  8
_f-f_
  6
CONTINUOUS
 62
    7
 10
280.69014399999992
 20
12.448831999999982
 11
280.76697599999994
 21
12.404927999999984
  0
LINE
  8
_f-f_
  6
CONTINUOUS
 62
    7
 10
280.76697599999994
 20
12.404927999999984
 11
281.03039999999999
 21
12.229311999999993
  0
LINE
  8
_f-f_
  6
CONTINUOUS
 62
    7
 10
281.03039999999999
 20
12.229311999999993
 11
281.14015999999992
 21
12.141503999999998
  0
LINE
  8
_f-f_
  6
CONTINUOUS
 62
    7
 10
281.14015999999992
 20
12.141503999999998
 11
281.20601599999998
 21
12.0976
  0
LINE
  8
_f-f_
  6
CONTINUOUS
 62
    7
 10
280.723072
 20
14.600128000000012
 11
280.67916799999995
 21
14.556224000000014
  0
LINE
  8
_f-f_
  6
CONTINUOUS
 62
    7
 10
280.67916799999995
 20
14.556224000000014
 11
280.66819199999998
 21
14.512320000000003
  0
LINE
  8
_f-f_
  6
CONTINUOUS
 62
    7
 10
280.66819199999998
 20
14.512320000000003
 11
280.66819199999998
 21
13.941568000000032
  0
LINE
  8
_f-f_
  6
CONTINUOUS
 62
    7
 10
280.66819199999998
 20
13.941568000000032
 11
280.69014399999992
 21
13.897663999999992
  0
LINE
  8
_f-f_
  6
CONTINUOUS
 62
    7
 10
282.59996799999999
 20
14.512320000000003
 11
282.62191999999993
 21
14.468416000000005
  0
LINE
  8
_f-f_
  6
CONTINUOUS
 62
    7
 10
282.62191999999993
 20
14.468416000000005
 11
282.57801599999993
 21
14.424512000000007
  0
LINE
  8
_f-f_
  6
CONTINUOUS
 62
    7
 10
282.57801599999993
 20
14.424512000000007
 11
282.55606399999994
 21
14.380608000000009
  0
LINE
  8
_f-f_
  6
CONTINUOUS
 62
    7
 10
282.55606399999994
 20
14.380608000000009
 11
282.55606399999994
 21
13.502527999999984
  0
LINE
  8
_f-f_
  6
CONTINUOUS
 62
    7
 10
282.55606399999994
 20
13.107392000000061
 11
282.55606399999994
 21
11.35123200000001
  0
LINE
  8
_f-f_
  6
CONTINUOUS
 62
    7
 10
283.5
 20
11
 11
281.16211199999998
 21
11
  0
LINE
  8
_f-f_
  6
CONTINUOUS
 62
    7
 10
281.11820799999992
 20
13.941568000000032
 11
281.33772799999997
 21
13.722048000000001
  0
LINE
  8
_f-f_
  6
CONTINUOUS
 62
    7
 10
281.33772799999997
 20
13.722048000000001
 11
281.29382399999997
 21
13.678143999999975
  0
LINE
  8
_f-f_
  6
CONTINUOUS
 62
    7
 10
281.29382399999997
 20
13.678143999999975
 11
281.22796799999992
 21
13.634240000000005
  0
LINE
  8
_f-f_
  6
CONTINUOUS
 62
    7
 10
281.22796799999992
 20
13.634240000000005
 11
281.16211199999998
 21
13.502527999999984
  0
LINE
  8
_f-f_
  6
CONTINUOUS
 62
    7
 10
281.16211199999998
 20
13.502527999999984
 11
281.12918399999995
 21
13.458624000000043
  0
LINE
  8
_f-f_
  6
CONTINUOUS
 62
    7
 10
281.12918399999995
 20
13.458624000000043
 11
281.08528000000001
 21
13.370815999999991
  0
LINE
  8
_f-f_
  6
CONTINUOUS
 62
    7
 10
281.08528000000001
 20
13.370815999999991
 11
281.05235199999998
 21
13.326912000000021
  0
LINE
  8
_f-f_
  6
CONTINUOUS
 62
    7
 10
281.05235199999998
 20
13.326912000000021
 11
281.03039999999999
 21
13.283008000000024
  0
LINE
  8
_f-f_
  6
CONTINUOUS
 62
    7
 10
281.03039999999999
 20
13.283008000000024
 11
280.93161599999996
 21
13.151296000000031
  0
LINE
  8
_f-f_
  6
CONTINUOUS
 62
    7
 10
280.93161599999996
 20
13.151296000000031
 11
280.90966400000002
 21
13.107392000000061
  0
LINE
  8
_f-f_
  6
CONTINUOUS
 62
    7
 10
280.90966400000002
 20
13.107392000000061
 11
280.74502399999994
 21
12.887871999999987
  0
LINE
  8
_f-f_
  6
CONTINUOUS
 62
    7
 10
280.74502399999994
 20
12.887871999999987
 11
280.70111999999995
 21
12.84396799999999
  0
LINE
  8
_f-f_
  6
CONTINUOUS
 62
    7
 10
280.70111999999995
 20
12.84396799999999
 11
280.66819199999998
 21
12.800064000000049
  0
LINE
  8
_f-f_
  6
CONTINUOUS
 62
    7
 10
280.66819199999998
 20
12.800064000000049
 11
280.75599999999997
 21
12.756160000000023
  0
LINE
  8
_f-f_
  6
CONTINUOUS
 62
    7
 10
280.75599999999997
 20
12.756160000000023
 11
280.87673599999994
 21
12.712256000000025
  0
LINE
  8
_f-f_
  6
CONTINUOUS
 62
    7
 10
280.87673599999994
 20
12.712256000000025
 11
281.07430399999998
 21
12.624447999999973
  0
LINE
  8
_f-f_
  6
CONTINUOUS
 62
    7
 10
281.07430399999998
 20
12.624447999999973
 11
281.16211199999998
 21
12.580544000000003
  0
LINE
  8
_f-f_
  6
CONTINUOUS
 62
    7
 10
281.16211199999998
 20
12.580544000000003
 11
281.31577599999991
 21
12.492735999999979
  0
LINE
  8
_f-f_
  6
CONTINUOUS
 62
    7
 10
281.31577599999991
 20
12.492735999999979
 11
281.38163199999997
 21
12.448831999999982
  0
LINE
  8
_f-f_
  6
CONTINUOUS
 62
    7
 10
281.38163199999997
 20
12.448831999999982
 11
281.40358399999991
 21
12.404927999999984
  0
LINE
  8
_f-f_
  6
CONTINUOUS
 62
    7
 10
281.40358399999991
 20
12.404927999999984
 11
281.24991999999997
 21
12.0976
  0
LINE
  8
_f-f_
  6
CONTINUOUS
 62
    7
 10
281.24991999999997
 20
12.0976
 11
281.20601599999998
 21
12.0976
  0
LINE
  8
_f-f_
  6
CONTINUOUS
 62
    7
 10
280.33891199999999
 20
12.448831999999982
 11
280.31695999999999
 21
12.448831999999982
  0
LINE
  8
_f-f_
  6
CONTINUOUS
 62
    7
 10
280.31695999999999
 20
12.448831999999982
 11
280.27305599999988
 21
12.404927999999984
  0
LINE
  8
_f-f_
  6
CONTINUOUS
 62
    7
 10
280.27305599999988
 20
12.404927999999984
 11
280.05353599999995
 21
12.229311999999993
  0
LINE
  8
_f-f_
  6
CONTINUOUS
 62
    7
 10
280.05353599999995
 20
12.229311999999993
 11
279.98767999999995
 21
12.185407999999995
  0
LINE
  8
_f-f_
  6
CONTINUOUS
 62
    7
 10
279.98767999999995
 20
12.185407999999995
 11
279.93279999999993
 21
12.141503999999998
  0
LINE
  8
_f-f_
  6
CONTINUOUS
 62
    7
 10
279.93279999999993
 20
12.141503999999998
 11
279.80108799999994
 21
12.053696000000031
  0
LINE
  8
_f-f_
  6
CONTINUOUS
 62
    7
 10
279.80108799999994
 20
12.053696000000031
 11
279.72425599999997
 21
12.009792000000004
  0
LINE
  8
_f-f_
  6
CONTINUOUS
 62
    7
 10
279.72425599999997
 20
12.009792000000004
 11
279.70230399999997
 21
12.009792000000004
  0
LINE
  8
_f-f_
  6
CONTINUOUS
 62
    7
 10
280.69014399999992
 20
12.448831999999982
 11
280.66819199999998
 21
12.448831999999982
  0
LINE
  8
_f-f_
  6
CONTINUOUS
 62
    7
 10
280.66819199999998
 20
12.448831999999982
 11
280.66819199999998
 21
10.78048000000004
  0
LINE
  8
_f-f_
  6
CONTINUOUS
 62
    7
 10
280.66819199999998
 20
10.78048000000004
 11
280.33891199999999
 21
10.78048000000004
  0
LINE
  8
_f-f_
  6
CONTINUOUS
 62
    7
 10
261.69803650015848
 20
10.818143377298185
 11
261.46786978015854
 21
11.320637828498263
  0
ARC
  8
_f-f_
  6
CONTINUOUS
 62
    7
 10
261.14397350815852
 20
13.801814490098195
 40
2.5022283551999998
 50
277.43740700000006
 51
318.25330200000008
  0
LINE
  8
_f-f_
  6
CONTINUOUS
 62
    7
 10
259.91794882015853
 20
11.278091559698225
 11
259.38451522015851
 21
10.85915849409821
  0
ARC
  8
_f-f_
  6
CONTINUOUS
 62
    7
 10
248.43833509135854
 20
2.5524020556982236
 40
13.741217431199997
 50
37.193868000000002
 51
44.067300000000003
  0
ARC
  8
_f-f_
  6
CONTINUOUS
 62
    7
 10
251.63328789295852
 20
5.1972563964982612
 40
9.6114510576000001
 50
45.985430000000001
 51
52.858862000000002
  0
LINE
  8
_f-f_
  6
CONTINUOUS
 62
    7
 10
257.43649474015854
 20
12.859030695698209
 11
257.84546050015854
 21
13.256932647698193
  0
ARC
  8
_f-f_
  6
CONTINUOUS
 62
    7
 10
259.60822146655852
 20
14.802502172498251
 40
1.5138771480000004
 50
335.50113199999998
 51
353.79681699999998
  0
ARC
  8
_f-f_
  6
CONTINUOUS
 62
    7
 10
255.5557247609585
 20
17.049016618898278
 40
6.1438791120000014
 50
318.37204700000001
 51
332.10656799999998
  0
ARC
  8
_f-f_
  6
CONTINUOUS
 62
    7
 10
253.24143214255852
 20
15.569703169298236
 40
3.3701116512000007
 50
327.63748900000002
 51
343.65418099999999
  0
ARC
  8
_f-f_
  6
CONTINUOUS
 62
    7
 10
253.40907764575854
 20
15.622958446898267
 40
3.2597962655999995
 50
295.64126099999999
 51
325.26891000000001
  0
LINE
  8
_f-f_
  6
CONTINUOUS
 62
    7
 10
254.81970658015848
 20
12.68418301569821
 11
254.54706274015854
 21
13.113498279698177
  0
LINE
  8
_f-f_
  6
CONTINUOUS
 62
    7
 10
253.63923778015851
 20
15.293364807698225
 11
253.08308386015847
 21
15.228364935698238
  0
LINE
  8
_f-f_
  6
CONTINUOUS
 62
    7
 10
253.74691234015856
 20
10.796371383698215
 11
254.30800546015854
 21
10.877532318098247
  0
LINE
  8
_f-f_
  6
CONTINUOUS
 62
    7
 10
251.82161218015855
 20
14.621238471698234
 11
251.82161218015855
 21
14.055798855698214
  0
LINE
  8
_f-f_
  6
CONTINUOUS
 62
    7
 10
265.43503522015851
 20
13.13197088769823
 11
265.43799874015849
 21
13.697410503698194
  0
LINE
  8
_f-f_
  6
CONTINUOUS
 62
    7
 10
265.43799874015849
 20
13.697410503698194
 11
261.28709506015849
 21
13.697410503698194
  0
LINE
  8
_f-f_
  6
CONTINUOUS
 62
    7
 10
261.28709506015849
 20
13.697410503698194
 11
261.28709506015849
 21
13.13197088769823
  0
LINE
  8
_f-f_
  6
CONTINUOUS
 62
    7
 10
261.62197282015848
 20
14.929049415698273
 11
261.62197282015848
 21
14.363609799698224
  0
LINE
  8
_f-f_
  6
CONTINUOUS
 62
    7
 10
261.62197282015848
 20
14.363609799698224
 11
264.40866946015854
 21
14.363609799698224
  0
LINE
  8
_f-f_
  6
CONTINUOUS
 62
    7
 10
261.11323522015851
 20
14.63892080769827
 11
256.72228642015853
 21
14.63892080769827
  0
LINE
  8
_f-f_
  6
CONTINUOUS
 62
    7
 10
256.72228642015853
 20
14.63892080769827
 11
256.72228642015853
 21
14.073678759698211
  0
LINE
  8
_f-f_
  6
CONTINUOUS
 62
    7
 10
248.28712066015856
 20
15.250196199698237
 11
247.73096674015852
 21
15.185295111698224
  0
LINE
  8
_f-f_
  6
CONTINUOUS
 62
    7
 10
248.17648258015853
 20
10.813381988498236
 11
248.73757570015857
 21
10.894552801298175
  0
LINE
  8
_f-f_
  6
CONTINUOUS
 62
    7
 10
240.27079906015857
 20
13.902288519698203
 11
240.87041794015852
 21
13.944370503698195
  0
ARC
  8
_f-f_
  6
CONTINUOUS
 62
    7
 10
236.74753516495866
 20
13.76305823409821
 40
4.1268670632000006
 50
321.70218699999998
 51
2.5180820000000264
  0
ARC
  8
_f-f_
  6
CONTINUOUS
 62
    7
 10
238.33115299375856
 20
13.078716433298212
 40
2.4997389984000002
 50
293.16671400000001
 51
311.462399
  0
LINE
  8
_f-f_
  6
CONTINUOUS
 62
    7
 10
239.31456994015855
 20
10.780546186898221
 11
238.93326370015848
 21
11.179910142098237
  0
ARC
  8
_f-f_
  6
CONTINUOUS
 62
    7
 10
237.93835982095854
 20
13.317551449298207
 40
2.3578267271999995
 50
294.95826699999998
 51
355.396568
  0
ARC
  8
_f-f_
  6
CONTINUOUS
 62
    7
 10
236.41950066655863
 20
13.426618863698252
 40
3.8805615072000004
 50
355.59126199999997
 51
7.040883000000008
  0
LINE
  8
_f-f_
  6
CONTINUOUS
 62
    7
 10
250.53149314015846
 20
12.585794151698195
 11
250.53346882015853
 21
13.151233767698216
  0
LINE
  8
_f-f_
  6
CONTINUOUS
 62
    7
 10
246.08917666015856
 20
13.151233767698216
 11
246.08917666015856
 21
12.585794151698195
  0
LINE
  8
_f-f_
  6
CONTINUOUS
 62
    7
 10
250.33491298015849
 20
14.089879335698242
 11
250.33787650015853
 21
14.65531895169822
  0
LINE
  8
_f-f_
  6
CONTINUOUS
 62
    7
 10
246.3025501001585
 20
14.65531895169822
 11
246.3025501001585
 21
14.089879335698242
  0
LINE
  8
_f-f_
  6
CONTINUOUS
 62
    7
 10
245.69107714015851
 20
12.768050631698202
 11
245.69305282015858
 21
13.333292679698218
  0
LINE
  8
_f-f_
  6
CONTINUOUS
 62
    7
 10
245.69305282015858
 20
13.333292679698218
 11
242.56061218015859
 21
13.333292679698218
  0
LINE
  8
_f-f_
  6
CONTINUOUS
 62
    7
 10
242.56061218015859
 20
13.333292679698218
 11
242.56061218015859
 21
12.768050631698202
  0
LINE
  8
_f-f_
  6
CONTINUOUS
 62
    7
 10
242.56061218015859
 20
12.768050631698202
 11
245.69107714015851
 21
12.768050631698202
  0
LINE
  8
_f-f_
  6
CONTINUOUS
 62
    7
 10
242.94685762015857
 20
15.086511111698243
 11
238.61320354015854
 21
15.086511111698243
  0
LINE
  8
_f-f_
  6
CONTINUOUS
 62
    7
 10
238.61320354015854
 20
15.086511111698243
 11
238.61320354015854
 21
14.526603399698274
  0
LINE
  8
_f-f_
  6
CONTINUOUS
 62
    7
 10
241.43249890015855
 20
12.940725063698153
 11
241.04921698015858
 21
13.386537255698215
  0
LINE
  8
_f-f_
  6
CONTINUOUS
 62
    7
 10
264.40866946015854
 20
14.363609799698224
 11
264.41163298015852
 21
14.929049415698273
  0
LINE
  8
_f-f_
  6
CONTINUOUS
 62
    7
 10
264.41163298015852
 20
14.929049415698273
 11
261.62197282015848
 21
14.929049415698273
  0
LINE
  8
_f-f_
  6
CONTINUOUS
 62
    7
 10
264.76923106015852
 20
15.129383367698281
 11
264.76923106015852
 21
14.298116007698198
  0
LINE
  8
_f-f_
  6
CONTINUOUS
 62
    7
 10
264.76923106015852
 20
14.298116007698198
 11
265.18906306015845
 21
14.298116007698198
  0
LINE
  8
_f-f_
  6
CONTINUOUS
 62
    7
 10
265.18906306015845
 20
14.298116007698198
 11
265.18906306015845
 21
15.129383367698281
  0
LINE
  8
_f-f_
  6
CONTINUOUS
 62
    7
 10
265.18906306015845
 20
15.129383367698281
 11
264.76923106015852
 21
15.129383367698281
  0
LINE
  8
_f-f_
  6
CONTINUOUS
 62
    7
 10
265.35403234015854
 20
15.129383367698281
 11
265.35403234015854
 21
14.298116007698198
  0
LINE
  8
_f-f_
  6
CONTINUOUS
 62
    7
 10
265.35403234015854
 20
14.298116007698198
 11
265.77386434015853
 21
14.298116007698198
  0
LINE
  8
_f-f_
  6
CONTINUOUS
 62
    7
 10
265.77386434015853
 20
14.298116007698198
 11
265.77386434015853
 21
15.129383367698281
  0
LINE
  8
_f-f_
  6
CONTINUOUS
 62
    7
 10
265.77386434015853
 20
15.129383367698281
 11
265.35403234015854
 21
15.129383367698281
  0
ARC
  8
_f-f_
  6
CONTINUOUS
 62
    7
 10
240.40335977935854
 20
15.112665822098251
 40
1.8430007399999995
 50
290.51408900000007
 51
341.45836900000006
  0
ARC
  8
_f-f_
  6
CONTINUOUS
 62
    7
 10
240.32372670415859
 20
15.330920014898268
 40
2.6348450520000002
 50
294.88580100000001
 51
354.697475
  0
LINE
  8
_f-f_
  6
CONTINUOUS
 62
    7
 10
250.33787650015853
 20
14.65531895169822
 11
248.34864168895854
 21
14.65531895169822
  0
LINE
  8
_f-f_
  6
CONTINUOUS
 62
    7
 10
247.78497359935855
 20
14.65531895169822
 11
246.3025501001585
 21
14.65531895169822
  0
LINE
  8
_f-f_
  6
CONTINUOUS
 62
    7
 10
246.3025501001585
 20
14.089879335698242
 11
247.84259348335851
 21
14.089879335698242
  0
LINE
  8
_f-f_
  6
CONTINUOUS
 62
    7
 10
248.40711852415853
 20
14.089879335698242
 11
250.33491298015849
 21
14.089879335698242
  0
LINE
  8
_f-f_
  6
CONTINUOUS
 62
    7
 10
250.53346882015853
 20
13.151233767698216
 11
248.50419273775856
 21
13.151233767698216
  0
LINE
  8
_f-f_
  6
CONTINUOUS
 62
    7
 10
247.93824603055856
 20
13.151233767698216
 11
246.08917666015856
 21
13.151233767698216
  0
LINE
  8
_f-f_
  6
CONTINUOUS
 62
    7
 10
246.08917666015856
 20
12.585794151698195
 11
247.99586591455852
 21
12.585794151698195
  0
LINE
  8
_f-f_
  6
CONTINUOUS
 62
    7
 10
248.5626695729585
 20
12.585794151698195
 11
250.53149314015846
 21
12.585794151698195
  0
LINE
  8
_f-f_
  6
CONTINUOUS
 62
    7
 10
248.34864168895854
 20
14.65531895169822
 11
248.28712066015856
 21
15.250196199698237
  0
LINE
  8
_f-f_
  6
CONTINUOUS
 62
    7
 10
247.73096674015852
 20
15.185295111698224
 11
247.78497359935855
 21
14.65531895169822
  0
LINE
  8
_f-f_
  6
CONTINUOUS
 62
    7
 10
247.84259348335851
 20
14.089879335698242
 11
247.93824603055856
 21
13.151233767698216
  0
LINE
  8
_f-f_
  6
CONTINUOUS
 62
    7
 10
247.99586591455852
 20
12.585794151698195
 11
248.17648258015853
 21
10.813381988498236
  0
LINE
  8
_f-f_
  6
CONTINUOUS
 62
    7
 10
248.73757570015857
 20
10.894552801298175
 11
248.5626695729585
 21
12.585794151698195
  0
LINE
  8
_f-f_
  6
CONTINUOUS
 62
    7
 10
248.50419273775856
 20
13.151233767698216
 11
248.40711852415853
 21
14.089879335698242
  0
LINE
  8
_f-f_
  6
CONTINUOUS
 62
    7
 10
256.47532642015847
 20
14.621238471698234
 11
253.74102975295853
 21
14.621238471698234
  0
LINE
  8
_f-f_
  6
CONTINUOUS
 62
    7
 10
253.1740194713586
 20
14.621238471698234
 11
251.82161218015855
 21
14.621238471698234
  0
LINE
  8
_f-f_
  6
CONTINUOUS
 62
    7
 10
251.82161218015855
 20
14.055798855698214
 11
253.25871193375849
 21
14.055798855698214
  0
LINE
  8
_f-f_
  6
CONTINUOUS
 62
    7
 10
253.08308386015847
 20
15.228364935698238
 11
253.1740194713586
 21
14.621238471698234
  0
LINE
  8
_f-f_
  6
CONTINUOUS
 62
    7
 10
253.25871193375849
 20
14.055798855698214
 11
253.74691234015856
 21
10.796371383698215
  0
LINE
  8
_f-f_
  6
CONTINUOUS
 62
    7
 10
254.30800546015854
 20
10.877532318098247
 11
253.82666395615848
 21
14.055798855698214
  0
LINE
  8
_f-f_
  6
CONTINUOUS
 62
    7
 10
253.74102975295853
 20
14.621238471698234
 11
253.63923778015851
 21
15.293364807698225
  0
ARC
  8
_f-f_
  6
CONTINUOUS
 62
    7
 10
253.30606651375854
 20
15.707678898098237
 40
2.8757339520000005
 50
295.56537500000002
 51
324.94094800000005
  0
LINE
  8
_f-f_
  6
CONTINUOUS
 62
    7
 10
253.82666395615848
 20
14.055798855698214
 11
255.66727330015857
 21
14.055798855698214
  0
ARC
  8
_f-f_
  6
CONTINUOUS
 62
    7
 10
255.50034562735851
 20
17.562717291698277
 40
6.535748654399999
 50
304.14080200000001
 51
315.32696499999997
  0
ARC
  8
_f-f_
  6
CONTINUOUS
 62
    7
 10
251.77672308415856
 20
5.0645516172982639
 40
10.241466597600002
 50
37.351568999999991
 51
43.801712000000002
  0
ARC
  8
_f-f_
  6
CONTINUOUS
 62
    7
 10
251.93372790415847
 20
4.8052798380982154
 40
10.3140201528
 50
48.700563000000002
 51
55.028115999999997
  0
ARC
  8
_f-f_
  6
CONTINUOUS
 62
    7
 10
257.08223226655855
 20
15.662920690898247
 40
3.5238129696000002
 50
298.08031299999999
 51
333.19209899999998
  0
LINE
  8
_f-f_
  6
CONTINUOUS
 62
    7
 10
256.72228642015853
 20
14.073678759698211
 11
260.22731890495857
 21
14.073678759698211
  0
ARC
  8
_f-f_
  6
CONTINUOUS
 62
    7
 10
261.53521000975854
 20
13.090698932498213
 40
2.2783813415999994
 50
274.09817199999998
 51
1.0379469999999982
  0
ARC
  8
_f-f_
  6
CONTINUOUS
 62
    7
 10
261.63552269215853
 20
12.913413757298173
 40
1.5799941024000002
 50
330.51444500000002
 51
7.9510959999999775
  0
LINE
  8
_f-f_
  6
CONTINUOUS
 62
    7
 10
261.28709506015849
 20
13.13197088769823
 11
263.20032710815855
 21
13.13197088769823
  0
LINE
  8
_f-f_
  6
CONTINUOUS
 62
    7
 10
263.8132176185585
 20
13.13197088769823
 11
265.43503522015851
 21
13.13197088769823
  0
LINE
  8
_f-f_
  6
CONTINUOUS
 62
    7
 10
238.61320354015854
 20
14.526603399698274
 11
242.15069562415852
 21
14.526603399698274
  0
LINE
  8
_f-f_
  6
CONTINUOUS
 62
    7
 10
269.23119999999994
 20
13.941568000000032
 11
270.02147199999996
 21
13.941568000000032
  0
LINE
  8
_f-f_
  6
CONTINUOUS
 62
    7
 10
269.23119999999994
 20
13.546432000000038
 11
270.02147199999996
 21
13.546432000000038
  0
LINE
  8
_f-f_
  6
CONTINUOUS
 62
    7
 10
270.02147199999996
 20
13.941568000000032
 11
270.02147199999996
 21
13.546432000000038
  0
LINE
  8
_f-f_
  6
CONTINUOUS
 62
    7
 10
267.06892800000003
 20
13.853760000000037
 11
266.48719999999992
 21
13.853760000000037
  0
LINE
  8
_f-f_
  6
CONTINUOUS
 62
    7
 10
266.48719999999992
 20
13.853760000000037
 11
266.48719999999992
 21
13.458624000000043
  0
LINE
  8
_f-f_
  6
CONTINUOUS
 62
    7
 10
267.04697599999997
 20
13.458624000000043
 11
266.48719999999992
 21
13.458624000000043
  0
LINE
  8
_f-f_
  6
CONTINUOUS
 62
    7
 10
267.38723200000004
 20
13.853760000000037
 11
267.87017599999996
 21
13.853760000000037
  0
LINE
  8
_f-f_
  6
CONTINUOUS
 62
    7
 10
267.87017599999996
 20
13.853760000000037
 11
267.87017599999996
 21
13.458624000000043
  0
LINE
  8
_f-f_
  6
CONTINUOUS
 62
    7
 10
267.38723200000004
 20
13.458624000000043
 11
267.87017599999996
 21
13.458624000000043
  0
LINE
  8
_f-f_
  6
CONTINUOUS
 62
    7
 10
268.9019199999999
 20
13.019583999999952
 11
267.89212799999996
 21
13.019583999999952
  0
LINE
  8
_f-f_
  6
CONTINUOUS
 62
    7
 10
267.89212799999996
 20
13.019583999999952
 11
267.89212799999996
 21
12.624447999999973
  0
LINE
  8
_f-f_
  6
CONTINUOUS
 62
    7
 10
268.87996799999996
 20
12.624447999999973
 11
267.89212799999996
 21
12.624447999999973
  0
LINE
  8
_f-f_
  6
CONTINUOUS
 62
    7
 10
269.23119999999994
 20
13.019583999999952
 11
270.306848
 21
13.019583999999952
  0
LINE
  8
_f-f_
  6
CONTINUOUS
 62
    7
 10
270.306848
 20
13.019583999999952
 11
270.306848
 21
12.624447999999973
  0
LINE
  8
_f-f_
  6
CONTINUOUS
 62
    7
 10
269.26412799999991
 20
12.624447999999973
 11
270.306848
 21
12.624447999999973
  0
LINE
  8
_f-f_
  6
CONTINUOUS
 62
    7
 10
273.07279999999992
 20
13.853760000000037
 11
270.97638399999994
 21
13.853760000000037
  0
LINE
  8
_f-f_
  6
CONTINUOUS
 62
    7
 10
270.97638399999994
 20
13.853760000000037
 11
270.97638399999994
 21
13.458624000000043
  0
LINE
  8
_f-f_
  6
CONTINUOUS
 62
    7
 10
273.083776
 20
13.458624000000043
 11
270.97638399999994
 21
13.458624000000043
  0
LINE
  8
_f-f_
  6
CONTINUOUS
 62
    7
 10
273.44598400000001
 20
13.853760000000037
 11
274.64236799999992
 21
13.853760000000037
  0
LINE
  8
_f-f_
  6
CONTINUOUS
 62
    7
 10
274.64236799999992
 20
13.853760000000037
 11
274.64236799999992
 21
13.458624000000043
  0
LINE
  8
_f-f_
  6
CONTINUOUS
 62
    7
 10
273.44598400000001
 20
13.458624000000043
 11
274.64236799999992
 21
13.458624000000043
  0
LINE
  8
_f-f_
  6
CONTINUOUS
 62
    7
 10
272.16179199999999
 20
12.536639999999977
 11
272.16179199999999
 21
12.522973737441333
  0
LINE
  8
_f-f_
  6
CONTINUOUS
 62
    7
 10
272.16179199999999
 20
12.522973737441333
 11
272.16179199999999
 21
11.658559999999994
  0
LINE
  8
_f-f_
  6
CONTINUOUS
 62
    7
 10
271.15199999999993
 20
12.84396799999999
 11
271.15199999999993
 21
12.536639999999977
  0
LINE
  8
_f-f_
  6
CONTINUOUS
 62
    7
 10
271.83251199999995
 20
12.536639999999977
 11
271.15199999999993
 21
12.536639999999977
  0
LINE
  8
_f-f_
  6
CONTINUOUS
 62
    7
 10
272.16179199999999
 20
12.522973737441333
 11
272.83132799999998
 21
12.522973737441333
  0
LINE
  8
_f-f_
  6
CONTINUOUS
 62
    7
 10
272.83132799999998
 20
12.84396799999999
 11
272.83132799999998
 21
12.522973737441333
  0
LINE
  8
_f-f_
  6
CONTINUOUS
 62
    7
 10
277.05708800000002
 20
12.141503999999998
 11
278.9339839999999
 21
12.141503999999998
  0
LINE
  8
_f-f_
  6
CONTINUOUS
 62
    7
 10
278.9339839999999
 20
12.536639999999977
 11
278.9339839999999
 21
12.141503999999998
  0
LINE
  8
_f-f_
  6
CONTINUOUS
 62
    7
 10
276.66195199999999
 20
12.141503999999998
 11
275.43263999999999
 21
12.141503999999998
  0
LINE
  8
_f-f_
  6
CONTINUOUS
 62
    7
 10
275.43263999999999
 20
12.536639999999977
 11
275.43263999999999
 21
12.141503999999998
  0
LINE
  8
_f-f_
  6
CONTINUOUS
 62
    7
 10
280.33891199999999
 20
14.600128000000012
 11
280.33891199999999
 21
13.897663999999992
  0
LINE
  8
_f-f_
  6
CONTINUOUS
 62
    7
 10
280.33891199999999
 20
13.897663999999992
 11
279.70230399999997
 21
13.897663999999992
  0
LINE
  8
_f-f_
  6
CONTINUOUS
 62
    7
 10
279.70230399999997
 20
13.897663999999992
 11
279.70230399999997
 21
13.546432000000038
  0
LINE
  8
_f-f_
  6
CONTINUOUS
 62
    7
 10
280.82185599999991
 20
13.546432000000038
 11
279.70230399999997
 21
13.546432000000038
  0
LINE
  8
_f-f_
  6
CONTINUOUS
 62
    7
 10
282.17190399999993
 20
13.502527999999984
 11
281.43651199999999
 21
13.502527999999984
  0
LINE
  8
_f-f_
  6
CONTINUOUS
 62
    7
 10
281.43651199999999
 20
13.502527999999984
 11
281.43651199999999
 21
13.107392000000061
  0
LINE
  8
_f-f_
  6
CONTINUOUS
 62
    7
 10
282.17190399999993
 20
13.107392000000061
 11
281.43651199999999
 21
13.107392000000061
  0
LINE
  8
_f-f_
  6
CONTINUOUS
 62
    7
 10
282.55606399999994
 20
13.107392000000061
 11
283.34633599999995
 21
13.107392000000061
  0
LINE
  8
_f-f_
  6
CONTINUOUS
 62
    7
 10
283.34633599999995
 20
13.502527999999984
 11
283.34633599999995
 21
13.107392000000061
  0
LINE
  8
_f-f_
  6
CONTINUOUS
 62
    7
 10
282.55606399999994
 20
13.502527999999984
 11
283.34633599999995
 21
13.502527999999984
  0
LINE
  8
_f-f_
  6
CONTINUOUS
 62
    7
 10
283.5
 20
11.35123200000001
 11
283.5
 21
11
  0
LINE
  8
_f-f_
  6
CONTINUOUS
 62
    7
 10
282.55606399999994
 20
11.35123200000001
 11
283.5
 21
11.35123200000001
  0
LINE
  8
_f-f_
  6
CONTINUOUS
 62
    7
 10
281.16211199999998
 20
11.35123200000001
 11
281.16211199999998
 21
11
  0
LINE
  8
_f-f_
  6
CONTINUOUS
 62
    7
 10
282.17190399999993
 20
11.35123200000001
 11
281.16211199999998
 21
11.35123200000001
  0
LINE
  8
_f-f_
  6
CONTINUOUS
 62
    7
 10
233.5
 20
17
 11
233.5
 21
27
  0
LINE
  8
_f-f_
  6
CONTINUOUS
 62
    7
 10
183.5
 20
17
 11
183.5
 21
27
  0
LINE
  8
_f-f_
  6
CONTINUOUS
 62
    7
 10
253.5
 20
17
 11
253.5
 21
27
  0
TEXT
  8
_e-e_
 62
    7
 10
165.5
 20
20
 40
4
 41
1
 50
0
  1
図面名称
  0
TEXT
  8
_e-e_
 62
    7
 10
237.5
 20
20
 40
4
 41
1
 50
0
  1
作成日
  0
LINE
  8
_f-f_
  6
CONTINUOUS
 62
    7
 10
163.5
 20
17
 11
163.5
 21
27
  0
LINE
  8
_f-f_
  6
CONTINUOUS
 62
    7
 10
283.5
 20
27
 11
188.61822686063675
 21
27
  0
LINE
  8
_f-f_
  6
CONTINUOUS
 62
    7
 10
188.61822686063675
 20
27
 11
163.5
 21
27
  0
LINE
  8
_f-f_
  6
CONTINUOUS
 62
    7
 10
248.5
 20
197
 11
248.5
 21
187
  0
TEXT
  8
_e-e_
 62
    7
 10
237
 20
190
 40
4
 41
1
 50
0
  1
縮尺
  0
LINE
  8
_f-f_
  6
CONTINUOUS
 62
    7
 10
233.5
 20
197
 11
233.5
 21
187
  0
LINE
  8
_f-f_
  6
CONTINUOUS
 62
    7
 10
233.5
 20
187
 11
283.5
 21
187
  0
TEXT
  8
_e-e_
 62
    7
 10
255
 20
190
 40
4
 41
1
 50
0
  1
Ａ４：１/５
  0
TEXT
  8
_e-e_
 62
    7
 10
188.5
 20
22.5
 40
4
 41
1
 50
0
  1
あご下納まり例
  0
TEXT
  8
_e-e_
 62
    7
 10
258.5
 20
20
 40
4
 41
1
 50
0
  1
2020.03.11
  0
LINE
  8
_1-a_元図__躯体
  6
CONTINUOUS
 62
    7
 10
93.227245515610889
 20
165.12661899647475
 11
93.227245515610889
 21
38.75526899647474
  0
LINE
  8
_1-a_元図__躯体
  6
CONTINUOUS
 62
    7
 10
143.22724551561089
 20
159.78356899647474
 11
143.22724551561089
 21
139.85911899647473
  0
LINE
  8
_1-a_元図__躯体
  6
CONTINUOUS
 62
    7
 10
93.227245515610889
 20
165.12661899647475
 11
140.23054551561091
 21
162.92401899647473
  0
LINE
  8
_1-a_元図__躯体
  6
CONTINUOUS
 62
    7
 10
140.23054551561091
 20
162.92401899647473
 11
143.22724551561089
 21
159.78356899647474
  0
LINE
  8
_1-a_元図__躯体
  6
CONTINUOUS
 62
    7
 10
121.22724551561089
 20
136.85911899647473
 11
121.22724551561089
 21
52.059118996474737
  0
LINE
  8
_1-a_元図__躯体
  6
CONTINUOUS
 62
    7
 10
122.0272455156109
 20
66.659118996474731
 11
150.3638455156109
 21
66.659118996474731
  0
LINE
  8
_1-a_元図__躯体
  6
CONTINUOUS
 62
    7
 10
121.22724551561089
 20
52.059118996474737
 11
218.88104551561091
 21
52.059118996474737
  0
LINE
  8
_1-a_元図__躯体
  6
CONTINUOUS
 62
    7
 10
93.227245515610889
 20
124.27701899647474
 11
132.24829551561089
 21
163.29806899647474
  0
LINE
  8
_1-a_元図__躯体
  6
CONTINUOUS
 62
    7
 10
93.227245515610889
 20
67.708468996474735
 11
121.22724551561089
 21
95.708468996474735
  0
LINE
  8
_1-a_元図__躯体
  6
CONTINUOUS
 62
    7
 10
177.41114551561091
 20
38.75526899647474
 11
190.71499551561089
 21
52.059118996474737
  0
LINE
  8
_1-a_元図__躯体
  6
CONTINUOUS
 62
    7
 10
151.6462455156109
 20
52.859118996474734
 11
165.44624551561091
 21
66.659118996474731
  0
LINE
  8
_1-a_元図__躯体
  6
CONTINUOUS
 62
    7
 10
151.58829551561089
 20
66.659118996474731
 11
218.88104551561091
 21
66.659118996474731
  0
LINE
  8
_1-a_元図__躯体
  6
CONTINUOUS
 62
    7
 10
93.227245515610889
 20
125.40836899647474
 11
131.16759551561091
 21
163.34871899647476
  0
LINE
  8
_1-a_元図__躯体
  6
CONTINUOUS
 62
    7
 10
93.227245515610889
 20
123.14561899647474
 11
133.32904551561091
 21
163.24741899647472
  0
LINE
  8
_1-a_元図__躯体
  6
CONTINUOUS
 62
    7
 10
93.227245515610889
 20
68.839818996474733
 11
121.22724551561089
 21
96.839818996474733
  0
LINE
  8
_1-a_元図__躯体
  6
CONTINUOUS
 62
    7
 10
93.227245515610889
 20
66.577068996474736
 11
121.22724551561089
 21
94.577068996474736
  0
LINE
  8
_1-a_元図__躯体
  6
CONTINUOUS
 62
    7
 10
150.51484551561089
 20
52.859118996474734
 11
164.3148455156109
 21
66.659118996474731
  0
LINE
  8
_1-a_元図__躯体
  6
CONTINUOUS
 62
    7
 10
152.7775955156109
 20
52.859118996474734
 11
166.57759551561091
 21
66.659118996474731
  0
LINE
  8
_1-a_元図__躯体
  6
CONTINUOUS
 62
    7
 10
176.27979551561091
 20
38.75526899647474
 11
189.58359551561091
 21
52.059118996474737
  0
LINE
  8
_1-a_元図__躯体
  6
CONTINUOUS
 62
    7
 10
178.54249551561091
 20
38.75526899647474
 11
191.84634551561089
 21
52.059118996474737
  0
LINE
  8
_1-a_元図__躯体
  6
CONTINUOUS
 62
    7
 10
134.67984551561091
 20
139.40011899647473
 11
133.83284551561093
 21
136.85911899647473
  0
LINE
  8
_1-a_元図__躯体
  6
CONTINUOUS
 62
    7
 10
134.67984551561091
 20
139.40011899647473
 11
137.2208455156109
 21
139.40011899647473
  0
LINE
  8
_1-c_アンカ__類②
  6
CONTINUOUS
 62
    4
 10
101.43249551561094
 20
162.96016899647472
 11
101.35039551561094
 21
163.34441899647473
  0
LINE
  8
_1-c_アンカ__類②
  6
CONTINUOUS
 62
    4
 10
102.70494551561094
 20
163.28096899647474
 11
102.58724551561095
 21
162.90606899647472
  0
LINE
  8
_1-c_アンカ__類②
  6
CONTINUOUS
 62
    4
 10
102.65184551561094
 20
164.28456899647475
 11
101.49709551561094
 21
164.33866899647472
  0
LINE
  8
_1-c_アンカ__類②
  6
CONTINUOUS
 62
    4
 10
102.64154551561094
 20
164.06476899647473
 11
101.48679551561094
 21
164.11891899647472
  0
LINE
  8
_1-c_アンカ__類②
  6
CONTINUOUS
 62
    4
 10
101.37409551561095
 20
158.33781899647474
 11
101.22609551561095
 21
159.02551899647474
  0
LINE
  8
_1-c_アンカ__類②
  6
CONTINUOUS
 62
    4
 10
102.21314551561095
 20
158.29851899647474
 11
101.37409551561095
 21
158.33781899647474
  0
LINE
  8
_1-c_アンカ__類②
  6
CONTINUOUS
 62
    4
 10
102.21314551561095
 20
158.29851899647474
 11
102.42479551561095
 21
158.96936899647474
  0
LINE
  8
_1-c_アンカ__類②
  6
CONTINUOUS
 62
    4
 10
102.44914551561095
 20
159.48876899647473
 11
102.46599551561094
 21
159.84836899647473
  0
LINE
  8
_1-c_アンカ__類②
  6
CONTINUOUS
 62
    4
 10
101.25044551561095
 20
159.54496899647472
 11
101.26729551561095
 21
159.90456899647472
  0
LINE
  8
_1-c_アンカ__類②
  6
CONTINUOUS
 62
    4
 10
102.42899551561094
 20
159.37961899647473
 11
102.21924551561094
 21
159.38941899647475
  0
LINE
  8
_1-c_アンカ__類②
  6
CONTINUOUS
 62
    4
 10
101.47004551561095
 20
159.42451899647475
 11
101.26029551561095
 21
159.43436899647472
  0
LINE
  8
_1-c_アンカ__類②
  6
CONTINUOUS
 62
    4
 10
102.42434551561095
 20
159.27971899647474
 11
102.21454551561094
 21
159.28951899647473
  0
LINE
  8
_1-c_アンカ__類②
  6
CONTINUOUS
 62
    4
 10
102.41964551561094
 20
159.17981899647472
 11
102.20989551561095
 21
159.18966899647472
  0
LINE
  8
_1-c_アンカ__類②
  6
CONTINUOUS
 62
    4
 10
101.46069551561094
 20
159.22476899647472
 11
101.25094551561094
 21
159.23456899647474
  0
LINE
  8
_1-c_アンカ__類②
  6
CONTINUOUS
 62
    4
 10
102.41494551561094
 20
159.07991899647473
 11
102.20519551561094
 21
159.08976899647473
  0
LINE
  8
_1-c_アンカ__類②
  6
CONTINUOUS
 62
    4
 10
101.45599551561094
 20
159.12486899647473
 11
101.24624551561094
 21
159.13471899647473
  0
LINE
  8
_1-c_アンカ__類②
  6
CONTINUOUS
 62
    4
 10
101.45084551561095
 20
159.01496899647472
 11
101.47519551561095
 21
159.53441899647473
  0
LINE
  8
_1-c_アンカ__類②
  6
CONTINUOUS
 62
    4
 10
102.20004551561095
 20
158.97986899647472
 11
102.22439551561095
 21
159.49931899647473
  0
LINE
  8
_1-c_アンカ__類②
  6
CONTINUOUS
 62
    4
 10
101.46539551561094
 20
159.32466899647474
 11
101.25559551561093
 21
159.33446899647473
  0
LINE
  8
_1-c_アンカ__類②
  6
CONTINUOUS
 62
    4
 10
102.42464551561095
 20
158.96936899647474
 11
102.20004551561095
 21
158.97986899647472
  0
LINE
  8
_1-c_アンカ__類②
  6
CONTINUOUS
 62
    4
 10
101.45084551561095
 20
159.01496899647472
 11
101.22609551561095
 21
159.02551899647474
  0
LINE
  8
_1-c_アンカ__類②
  6
CONTINUOUS
 62
    4
 10
102.44914551561095
 20
159.48876899647473
 11
102.22439551561095
 21
159.49931899647473
  0
LINE
  8
_1-c_アンカ__類②
  6
CONTINUOUS
 62
    4
 10
101.47519551561095
 20
159.53441899647473
 11
101.25044551561095
 21
159.54496899647472
  0
LINE
  8
_1-c_アンカ__類②
  6
CONTINUOUS
 62
    4
 10
101.49204551561095
 20
159.89401899647473
 11
101.26729551561095
 21
159.90456899647472
  0
LINE
  8
_1-c_アンカ__類②
  6
CONTINUOUS
 62
    4
 10
101.81984551561095
 20
158.87756899647474
 11
102.11579551561094
 21
159.22711899647473
  0
LINE
  8
_1-c_アンカ__類②
  6
CONTINUOUS
 62
    4
 10
101.82449551561095
 20
158.97746899647473
 11
102.12344551561094
 21
159.33056899647474
  0
LINE
  8
_1-c_アンカ__類②
  6
CONTINUOUS
 62
    4
 10
101.81984551561095
 20
158.87756899647474
 11
101.55789551561094
 21
159.25326899647473
  0
LINE
  8
_1-c_アンカ__類②
  6
CONTINUOUS
 62
    4
 10
101.82449551561095
 20
158.97746899647473
 11
101.55989551561095
 21
159.35696899647473
  0
LINE
  8
_1-c_アンカ__類②
  6
CONTINUOUS
 62
    4
 10
102.14104551561095
 20
159.32361899647472
 11
102.13934551561096
 21
159.28706899647474
  0
LINE
  8
_1-c_アンカ__類②
  6
CONTINUOUS
 62
    4
 10
101.54174551561094
 20
159.35171899647472
 11
101.53999551561094
 21
159.31516899647474
  0
LINE
  8
_1-c_アンカ__類②
  6
CONTINUOUS
 62
    4
 10
101.79829551561095
 20
158.41806899647472
 11
102.09424551561094
 21
158.76761899647474
  0
LINE
  8
_1-c_アンカ__類②
  6
CONTINUOUS
 62
    4
 10
101.80299551561095
 20
158.51796899647474
 11
102.10189551561095
 21
158.87106899647472
  0
LINE
  8
_1-c_アンカ__類②
  6
CONTINUOUS
 62
    4
 10
102.11954551561094
 20
158.86411899647473
 11
102.11784551561095
 21
158.82756899647472
  0
LINE
  8
_1-c_アンカ__類②
  6
CONTINUOUS
 62
    4
 10
101.80299551561095
 20
158.51796899647474
 11
101.53839551561094
 21
158.89746899647474
  0
LINE
  8
_1-c_アンカ__類②
  6
CONTINUOUS
 62
    4
 10
101.52019551561094
 20
158.89221899647472
 11
101.51849551561094
 21
158.85566899647472
  0
LINE
  8
_1-c_アンカ__類②
  6
CONTINUOUS
 62
    4
 10
101.79829551561095
 20
158.41806899647472
 11
101.53634551561095
 21
158.79376899647474
  0
LINE
  8
_1-c_アンカ__類②
  6
CONTINUOUS
 62
    4
 10
101.49204551561095
 20
159.89401899647473
 11
101.49264551561095
 21
160.65481899647475
  0
LINE
  8
_1-c_アンカ__類②
  6
CONTINUOUS
 62
    4
 10
102.24124551561096
 20
159.85891899647473
 11
102.31179551561095
 21
160.61641899647472
  0
LINE
  8
_1-c_アンカ__類②
  6
CONTINUOUS
 62
    4
 10
102.54244551561095
 20
160.94601899647472
 11
102.32769551561094
 21
160.95606899647473
  0
LINE
  8
_1-c_アンカ__類②
  6
CONTINUOUS
 62
    4
 10
101.50859551561095
 20
160.99446899647472
 11
101.29384551561094
 21
161.00451899647473
  0
LINE
  8
_1-c_アンカ__類②
  6
CONTINUOUS
 62
    4
 10
102.51879551561095
 20
160.60671899647474
 11
102.31179551561095
 21
160.61641899647472
  0
LINE
  8
_1-c_アンカ__類②
  6
CONTINUOUS
 62
    4
 10
101.49264551561095
 20
160.65481899647475
 11
101.28564551561095
 21
160.66451899647473
  0
LINE
  8
_1-c_アンカ__類②
  6
CONTINUOUS
 62
    4
 10
101.28564551561095
 20
160.66451899647473
 11
101.29384551561094
 21
161.00451899647473
  0
LINE
  8
_1-c_アンカ__類②
  6
CONTINUOUS
 62
    4
 10
102.51879551561095
 20
160.60671899647474
 11
102.54244551561095
 21
160.94601899647472
  0
LINE
  8
_1-c_アンカ__類②
  6
CONTINUOUS
 62
    4
 10
101.49264551561095
 20
160.59476899647473
 11
101.28729551561094
 21
160.60436899647473
  0
LINE
  8
_1-c_アンカ__類②
  6
CONTINUOUS
 62
    4
 10
102.46599551561094
 20
159.84836899647473
 11
102.24124551561096
 21
159.85891899647473
  0
LINE
  8
_1-c_アンカ__類②
  6
CONTINUOUS
 62
    4
 10
102.51164551561095
 20
160.54701899647472
 11
102.30454551561094
 21
160.55671899647473
  0
LINE
  8
_1-c_アンカ__類②
  6
CONTINUOUS
 62
    4
 10
101.27604551561095
 20
159.02316899647474
 11
101.30039551561094
 21
159.54261899647472
  0
LINE
  8
_1-c_アンカ__類②
  6
CONTINUOUS
 62
    4
 10
102.37484551561094
 20
158.97166899647473
 11
102.39919551561096
 21
159.49111899647474
  0
LINE
  8
_1-c_アンカ__類②
  6
CONTINUOUS
 62
    4
 10
101.31724551561095
 20
159.90221899647472
 11
101.31784551561094
 21
160.66301899647473
  0
LINE
  8
_1-c_アンカ__類②
  6
CONTINUOUS
 62
    4
 10
101.31129551561094
 20
161.80456899647473
 11
101.32719551561094
 21
162.14421899647473
  0
LINE
  8
_1-c_アンカ__類②
  6
CONTINUOUS
 62
    4
 10
102.59989551561094
 20
161.74416899647471
 11
102.61579551561096
 21
162.08381899647472
  0
LINE
  8
_1-c_アンカ__類②
  6
CONTINUOUS
 62
    4
 10
101.50859551561095
 20
160.99446899647472
 11
101.52604551561095
 21
161.79451899647472
  0
LINE
  8
_1-c_アンカ__類②
  6
CONTINUOUS
 62
    4
 10
102.32769551561094
 20
160.95606899647473
 11
102.38509551561094
 21
161.75426899647474
  0
LINE
  8
_1-c_アンカ__類②
  6
CONTINUOUS
 62
    4
 10
102.59989551561094
 20
161.74416899647471
 11
102.38509551561094
 21
161.75426899647474
  0
LINE
  8
_1-c_アンカ__類②
  6
CONTINUOUS
 62
    4
 10
101.52604551561095
 20
161.79451899647472
 11
101.31129551561094
 21
161.80456899647473
  0
LINE
  8
_1-c_アンカ__類②
  6
CONTINUOUS
 62
    4
 10
101.49309551561095
 20
160.01411899647474
 11
101.27059551561094
 21
160.02451899647474
  0
LINE
  8
_1-c_アンカ__類②
  6
CONTINUOUS
 62
    4
 10
101.49409551561094
 20
160.13416899647473
 11
101.27404551561094
 21
160.14451899647472
  0
LINE
  8
_1-c_アンカ__類②
  6
CONTINUOUS
 62
    4
 10
101.49509551561096
 20
160.25426899647474
 11
101.27749551561095
 21
160.26446899647473
  0
LINE
  8
_1-c_アンカ__類②
  6
CONTINUOUS
 62
    4
 10
101.49614551561095
 20
160.37436899647471
 11
101.28094551561094
 21
160.38441899647472
  0
LINE
  8
_1-c_アンカ__類②
  6
CONTINUOUS
 62
    4
 10
101.49254551561094
 20
160.49466899647473
 11
101.28439551561095
 21
160.50441899647473
  0
LINE
  8
_1-c_アンカ__類②
  6
CONTINUOUS
 62
    4
 10
102.50469551561095
 20
160.44721899647473
 11
102.29694551561094
 21
160.45696899647473
  0
LINE
  8
_1-c_アンカ__類②
  6
CONTINUOUS
 62
    4
 10
102.49634551561095
 20
160.32746899647472
 11
102.28209551561095
 21
160.33751899647473
  0
LINE
  8
_1-c_アンカ__類②
  6
CONTINUOUS
 62
    4
 10
102.48799551561095
 20
160.20776899647473
 11
102.27189551561094
 21
160.21786899647472
  0
LINE
  8
_1-c_アンカ__類②
  6
CONTINUOUS
 62
    4
 10
102.47969551561094
 20
160.08801899647474
 11
102.26164551561095
 21
160.09821899647474
  0
LINE
  8
_1-c_アンカ__類②
  6
CONTINUOUS
 62
    4
 10
102.47134551561093
 20
159.96826899647473
 11
102.25144551561095
 21
159.97856899647473
  0
LINE
  8
_1-c_アンカ__類②
  6
CONTINUOUS
 62
    4
 10
102.41604551561095
 20
159.85071899647474
 11
102.46889551561094
 21
160.60906899647472
  0
LINE
  8
_1-c_アンカ__類②
  6
CONTINUOUS
 62
    4
 10
101.32604551561094
 20
161.00301899647474
 11
101.34354551561094
 21
161.80306899647474
  0
LINE
  8
_1-c_アンカ__類②
  6
CONTINUOUS
 62
    4
 10
102.51019551561095
 20
160.94751899647471
 11
102.56764551561095
 21
161.74571899647472
  0
LINE
  8
_1-c_アンカ__類②
  6
CONTINUOUS
 62
    4
 10
102.54939551561094
 20
161.06581899647475
 11
102.33629551561094
 21
161.07581899647474
  0
LINE
  8
_1-c_アンカ__類②
  6
CONTINUOUS
 62
    4
 10
102.55799551561094
 20
161.18551899647474
 11
102.34814551561094
 21
161.19536899647474
  0
LINE
  8
_1-c_アンカ__類②
  6
CONTINUOUS
 62
    4
 10
102.56659551561094
 20
161.30526899647472
 11
102.35354551561095
 21
161.31526899647471
  0
LINE
  8
_1-c_アンカ__類②
  6
CONTINUOUS
 62
    4
 10
102.57519551561094
 20
161.42501899647473
 11
102.36214551561095
 21
161.43496899647474
  0
LINE
  8
_1-c_アンカ__類②
  6
CONTINUOUS
 62
    4
 10
102.58384551561095
 20
161.54471899647473
 11
102.37074551561093
 21
161.55471899647475
  0
LINE
  8
_1-c_アンカ__類②
  6
CONTINUOUS
 62
    4
 10
102.59244551561095
 20
161.66446899647474
 11
102.37934551561094
 21
161.67441899647471
  0
LINE
  8
_1-c_アンカ__類②
  6
CONTINUOUS
 62
    4
 10
101.51119551561095
 20
161.11446899647473
 11
101.29814551561094
 21
161.12446899647475
  0
LINE
  8
_1-c_アンカ__類②
  6
CONTINUOUS
 62
    4
 10
101.51384551561094
 20
161.23446899647473
 11
101.30074551561094
 21
161.24446899647472
  0
LINE
  8
_1-c_アンカ__類②
  6
CONTINUOUS
 62
    4
 10
101.51644551561094
 20
161.35446899647474
 11
101.30339551561094
 21
161.36446899647473
  0
LINE
  8
_1-c_アンカ__類②
  6
CONTINUOUS
 62
    4
 10
101.51904551561094
 20
161.47446899647474
 11
101.30599551561095
 21
161.48446899647473
  0
LINE
  8
_1-c_アンカ__類②
  6
CONTINUOUS
 62
    4
 10
101.52169551561094
 20
161.59451899647473
 11
101.30859551561095
 21
161.60446899647474
  0
LINE
  8
_1-c_アンカ__類②
  6
CONTINUOUS
 62
    4
 10
101.52429551561094
 20
161.71451899647474
 11
101.31124551561095
 21
161.72446899647474
  0
LINE
  8
_1-c_アンカ__類②
  6
CONTINUOUS
 62
    4
 10
101.42969551561094
 20
162.90021899647473
 11
101.49709551561094
 21
164.33866899647472
  0
LINE
  8
_1-c_アンカ__類②
  6
CONTINUOUS
 62
    4
 10
102.58444551561094
 20
162.84611899647473
 11
102.65184551561094
 21
164.28456899647475
  0
LINE
  8
_1-c_アンカ__類②
  6
CONTINUOUS
 62
    4
 10
101.35944551561094
 20
162.14271899647471
 11
101.46194551561094
 21
162.89871899647474
  0
LINE
  8
_1-c_アンカ__類②
  6
CONTINUOUS
 62
    4
 10
102.58354551561095
 20
162.08531899647474
 11
102.55219551561095
 21
162.84761899647472
  0
LINE
  8
_1-c_アンカ__類②
  6
CONTINUOUS
 62
    4
 10
102.58444551561094
 20
162.84611899647473
 11
102.40664551561095
 21
162.85446899647474
  0
LINE
  8
_1-c_アンカ__類②
  6
CONTINUOUS
 62
    4
 10
101.60749551561094
 20
162.89191899647474
 11
101.42969551561094
 21
162.90021899647473
  0
LINE
  8
_1-c_アンカ__類②
  6
CONTINUOUS
 62
    4
 10
101.62999551561094
 20
163.37136899647473
 11
101.45219551561095
 21
163.37971899647474
  0
LINE
  8
_1-c_アンカ__類②
  6
CONTINUOUS
 62
    4
 10
101.63464551561094
 20
163.47126899647472
 11
101.45684551561094
 21
163.47961899647473
  0
LINE
  8
_1-c_アンカ__類②
  6
CONTINUOUS
 62
    4
 10
101.63934551561094
 20
163.57116899647474
 11
101.46154551561094
 21
163.57946899647473
  0
LINE
  8
_1-c_アンカ__類②
  6
CONTINUOUS
 62
    4
 10
101.64404551561094
 20
163.67106899647473
 11
101.46619551561095
 21
163.67936899647472
  0
LINE
  8
_1-c_アンカ__類②
  6
CONTINUOUS
 62
    4
 10
101.64869551561094
 20
163.77091899647473
 11
101.47089551561095
 21
163.77926899647474
  0
LINE
  8
_1-c_アンカ__類②
  6
CONTINUOUS
 62
    4
 10
101.65884551561095
 20
163.87056899647473
 11
101.47559551561095
 21
163.87916899647473
  0
LINE
  8
_1-c_アンカ__類②
  6
CONTINUOUS
 62
    4
 10
101.65804551561095
 20
163.97071899647474
 11
101.48024551561095
 21
163.97906899647472
  0
LINE
  8
_1-c_アンカ__類②
  6
CONTINUOUS
 62
    4
 10
101.60749551561094
 20
162.89191899647474
 11
101.66464551561094
 21
164.11056899647474
  0
LINE
  8
_1-c_アンカ__類②
  6
CONTINUOUS
 62
    4
 10
102.60689551561094
 20
163.32561899647473
 11
102.42909551561094
 21
163.33391899647472
  0
LINE
  8
_1-c_アンカ__類②
  6
CONTINUOUS
 62
    4
 10
102.61159551561094
 20
163.42546899647473
 11
102.43379551561094
 21
163.43381899647474
  0
LINE
  8
_1-c_アンカ__類②
  6
CONTINUOUS
 62
    4
 10
102.61629551561094
 20
163.52536899647473
 11
102.43844551561094
 21
163.53371899647473
  0
LINE
  8
_1-c_アンカ__類②
  6
CONTINUOUS
 62
    4
 10
102.62094551561094
 20
163.62526899647472
 11
102.44314551561094
 21
163.63361899647472
  0
LINE
  8
_1-c_アンカ__類②
  6
CONTINUOUS
 62
    4
 10
102.62564551561094
 20
163.72516899647474
 11
102.44784551561094
 21
163.73346899647473
  0
LINE
  8
_1-c_アンカ__類②
  6
CONTINUOUS
 62
    4
 10
102.63029551561095
 20
163.82506899647473
 11
102.45249551561095
 21
163.83336899647472
  0
LINE
  8
_1-c_アンカ__類②
  6
CONTINUOUS
 62
    4
 10
102.63499551561094
 20
163.92491899647473
 11
102.45719551561095
 21
163.93326899647474
  0
LINE
  8
_1-c_アンカ__類②
  6
CONTINUOUS
 62
    4
 10
102.40664551561095
 20
162.85446899647474
 11
102.46374551561094
 21
164.07311899647473
  0
LINE
  8
_1-c_アンカ__類②
  6
CONTINUOUS
 62
    4
 10
102.60129551561094
 20
163.20571899647473
 11
102.42349551561094
 21
163.21406899647474
  0
LINE
  8
_1-c_アンカ__類②
  6
CONTINUOUS
 62
    4
 10
101.62434551561094
 20
163.25151899647474
 11
101.44654551561094
 21
163.25981899647473
  0
LINE
  8
_1-c_アンカ__類②
  6
CONTINUOUS
 62
    4
 10
102.58439551561094
 20
162.80606899647472
 11
102.40499551561095
 21
162.81446899647474
  0
LINE
  8
_1-c_アンカ__類②
  6
CONTINUOUS
 62
    4
 10
101.52604551561095
 20
161.79451899647472
 11
101.54384551561094
 21
162.13576899647472
  0
LINE
  8
_1-c_アンカ__類②
  6
CONTINUOUS
 62
    4
 10
102.38509551561094
 20
161.75426899647474
 11
102.39919551561096
 21
162.09326899647473
  0
LINE
  8
_1-c_アンカ__類②
  6
CONTINUOUS
 62
    4
 10
101.54374551561094
 20
162.13406899647472
 11
101.60749551561094
 21
162.89191899647474
  0
LINE
  8
_1-c_アンカ__類②
  6
CONTINUOUS
 62
    4
 10
102.39919551561096
 20
162.09326899647473
 11
102.40664551561095
 21
162.85446899647474
  0
LINE
  8
_1-c_アンカ__類②
  6
CONTINUOUS
 62
    4
 10
101.55384551561094
 20
162.25371899647473
 11
101.34509551561094
 21
162.26351899647474
  0
LINE
  8
_1-c_アンカ__類②
  6
CONTINUOUS
 62
    4
 10
101.56389551561094
 20
162.37336899647474
 11
101.36124551561095
 21
162.38286899647474
  0
LINE
  8
_1-c_アンカ__類②
  6
CONTINUOUS
 62
    4
 10
101.57394551561094
 20
162.49301899647472
 11
101.37744551561094
 21
162.50226899647473
  0
LINE
  8
_1-c_アンカ__類②
  6
CONTINUOUS
 62
    4
 10
101.58404551561094
 20
162.61271899647474
 11
101.39364551561096
 21
162.62161899647472
  0
LINE
  8
_1-c_アンカ__類②
  6
CONTINUOUS
 62
    4
 10
101.59409551561095
 20
162.73236899647472
 11
101.40984551561095
 21
162.74096899647472
  0
LINE
  8
_1-c_アンカ__類②
  6
CONTINUOUS
 62
    4
 10
101.60414551561095
 20
162.85201899647473
 11
101.42599551561094
 21
162.86036899647473
  0
LINE
  8
_1-c_アンカ__類②
  6
CONTINUOUS
 62
    4
 10
102.58934551561094
 20
162.68571899647472
 11
102.40509551561095
 21
162.69436899647474
  0
LINE
  8
_1-c_アンカ__類②
  6
CONTINUOUS
 62
    4
 10
102.59429551561095
 20
162.56536899647475
 11
102.40389551561094
 21
162.57426899647473
  0
LINE
  8
_1-c_アンカ__類②
  6
CONTINUOUS
 62
    4
 10
102.59924551561095
 20
162.44496899647473
 11
102.40274551561095
 21
162.45421899647474
  0
LINE
  8
_1-c_アンカ__類②
  6
CONTINUOUS
 62
    4
 10
102.60419551561094
 20
162.32461899647473
 11
102.40154551561095
 21
162.33411899647473
  0
LINE
  8
_1-c_アンカ__類②
  6
CONTINUOUS
 62
    4
 10
102.60914551561095
 20
162.20426899647472
 11
102.40039551561094
 21
162.21406899647474
  0
LINE
  8
_1-c_アンカ__類②
  6
CONTINUOUS
 62
    4
 10
101.54374551561094
 20
162.13406899647472
 11
101.32719551561094
 21
162.14421899647473
  0
LINE
  8
_1-c_アンカ__類②
  6
CONTINUOUS
 62
    4
 10
102.61579551561096
 20
162.08381899647472
 11
102.39919551561096
 21
162.09396899647473
  0
LINE
  8
_1-c_アンカ__類②
  6
CONTINUOUS
 62
    4
 10
101.75139551561094
 20
163.18546899647473
 11
101.75989551561094
 21
163.36626899647473
  0
LINE
  8
_1-c_アンカ__類②
  6
CONTINUOUS
 62
    4
 10
101.73824551561094
 20
162.90481899647475
 11
101.74674551561094
 21
163.08561899647472
  0
LINE
  8
_1-c_アンカ__類②
  6
CONTINUOUS
 62
    4
 10
101.69149551561094
 20
163.18831899647472
 11
101.69994551561095
 21
163.36906899647474
  0
LINE
  8
_1-c_アンカ__類②
  6
CONTINUOUS
 62
    4
 10
101.67834551561094
 20
162.90761899647472
 11
101.68679551561094
 21
163.08841899647473
  0
LINE
  8
_1-c_アンカ__類②
  6
CONTINUOUS
 62
    4
 10
101.86104551561095
 20
159.11591899647473
 11
101.80109551561094
 21
159.11871899647471
  0
LINE
  8
_1-c_アンカ__類②
  6
CONTINUOUS
 62
    4
 10
101.86104551561095
 20
159.11591899647473
 11
101.86264551561094
 21
159.15061899647472
  0
LINE
  8
_1-c_アンカ__類②
  6
CONTINUOUS
 62
    4
 10
101.80109551561094
 20
159.11871899647471
 11
101.80274551561095
 21
159.15341899647473
  0
LINE
  8
_1-c_アンカ__類②
  6
CONTINUOUS
 62
    4
 10
101.75614551561094
 20
161.33221899647472
 11
102.15709551561095
 21
161.56531899647473
  0
LINE
  8
_1-c_アンカ__類②
  6
CONTINUOUS
 62
    4
 10
101.63529551561095
 20
160.70721899647472
 11
101.65689551561096
 21
161.16866899647474
  0
LINE
  8
_1-c_アンカ__類②
  6
CONTINUOUS
 62
    4
 10
101.72599551561095
 20
161.38406899647472
 11
102.12694551561094
 21
161.61721899647475
  0
LINE
  8
_1-c_アンカ__類②
  6
CONTINUOUS
 62
    4
 10
101.57534551561095
 20
160.71001899647473
 11
101.59694551561094
 21
161.17151899647473
  0
LINE
  8
_1-c_アンカ__類②
  6
CONTINUOUS
 62
    4
 10
102.28609551561095
 20
161.77791899647474
 11
102.30774551561095
 21
162.23936899647472
  0
LINE
  8
_1-c_アンカ__類②
  6
CONTINUOUS
 62
    4
 10
101.82179551561094
 20
162.73271899647474
 11
102.19914551561094
 21
162.46311899647472
  0
LINE
  8
_1-c_アンカ__類②
  6
CONTINUOUS
 62
    4
 10
102.22619551561094
 20
161.78076899647473
 11
102.24779551561095
 21
162.24221899647475
  0
LINE
  8
_1-c_アンカ__類②
  6
CONTINUOUS
 62
    4
 10
101.78689551561094
 20
162.68386899647473
 11
102.16429551561095
 21
162.41431899647475
  0
LINE
  8
_1-c_アンカ__類②
  6
CONTINUOUS
 62
    4
 10
101.82899551561096
 20
163.58166899647475
 11
102.22989551561095
 21
163.81481899647471
  0
LINE
  8
_1-c_アンカ__類②
  6
CONTINUOUS
 62
    4
 10
101.85914551561095
 20
163.52981899647475
 11
102.26004551561095
 21
163.76291899647472
  0
LINE
  8
_1-c_アンカ__類②
  6
CONTINUOUS
 62
    4
 10
102.38909551561095
 20
163.97551899647473
 11
102.39384551561095
 21
164.07641899647473
  0
LINE
  8
_1-c_アンカ__類②
  6
CONTINUOUS
 62
    4
 10
102.32914551561095
 20
163.97831899647474
 11
102.33389551561095
 21
164.07921899647474
  0
LINE
  8
_1-c_アンカ__類②
  6
CONTINUOUS
 62
    4
 10
101.75139551561094
 20
163.18546899647473
 11
101.69149551561094
 21
163.18831899647472
  0
LINE
  8
_1-c_アンカ__類②
  6
CONTINUOUS
 62
    4
 10
101.74674551561094
 20
163.08561899647472
 11
101.68679551561094
 21
163.08841899647473
  0
LINE
  8
_1-c_アンカ__類②
  6
CONTINUOUS
 62
    4
 10
101.71879551561094
 20
160.53511899647472
 11
102.05744551561094
 21
160.29321899647474
  0
LINE
  8
_1-c_アンカ__類②
  6
CONTINUOUS
 62
    4
 10
102.14194551561094
 20
159.55641899647472
 11
102.16599551561094
 21
160.06946899647474
  0
LINE
  8
_1-c_アンカ__類②
  6
CONTINUOUS
 62
    4
 10
101.96189551561095
 20
159.31416899647473
 11
102.01294551561094
 21
159.34381899647474
  0
LINE
  8
_1-c_アンカ__類②
  6
CONTINUOUS
 62
    4
 10
101.93174551561094
 20
159.36601899647474
 11
101.98279551561095
 21
159.39566899647474
  0
LINE
  8
_1-c_アンカ__類②
  6
CONTINUOUS
 62
    4
 10
101.68394551561094
 20
160.48631899647472
 11
102.02254551561094
 21
160.24441899647474
  0
LINE
  8
_1-c_アンカ__類②
  6
CONTINUOUS
 62
    4
 10
102.08204551561094
 20
159.55921899647473
 11
102.10609551561095
 21
160.07231899647473
  0
LINE
  8
_1-c_アンカ__類②
  6
CONTINUOUS
 62
    4
 10
101.35479551561095
 20
164.65566899647473
 11
101.35899551561094
 21
164.74556899647473
  0
LINE
  8
_1-c_アンカ__類②
  6
CONTINUOUS
 62
    4
 10
102.82739551561095
 20
164.67676899647472
 11
101.35899551561094
 21
164.74556899647473
  0
LINE
  8
_1-c_アンカ__類②
  6
CONTINUOUS
 62
    4
 10
102.82319551561095
 20
164.58686899647472
 11
102.82739551561095
 21
164.67676899647472
  0
LINE
  8
_1-c_アンカ__類②
  6
CONTINUOUS
 62
    4
 10
102.82319551561095
 20
164.58686899647472
 11
101.35479551561095
 21
164.65566899647473
  0
LINE
  8
_1-c_アンカ__類②
  6
CONTINUOUS
 62
    4
 10
101.50364551561094
 20
164.47851899647472
 11
101.35479551561095
 21
164.65566899647473
  0
LINE
  8
_1-c_アンカ__類②
  6
CONTINUOUS
 62
    4
 10
102.65839551561095
 20
164.42436899647473
 11
101.50364551561094
 21
164.47851899647472
  0
LINE
  8
_1-c_アンカ__類②
  6
CONTINUOUS
 62
    4
 10
102.65839551561095
 20
164.42436899647473
 11
102.82319551561095
 21
164.58686899647472
  0
LINE
  8
_1-c_アンカ__類②
  6
CONTINUOUS
 62
    4
 10
102.13099551561095
 20
164.44911899647474
 11
102.07634551561094
 21
164.35156899647473
  0
LINE
  8
_1-c_アンカ__類②
  6
CONTINUOUS
 62
    4
 10
102.07634551561094
 20
164.35156899647473
 11
102.03109551561094
 21
164.45376899647474
  0
LINE
  8
_1-c_アンカ__類②
  6
CONTINUOUS
 62
    4
 10
101.35039551561094
 20
163.34441899647473
 11
101.39909551561094
 21
164.38331899647474
  0
LINE
  8
_1-c_アンカ__類②
  6
CONTINUOUS
 62
    4
 10
101.52364551561094
 20
164.47756899647473
 11
101.39909551561094
 21
164.38331899647474
  0
LINE
  8
_1-c_アンカ__類②
  6
CONTINUOUS
 62
    4
 10
102.75359551561095
 20
164.31981899647474
 11
102.63844551561094
 21
164.42531899647472
  0
LINE
  8
_1-c_アンカ__類②
  6
CONTINUOUS
 62
    4
 10
102.70494551561094
 20
163.28096899647474
 11
102.75359551561095
 21
164.31981899647474
  0
LINE
  8
_1-c_アンカ__類②
  6
CONTINUOUS
 62
    4
 10
102.02454551561094
 20
164.31391899647474
 11
102.07634551561094
 21
164.35156899647473
  0
LINE
  8
_1-c_アンカ__類②
  6
CONTINUOUS
 62
    4
 10
102.12444551561094
 20
164.30926899647474
 11
102.07634551561094
 21
164.35156899647473
  0
LINE
  8
_1-c_アンカ__類②
  6
CONTINUOUS
 62
    4
 10
102.02454551561094
 20
164.31391899647474
 11
102.03109551561094
 21
164.45376899647474
  0
LINE
  8
_1-c_アンカ__類②
  6
CONTINUOUS
 62
    4
 10
102.12444551561094
 20
164.30926899647474
 11
102.13099551561095
 21
164.44911899647474
  0
LINE
  8
_1-c_アンカ__類②
  6
CONTINUOUS
 62
    4
 10
101.51709551561095
 20
164.33771899647473
 11
101.52364551561094
 21
164.47756899647473
  0
LINE
  8
_1-c_アンカ__類②
  6
CONTINUOUS
 62
    4
 10
102.63184551561095
 20
164.28546899647475
 11
102.63844551561094
 21
164.42531899647472
  0
ARC
  8
_1-c_アンカ__類②
  6
CONTINUOUS
 62
    4
 10
102.03944551561094
 20
159.29176899647473
 40
0.1
 50
319.74801332285693
 51
357.31701332285689
  0
ARC
  8
_1-c_アンカ__類②
  6
CONTINUOUS
 62
    4
 10
102.13109551561094
 20
159.32406899647472
 40
0.01
 50
357.31701332285695
 51
139.74801332285696
  0
ARC
  8
_1-c_アンカ__類②
  6
CONTINUOUS
 62
    4
 10
101.63989551561095
 20
159.31046899647473
 40
0.1
 50
177.31701332285687
 51
214.88601332285694
  0
ARC
  8
_1-c_アンカ__類②
  6
CONTINUOUS
 62
    4
 10
101.55169551561094
 20
159.35121899647473
 40
0.01
 50
34.886013322856918
 51
177.31701332285687
  0
ARC
  8
_1-c_アンカ__類②
  6
CONTINUOUS
 62
    4
 10
102.01794551561095
 20
158.83226899647474
 40
0.1
 50
319.74801332285693
 51
357.31701332285689
  0
ARC
  8
_1-c_アンカ__類②
  6
CONTINUOUS
 62
    4
 10
102.10954551561095
 20
158.86456899647473
 40
0.01
 50
357.31701332285695
 51
139.74801332285696
  0
ARC
  8
_1-c_アンカ__類②
  6
CONTINUOUS
 62
    4
 10
101.53019551561094
 20
158.89171899647474
 40
0.01
 50
34.886013322856918
 51
177.31701332285687
  0
ARC
  8
_1-c_アンカ__類②
  6
CONTINUOUS
 62
    4
 10
101.61834551561094
 20
158.85096899647473
 40
0.1
 50
177.31701332285687
 51
214.88601332285694
  0
ARC
  8
_1-c_アンカ__類②
  6
CONTINUOUS
 62
    4
 10
102.06244551561095
 20
159.14126899647474
 40
0.26
 50
120.17501332285691
 51
177.31701332285687
  0
ARC
  8
_1-c_アンカ__類②
  6
CONTINUOUS
 62
    4
 10
102.06244551561095
 20
159.14126899647474
 40
0.2
 50
120.17501332285691
 51
177.31701332285687
  0
ARC
  8
_1-c_アンカ__類②
  6
CONTINUOUS
 62
    4
 10
101.85669551561094
 20
161.15931899647472
 40
0.2
 50
120.17501332285691
 51
177.31701332285687
  0
ARC
  8
_1-c_アンカ__類②
  6
CONTINUOUS
 62
    4
 10
101.85669551561094
 20
161.15931899647472
 40
0.26
 50
120.17501332285691
 51
177.31701332285687
  0
ARC
  8
_1-c_アンカ__類②
  6
CONTINUOUS
 62
    4
 10
101.83504551561094
 20
160.69786899647474
 40
0.2
 50
177.31701332285687
 51
234.45901332285695
  0
ARC
  8
_1-c_アンカ__類②
  6
CONTINUOUS
 62
    4
 10
101.83504551561094
 20
160.69786899647474
 40
0.26
 50
177.31701332285687
 51
234.45901332285695
  0
ARC
  8
_1-c_アンカ__類②
  6
CONTINUOUS
 62
    4
 10
102.02639551561094
 20
161.79011899647472
 40
0.26
 50
300.17501332285696
 51
357.31701332285689
  0
ARC
  8
_1-c_アンカ__類②
  6
CONTINUOUS
 62
    4
 10
102.04804551561094
 20
162.25156899647473
 40
0.26
 50
357.31701332285695
 51
54.459013322856983
  0
ARC
  8
_1-c_アンカ__類②
  6
CONTINUOUS
 62
    4
 10
102.04804551561094
 20
162.25156899647473
 40
0.2
 50
357.31701332285689
 51
54.459013322856983
  0
ARC
  8
_1-c_アンカ__類②
  6
CONTINUOUS
 62
    4
 10
102.02639551561094
 20
161.79011899647472
 40
0.2
 50
300.17501332285696
 51
357.31701332285689
  0
ARC
  8
_1-c_アンカ__類②
  6
CONTINUOUS
 62
    4
 10
101.93804551561095
 20
162.89546899647473
 40
0.2
 50
177.31701332285687
 51
234.45901332285695
  0
ARC
  8
_1-c_アンカ__類②
  6
CONTINUOUS
 62
    4
 10
101.93804551561095
 20
162.89546899647473
 40
0.26
 50
177.31701332285687
 51
234.45901332285695
  0
ARC
  8
_1-c_アンカ__類②
  6
CONTINUOUS
 62
    4
 10
101.95964551561094
 20
163.35691899647472
 40
0.26
 50
120.17501332285691
 51
177.31701332285687
  0
ARC
  8
_1-c_アンカ__類②
  6
CONTINUOUS
 62
    4
 10
102.12939551561095
 20
163.98771899647474
 40
0.26
 50
300.17501332285696
 51
357.31701332285689
  0
ARC
  8
_1-c_アンカ__類②
  6
CONTINUOUS
 62
    4
 10
101.95964551561094
 20
163.35691899647472
 40
0.2
 50
120.17501332285691
 51
177.31701332285687
  0
ARC
  8
_1-c_アンカ__類②
  6
CONTINUOUS
 62
    4
 10
102.12939551561095
 20
163.98771899647474
 40
0.2
 50
300.17501332285696
 51
357.31701332285689
  0
ARC
  8
_1-c_アンカ__類②
  6
CONTINUOUS
 62
    4
 10
101.90629551561094
 20
160.08166899647472
 40
0.26
 50
357.31701332285695
 51
54.459013322856983
  0
ARC
  8
_1-c_アンカ__類②
  6
CONTINUOUS
 62
    4
 10
101.88224551561095
 20
159.56856899647474
 40
0.26
 50
300.17501332285696
 51
357.31701332285689
  0
ARC
  8
_1-c_アンカ__類②
  6
CONTINUOUS
 62
    4
 10
101.88224551561095
 20
159.56856899647474
 40
0.2
 50
300.17501332285696
 51
357.31701332285689
  0
ARC
  8
_1-c_アンカ__類②
  6
CONTINUOUS
 62
    4
 10
101.90629551561094
 20
160.08166899647472
 40
0.2
 50
357.31701332285689
 51
54.459013322856983
  0
LINE
  8
_1-2_ハッチング
  6
CONTINUOUS
 62
    4
 10
92.750045515610964
 20
167.53781899647475
 11
92.268645515610984
 21
166.79331899647474
  0
LINE
  8
_1-2_ハッチング
  6
CONTINUOUS
 62
    4
 10
93.565045515610962
 20
165.13141899647474
 11
92.739995515610985
 21
165.95646899647474
  0
LINE
  8
_1-2_ハッチング
  6
CONTINUOUS
 62
    4
 10
94.121295515610967
 20
165.10551899647476
 11
92.969845515610984
 21
166.25696899647474
  0
LINE
  8
_1-2_ハッチング
  6
CONTINUOUS
 62
    4
 10
94.548645515610986
 20
165.20851899647474
 11
93.328645515610958
 21
166.42851899647474
  0
LINE
  8
_1-2_ハッチング
  6
CONTINUOUS
 62
    4
 10
94.872095515610965
 20
165.41541899647473
 11
93.79119551561098
 21
166.49626899647475
  0
LINE
  8
_1-2_ハッチング
  6
CONTINUOUS
 62
    4
 10
95.027045515610979
 20
165.79076899647475
 11
94.422345515610971
 21
166.39546899647473
  0
ARC
  8
_1-2_ハッチング
  6
CONTINUOUS
 62
    4
 10
92.979495515610978
 20
167.21016899647475
 40
0.4
 50
19.341000000000005
 51
125.00200000000004
  0
LINE
  8
_1-2_ハッチング
  6
CONTINUOUS
 62
    4
 10
95.027530138662542
 20
165.74208405794411
 11
95.027530138662542
 21
165.74208405794411
  0
LINE
  8
_1-2_ハッチング
  6
CONTINUOUS
 62
    4
 10
95.027530138662542
 20
165.74208405794411
 11
95.01569434570149
 21
165.86415991969398
  0
LINE
  8
_1-2_ハッチング
  6
CONTINUOUS
 62
    4
 10
95.01569434570149
 20
165.86415991969398
 11
94.969182284537894
 21
165.98416839242219
  0
LINE
  8
_1-2_ハッチング
  6
CONTINUOUS
 62
    4
 10
94.969182284537894
 20
165.98416839242219
 11
94.889407200613988
 21
166.09846307941214
  0
LINE
  8
_1-2_ハッチング
  6
CONTINUOUS
 62
    4
 10
94.889407200613988
 20
166.09846307941214
 11
94.77879301948667
 21
166.20357119443554
  0
LINE
  8
_1-2_ハッチング
  6
CONTINUOUS
 62
    4
 10
94.77879301948667
 20
166.20357119443554
 11
94.640700697075999
 21
166.29629908060463
  0
LINE
  8
_1-2_ハッチング
  6
CONTINUOUS
 62
    4
 10
94.640700697075999
 20
166.29629908060463
 11
94.47932609872035
 21
166.37382924802077
  0
LINE
  8
_1-2_ハッチング
  6
CONTINUOUS
 62
    4
 10
94.47932609872035
 20
166.37382924802077
 11
94.299572509931266
 21
166.43380598177919
  0
LINE
  8
_1-2_ハッチング
  6
CONTINUOUS
 62
    4
 10
94.299572509931266
 20
166.43380598177919
 11
94.106901652544394
 21
166.47440691917433
  0
LINE
  8
_1-2_ハッチング
  6
CONTINUOUS
 62
    4
 10
94.106901652544394
 20
166.47440691917433
 11
93.907167733065279
 21
166.49439842126847
  0
LINE
  8
_1-2_ハッチング
  6
CONTINUOUS
 62
    4
 10
93.907167733065279
 20
166.49439842126847
 11
93.706439565567067
 21
166.49317305638669
  0
LINE
  8
_1-2_ハッチング
  6
CONTINUOUS
 62
    4
 10
93.706439565567067
 20
166.49317305638669
 11
93.510816173845811
 21
166.4707680566209
  0
LINE
  8
_1-2_ハッチング
  6
CONTINUOUS
 62
    4
 10
93.510816173845811
 20
166.4707680566209
 11
93.32624147566878
 21
166.42786418655143
  0
LINE
  8
_1-2_ハッチング
  6
CONTINUOUS
 62
    4
 10
93.32624147566878
 20
166.42786418655143
 11
93.158323679840748
 21
166.36576505855996
  0
LINE
  8
_1-2_ハッチング
  6
CONTINUOUS
 62
    4
 10
93.158323679840748
 20
166.36576505855996
 11
93.012164883617473
 21
166.28635752322688
  0
LINE
  8
_1-2_ハッチング
  6
CONTINUOUS
 62
    4
 10
93.012164883617473
 20
166.28635752322688
 11
92.892206048062263
 21
166.19205433833108
  0
LINE
  8
_1-2_ハッチング
  6
CONTINUOUS
 62
    4
 10
92.892206048062263
 20
166.19205433833108
 11
92.802092061691368
 21
166.08572085842593
  0
LINE
  8
_1-2_ハッチング
  6
CONTINUOUS
 62
    4
 10
92.802092061691368
 20
166.08572085842593
 11
92.744560992380784
 21
165.97058797249099
  0
LINE
  8
_1-2_ハッチング
  6
CONTINUOUS
 62
    4
 10
92.744560992380784
 20
165.97058797249099
 11
92.721360892559403
 21
165.85015393500538
  0
LINE
  8
_1-2_ハッチング
  6
CONTINUOUS
 62
    4
 10
92.721360892559403
 20
165.85015393500538
 11
92.733196685520454
 21
165.72807807325552
  0
LINE
  8
_1-2_ハッチング
  6
CONTINUOUS
 62
    4
 10
92.733196685520454
 20
165.72807807325552
 11
92.779708746684051
 21
165.6080696005273
  0
LINE
  8
_1-2_ハッチング
  6
CONTINUOUS
 62
    4
 10
92.779708746684051
 20
165.6080696005273
 11
92.859483830607957
 21
165.49377491353735
  0
LINE
  8
_1-2_ハッチング
  6
CONTINUOUS
 62
    4
 10
92.859483830607957
 20
165.49377491353735
 11
92.970098011735274
 21
165.38866679851395
  0
LINE
  8
_1-2_ハッチング
  6
CONTINUOUS
 62
    4
 10
92.970098011735274
 20
165.38866679851395
 11
93.108190334145945
 21
165.29593891234487
  0
LINE
  8
_1-2_ハッチング
  6
CONTINUOUS
 62
    4
 10
93.108190334145945
 20
165.29593891234487
 11
93.269564932501595
 21
165.21840874492872
  0
LINE
  8
_1-2_ハッチング
  6
CONTINUOUS
 62
    4
 10
93.269564932501595
 20
165.21840874492872
 11
93.449318521290678
 21
165.15843201117031
  0
LINE
  8
_1-2_ハッチング
  6
CONTINUOUS
 62
    4
 10
93.449318521290678
 20
165.15843201117031
 11
93.64198937867755
 21
165.11783107377516
  0
LINE
  8
_1-2_ハッチング
  6
CONTINUOUS
 62
    4
 10
93.64198937867755
 20
165.11783107377516
 11
93.841723298156666
 21
165.09783957168102
  0
LINE
  8
_1-2_ハッチング
  6
CONTINUOUS
 62
    4
 10
93.841723298156666
 20
165.09783957168102
 11
94.042451465654878
 21
165.0990649365628
  0
LINE
  8
_1-2_ハッチング
  6
CONTINUOUS
 62
    4
 10
94.042451465654878
 20
165.0990649365628
 11
94.238074857376134
 21
165.12146993632859
  0
LINE
  8
_1-2_ハッチング
  6
CONTINUOUS
 62
    4
 10
94.238074857376134
 20
165.12146993632859
 11
94.422649555553164
 21
165.16437380639806
  0
LINE
  8
_1-2_ハッチング
  6
CONTINUOUS
 62
    4
 10
94.422649555553164
 20
165.16437380639806
 11
94.590567351381196
 21
165.22647293438953
  0
LINE
  8
_1-2_ハッチング
  6
CONTINUOUS
 62
    4
 10
94.590567351381196
 20
165.22647293438953
 11
94.736726147604472
 21
165.30588046972261
  0
LINE
  8
_1-2_ハッチング
  6
CONTINUOUS
 62
    4
 10
94.736726147604472
 20
165.30588046972261
 11
94.856684983159681
 21
165.40018365461842
  0
LINE
  8
_1-2_ハッチング
  6
CONTINUOUS
 62
    4
 10
94.856684983159681
 20
165.40018365461842
 11
94.946798969530576
 21
165.50651713452356
  0
LINE
  8
_1-2_ハッチング
  6
CONTINUOUS
 62
    4
 10
94.946798969530576
 20
165.50651713452356
 11
95.004330038841161
 21
165.6216500204585
  0
LINE
  8
_1-2_ハッチング
  6
CONTINUOUS
 62
    4
 10
95.004330038841161
 20
165.6216500204585
 11
95.027530138662542
 21
165.74208405794411
  0
LINE
  8
_1-2_ハッチング
  6
CONTINUOUS
 62
    4
 10
95.027530138662542
 20
165.74208405794411
 11
95.027530138662542
 21
165.74208405794411
  0
LINE
  8
_1-b_その他
  6
CONTINUOUS
 62
    5
 10
101.72604551561093
 20
164.73736899647474
 11
101.71659551561092
 21
164.72881899647473
  0
LINE
  8
_1-b_その他
  6
CONTINUOUS
 62
    5
 10
101.69724551561092
 20
164.88026899647474
 11
101.54004551561093
 21
164.73706899647476
  0
LINE
  8
_1-b_その他
  6
CONTINUOUS
 62
    5
 10
101.57259551561091
 20
164.93576899647474
 11
101.36344551561092
 21
164.74536899647475
  0
LINE
  8
_1-b_その他
  6
CONTINUOUS
 62
    5
 10
101.39599551561093
 20
164.94406899647475
 11
101.18684551561091
 21
164.75361899647476
  0
LINE
  8
_1-b_その他
  6
CONTINUOUS
 62
    5
 10
101.21939551561093
 20
164.95231899647473
 11
101.01029551561092
 21
164.76191899647475
  0
LINE
  8
_1-b_その他
  6
CONTINUOUS
 62
    5
 10
101.04284551561091
 20
164.96061899647475
 11
100.83369551561094
 21
164.77016899647475
  0
LINE
  8
_1-b_その他
  6
CONTINUOUS
 62
    5
 10
100.86624551561093
 20
164.96886899647475
 11
100.65709551561093
 21
164.77846899647474
  0
LINE
  8
_1-b_その他
  6
CONTINUOUS
 62
    5
 10
100.68969551561094
 20
164.97716899647475
 11
100.48054551561091
 21
164.78671899647475
  0
LINE
  8
_1-b_その他
  6
CONTINUOUS
 62
    5
 10
100.51309551561093
 20
164.98541899647475
 11
100.30394551561093
 21
164.79501899647474
  0
LINE
  8
_1-b_その他
  6
CONTINUOUS
 62
    5
 10
100.33649551561092
 20
164.99371899647474
 11
100.12734551561093
 21
164.80326899647474
  0
LINE
  8
_1-b_その他
  6
CONTINUOUS
 62
    5
 10
100.15994551561093
 20
165.00196899647474
 11
99.950795515610935
 21
164.81156899647476
  0
LINE
  8
_1-b_その他
  6
CONTINUOUS
 62
    5
 10
99.983345515610921
 20
165.01026899647474
 11
99.774195515610927
 21
164.81981899647474
  0
LINE
  8
_1-b_その他
  6
CONTINUOUS
 62
    5
 10
99.806745515610942
 20
165.01851899647474
 11
99.597595515610919
 21
164.82811899647476
  0
LINE
  8
_1-b_その他
  6
CONTINUOUS
 62
    5
 10
99.630195515610922
 20
165.02681899647473
 11
99.421045515610928
 21
164.83636899647473
  0
LINE
  8
_1-b_その他
  6
CONTINUOUS
 62
    5
 10
99.453595515610914
 20
165.03506899647473
 11
99.24444551561092
 21
164.84466899647475
  0
LINE
  8
_1-b_その他
  6
CONTINUOUS
 62
    5
 10
99.276995515610906
 20
165.04336899647475
 11
99.097845515610913
 21
164.88021899647475
  0
LINE
  8
_1-b_その他
  6
CONTINUOUS
 62
    5
 10
104.92814551561094
 20
164.77851899647476
 11
105.09124551561092
 21
164.59936899647474
  0
LINE
  8
_1-b_その他
  6
CONTINUOUS
 62
    5
 10
104.75154551561093
 20
164.78681899647475
 11
104.94194551561094
 21
164.57766899647476
  0
LINE
  8
_1-b_その他
  6
CONTINUOUS
 62
    5
 10
104.57494551561092
 20
164.79506899647475
 11
104.76539551561092
 21
164.58591899647473
  0
LINE
  8
_1-b_その他
  6
CONTINUOUS
 62
    5
 10
104.39839551561093
 20
164.80336899647475
 11
104.58879551561091
 21
164.59421899647475
  0
LINE
  8
_1-b_その他
  6
CONTINUOUS
 62
    5
 10
104.22179551561092
 20
164.81161899647475
 11
104.41219551561093
 21
164.60246899647476
  0
LINE
  8
_1-b_その他
  6
CONTINUOUS
 62
    5
 10
104.04519551561091
 20
164.81991899647474
 11
104.23564551561094
 21
164.61076899647475
  0
LINE
  8
_1-b_その他
  6
CONTINUOUS
 62
    5
 10
103.86864551561092
 20
164.82816899647474
 11
104.05904551561093
 21
164.61901899647475
  0
LINE
  8
_1-b_その他
  6
CONTINUOUS
 62
    5
 10
103.69204551561091
 20
164.83646899647474
 11
103.88244551561093
 21
164.62731899647474
  0
LINE
  8
_1-b_その他
  6
CONTINUOUS
 62
    5
 10
103.51544551561091
 20
164.84471899647474
 11
103.70589551561093
 21
164.63556899647475
  0
LINE
  8
_1-b_その他
  6
CONTINUOUS
 62
    5
 10
103.33889551561091
 20
164.85301899647476
 11
103.52929551561093
 21
164.64386899647474
  0
LINE
  8
_1-b_その他
  6
CONTINUOUS
 62
    5
 10
103.16229551561094
 20
164.86126899647473
 11
103.35269551561092
 21
164.65211899647474
  0
LINE
  8
_1-b_その他
  6
CONTINUOUS
 62
    5
 10
102.98569551561093
 20
164.86956899647475
 11
103.17614551561093
 21
164.66041899647473
  0
LINE
  8
_1-b_その他
  6
CONTINUOUS
 62
    5
 10
102.80914551561091
 20
164.87781899647473
 11
102.99954551561092
 21
164.66866899647474
  0
LINE
  8
_1-b_その他
  6
CONTINUOUS
 62
    5
 10
102.63254551561093
 20
164.88611899647475
 11
102.82294551561091
 21
164.67696899647473
  0
LINE
  8
_1-b_その他
  6
CONTINUOUS
 62
    5
 10
102.50324551561093
 20
164.84246899647474
 11
102.64639551561092
 21
164.68521899647476
  0
LINE
  8
_1-b_その他
  6
CONTINUOUS
 62
    5
 10
102.46124551561093
 20
164.70291899647475
 11
102.46979551561094
 21
164.69351899647475
  0
LINE
  8
_1-b_その他
  6
CONTINUOUS
 62
    5
 10
99.096495515610911
 20
164.85156899647475
 11
99.105845515610923
 21
165.05136899647474
  0
LINE
  8
_1-b_その他
  6
CONTINUOUS
 62
    5
 10
105.08989551561092
 20
164.57071899647474
 11
105.09929551561092
 21
164.77051899647475
  0
LINE
  8
_1-b_その他
  6
CONTINUOUS
 62
    5
 10
101.65504551561094
 20
164.93191899647474
 11
99.105845515610923
 21
165.05136899647474
  0
LINE
  8
_1-b_その他
  6
CONTINUOUS
 62
    5
 10
102.55009551561093
 20
164.88996899647475
 11
105.09929551561092
 21
164.77051899647475
  0
LINE
  8
_1-b_その他
  6
CONTINUOUS
 62
    5
 10
105.08989551561092
 20
164.57071899647474
 11
102.46079551561093
 21
164.69391899647474
  0
LINE
  8
_1-b_その他
  6
CONTINUOUS
 62
    5
 10
102.46079551561093
 20
164.69391899647474
 11
102.46254551561094
 21
164.73106899647473
  0
LINE
  8
_1-b_その他
  6
CONTINUOUS
 62
    5
 10
99.096495515610911
 20
164.85156899647475
 11
101.72559551561093
 21
164.72836899647473
  0
LINE
  8
_1-b_その他
  6
CONTINUOUS
 62
    5
 10
101.72559551561093
 20
164.72836899647473
 11
101.72734551561092
 21
164.76551899647475
  0
LINE
  8
_1-3_断熱材
  6
CENTER2
 62
   30
 10
134.52724551561096
 20
136.85911899647476
 11
122.02724551561096
 21
66.659118996474774
  0
LINE
  8
_1-3_断熱材
  6
CENTER2
 62
   30
 10
134.52724551561096
 20
66.659118996474774
 11
122.02724551561096
 21
136.85911899647476
  0
LINE
  8
_1-3_断熱材
  6
CONTINUOUS
 62
   30
 10
134.52724551561096
 20
133.12166899647474
 11
138.26469551561092
 21
136.85911899647476
  0
LINE
  8
_1-3_断熱材
  6
CONTINUOUS
 62
   30
 10
134.52724551561096
 20
126.05056899647475
 11
143.22724551561095
 21
134.75056899647475
  0
LINE
  8
_1-3_断熱材
  6
CONTINUOUS
 62
   30
 10
134.52724551561096
 20
118.97951899647475
 11
143.22724551561095
 21
127.67951899647475
  0
LINE
  8
_1-3_断熱材
  6
CONTINUOUS
 62
   30
 10
134.52724551561096
 20
111.90846899647477
 11
143.22724551561095
 21
120.60846899647476
  0
LINE
  8
_1-3_断熱材
  6
CONTINUOUS
 62
   30
 10
134.52724551561096
 20
104.83736899647477
 11
143.22724551561095
 21
113.53736899647475
  0
LINE
  8
_1-3_断熱材
  6
CONTINUOUS
 62
   30
 10
134.52724551561096
 20
97.766318996474752
 11
143.22724551561095
 21
106.46631899647474
  0
LINE
  8
_1-3_断熱材
  6
CONTINUOUS
 62
   30
 10
134.52724551561096
 20
90.695268996474766
 11
143.22724551561095
 21
99.395268996474755
  0
LINE
  8
_1-3_断熱材
  6
CONTINUOUS
 62
   30
 10
134.52724551561096
 20
83.624168996474765
 11
143.22724551561095
 21
92.324168996474754
  0
LINE
  8
_1-3_断熱材
  6
CONTINUOUS
 62
   30
 10
134.52724551561096
 20
76.553118996474751
 11
143.22724551561095
 21
85.253118996474768
  0
LINE
  8
_1-3_断熱材
  6
CONTINUOUS
 62
   30
 10
134.52724551561096
 20
69.482068996474766
 11
143.22724551561095
 21
78.182068996474754
  0
LINE
  8
_1-3_断熱材
  6
CONTINUOUS
 62
   30
 10
138.77539551561097
 20
66.659118996474774
 11
143.22724551561095
 21
71.110968996474753
  0
LINE
  8
_1-3_断熱材
  6
CONTINUOUS
 62
   30
 10
136.52949551561096
 20
66.659118996474774
 11
134.52724551561096
 21
68.661368996474749
  0
LINE
  8
_1-3_断熱材
  6
CONTINUOUS
 62
   30
 10
143.22724551561095
 20
67.032418996474746
 11
134.52724551561096
 21
75.732418996474735
  0
LINE
  8
_1-3_断熱材
  6
CONTINUOUS
 62
   30
 10
143.22724551561095
 20
74.103518996474747
 11
134.52724551561096
 21
82.803518996474764
  0
LINE
  8
_1-3_断熱材
  6
CONTINUOUS
 62
   30
 10
143.22724551561095
 20
81.174568996474761
 11
134.52724551561096
 21
89.87456899647475
  0
LINE
  8
_1-3_断熱材
  6
CONTINUOUS
 62
   30
 10
143.22724551561095
 20
88.245618996474747
 11
134.52724551561096
 21
96.945618996474764
  0
LINE
  8
_1-3_断熱材
  6
CONTINUOUS
 62
   30
 10
143.22724551561095
 20
95.316718996474748
 11
134.52724551561096
 21
104.01671899647476
  0
LINE
  8
_1-3_断熱材
  6
CONTINUOUS
 62
   30
 10
143.22724551561095
 20
102.38776899647476
 11
134.52724551561096
 21
111.08776899647475
  0
LINE
  8
_1-3_断熱材
  6
CONTINUOUS
 62
   30
 10
143.22724551561095
 20
109.45881899647475
 11
134.52724551561096
 21
118.15881899647476
  0
LINE
  8
_1-3_断熱材
  6
CONTINUOUS
 62
   30
 10
143.22724551561095
 20
116.52991899647475
 11
134.52724551561096
 21
125.22991899647477
  0
LINE
  8
_1-3_断熱材
  6
CONTINUOUS
 62
   30
 10
143.22724551561095
 20
123.60096899647476
 11
134.52724551561096
 21
132.30096899647475
  0
LINE
  8
_1-3_断熱材
  6
CONTINUOUS
 62
   30
 10
143.22724551561095
 20
130.67201899647475
 11
137.04019551561095
 21
136.85911899647476
  0
LINE
  8
_1-6_アンカ__類
  6
CONTINUOUS
 62
    4
 10
101.67544551561093
 20
164.90951899647476
 11
101.22469551561093
 21
165.40456899647475
  0
LINE
  8
_1-6_アンカ__類
  6
CONTINUOUS
 62
    4
 10
102.52769551561093
 20
164.86956899647475
 11
103.02274551561095
 21
165.32031899647475
  0
LINE
  8
_1-6_アンカ__類
  6
CONTINUOUS
 62
    4
 10
102.46639551561094
 20
164.81381899647477
 11
101.73124551561094
 21
164.84826899647476
  0
LINE
  8
_1-6_アンカ__類
  6
CONTINUOUS
 62
    4
 10
101.23164551561092
 20
165.55241899647476
 11
101.22469551561093
 21
165.40456899647475
  0
LINE
  8
_1-6_アンカ__類
  6
CONTINUOUS
 62
    4
 10
103.02964551561092
 20
165.46816899647476
 11
103.02274551561095
 21
165.32031899647475
  0
LINE
  8
_1-6_アンカ__類
  6
CONTINUOUS
 62
    4
 10
103.02274551561095
 20
165.32031899647475
 11
101.22469551561093
 21
165.40456899647475
  0
LINE
  8
_1-6_アンカ__類
  6
CONTINUOUS
 62
    4
 10
103.02964551561092
 20
165.46816899647476
 11
101.23164551561092
 21
165.55241899647476
  0
LINE
  8
_1-6_アンカ__類
  6
CONTINUOUS
 62
    4
 10
102.45144551561094
 20
164.49416899647477
 11
101.71624551561092
 21
164.52861899647476
  0
LINE
  8
_1-6_アンカ__類
  6
CONTINUOUS
 62
    4
 10
102.03719551561093
 20
158.06566899647476
 11
101.49494551561094
 21
157.90856899647477
  0
LINE
  8
_1-6_アンカ__類
  6
CONTINUOUS
 62
    4
 10
101.49494551561094
 20
157.90856899647477
 11
101.60439551561095
 21
157.83066899647477
  0
LINE
  8
_1-6_アンカ__類
  6
CONTINUOUS
 62
    4
 10
102.10799551561092
 20
157.99651899647478
 11
101.49494551561094
 21
157.90856899647477
  0
LINE
  8
_1-6_アンカ__類
  6
CONTINUOUS
 62
    4
 10
101.60439551561095
 20
157.83066899647477
 11
102.10799551561092
 21
157.99651899647478
  0
LINE
  8
_1-6_アンカ__類
  6
CONTINUOUS
 62
    4
 10
102.10799551561092
 20
157.99651899647478
 11
102.03719551561093
 21
158.06566899647476
  0
LINE
  8
_1-6_アンカ__類
  6
CONTINUOUS
 62
    4
 10
102.11664551561094
 20
158.44331899647477
 11
101.37239551561095
 21
158.24351899647476
  0
LINE
  8
_1-6_アンカ__類
  6
CONTINUOUS
 62
    4
 10
101.51349551561094
 20
158.17161899647476
 11
102.25959551561095
 21
158.37081899647475
  0
LINE
  8
_1-6_アンカ__類
  6
CONTINUOUS
 62
    4
 10
102.25959551561095
 20
158.37081899647475
 11
101.37239551561095
 21
158.24351899647476
  0
LINE
  8
_1-6_アンカ__類
  6
CONTINUOUS
 62
    4
 10
101.37239551561095
 20
158.24351899647476
 11
101.51349551561094
 21
158.17161899647476
  0
LINE
  8
_1-6_アンカ__類
  6
CONTINUOUS
 62
    4
 10
102.25959551561095
 20
158.37081899647475
 11
102.11664551561094
 21
158.44331899647477
  0
LINE
  8
_1-6_アンカ__類
  6
CONTINUOUS
 62
    4
 10
101.34204551561095
 20
158.61566899647477
 11
101.48429551561094
 21
158.54316899647478
  0
LINE
  8
_1-6_アンカ__類
  6
CONTINUOUS
 62
    4
 10
101.48429551561094
 20
158.54316899647478
 11
102.28014551561094
 21
158.75021899647476
  0
LINE
  8
_1-6_アンカ__類
  6
CONTINUOUS
 62
    4
 10
101.50199551561093
 20
158.92271899647477
 11
101.48939551561094
 21
158.65401899647475
  0
LINE
  8
_1-6_アンカ__類
  6
CONTINUOUS
 62
    4
 10
102.13204551561094
 20
158.71171899647476
 11
102.12294551561092
 21
158.51761899647477
  0
LINE
  8
_1-6_アンカ__類
  6
CONTINUOUS
 62
    4
 10
102.14979551561095
 20
159.09126899647475
 11
102.13724551561094
 21
158.82276899647476
  0
LINE
  8
_1-6_アンカ__類
  6
CONTINUOUS
 62
    4
 10
102.28014551561094
 20
158.75021899647476
 11
101.34204551561095
 21
158.61566899647477
  0
LINE
  8
_1-6_アンカ__類
  6
CONTINUOUS
 62
    4
 10
102.13724551561094
 20
158.82276899647476
 11
101.34204551561095
 21
158.61566899647477
  0
LINE
  8
_1-6_アンカ__類
  6
CONTINUOUS
 62
    4
 10
102.28014551561094
 20
158.75021899647476
 11
102.13724551561094
 21
158.82276899647476
  0
LINE
  8
_1-6_アンカ__類
  6
CONTINUOUS
 62
    4
 10
101.51979551561095
 20
159.30226899647477
 11
101.50719551561093
 21
159.03361899647476
  0
LINE
  8
_1-6_アンカ__類
  6
CONTINUOUS
 62
    4
 10
102.16759551561094
 20
159.47086899647476
 11
102.15504551561094
 21
159.20231899647476
  0
LINE
  8
_1-6_アンカ__類
  6
CONTINUOUS
 62
    4
 10
102.29794551561093
 20
159.12981899647477
 11
101.35984551561094
 21
158.99521899647476
  0
LINE
  8
_1-6_アンカ__類
  6
CONTINUOUS
 62
    4
 10
102.15504551561094
 20
159.20231899647476
 11
101.35984551561094
 21
158.99521899647476
  0
LINE
  8
_1-6_アンカ__類
  6
CONTINUOUS
 62
    4
 10
102.29794551561093
 20
159.12981899647477
 11
102.15504551561094
 21
159.20231899647476
  0
LINE
  8
_1-6_アンカ__類
  6
CONTINUOUS
 62
    4
 10
101.35984551561094
 20
158.99521899647476
 11
101.50199551561093
 21
158.92271899647477
  0
LINE
  8
_1-6_アンカ__類
  6
CONTINUOUS
 62
    4
 10
101.50199551561093
 20
158.92271899647477
 11
102.29794551561093
 21
159.12981899647477
  0
LINE
  8
_1-6_アンカ__類
  6
CONTINUOUS
 62
    4
 10
101.53754551561093
 20
159.68186899647475
 11
101.52494551561094
 21
159.41316899647475
  0
LINE
  8
_1-6_アンカ__類
  6
CONTINUOUS
 62
    4
 10
102.18539551561094
 20
159.85041899647476
 11
102.17279551561094
 21
159.58191899647477
  0
LINE
  8
_1-6_アンカ__類
  6
CONTINUOUS
 62
    4
 10
101.55539551561094
 20
160.06201899647476
 11
101.54274551561093
 21
159.79276899647476
  0
LINE
  8
_1-6_アンカ__類
  6
CONTINUOUS
 62
    4
 10
102.20319551561093
 20
160.23001899647477
 11
102.19059551561094
 21
159.96146899647476
  0
LINE
  8
_1-6_アンカ__類
  6
CONTINUOUS
 62
    4
 10
101.57314551561095
 20
160.44101899647475
 11
101.56054551561095
 21
160.17231899647476
  0
LINE
  8
_1-6_アンカ__類
  6
CONTINUOUS
 62
    4
 10
102.22094551561094
 20
160.60956899647476
 11
102.20839551561093
 21
160.34106899647477
  0
LINE
  8
_1-6_アンカ__類
  6
CONTINUOUS
 62
    4
 10
101.59094551561094
 20
160.82056899647478
 11
101.57834551561095
 21
160.55186899647475
  0
LINE
  8
_1-6_アンカ__類
  6
CONTINUOUS
 62
    4
 10
102.23874551561093
 20
160.98916899647477
 11
102.22614551561094
 21
160.72061899647477
  0
LINE
  8
_1-6_アンカ__類
  6
CONTINUOUS
 62
    4
 10
101.60869551561095
 20
161.20016899647476
 11
101.59609551561095
 21
160.93146899647476
  0
LINE
  8
_1-6_アンカ__類
  6
CONTINUOUS
 62
    4
 10
102.25654551561092
 20
161.36871899647477
 11
102.24394551561093
 21
161.10021899647475
  0
LINE
  8
_1-6_アンカ__類
  6
CONTINUOUS
 62
    4
 10
101.62654551561093
 20
161.58031899647477
 11
101.61389551561095
 21
161.31101899647476
  0
LINE
  8
_1-6_アンカ__類
  6
CONTINUOUS
 62
    4
 10
102.27434551561095
 20
161.74886899647476
 11
102.26174551561093
 21
161.47976899647477
  0
LINE
  8
_1-6_アンカ__類
  6
CONTINUOUS
 62
    4
 10
101.64434551561095
 20
161.96051899647478
 11
101.63169551561094
 21
161.69121899647476
  0
LINE
  8
_1-6_アンカ__類
  6
CONTINUOUS
 62
    4
 10
102.29219551561093
 20
162.12906899647476
 11
102.27954551561095
 21
161.85996899647475
  0
LINE
  8
_1-6_アンカ__類
  6
CONTINUOUS
 62
    4
 10
101.66214551561094
 20
162.34031899647476
 11
101.64954551561095
 21
162.07136899647477
  0
LINE
  8
_1-6_アンカ__類
  6
CONTINUOUS
 62
    4
 10
102.30994551561093
 20
162.50861899647475
 11
102.29739551561093
 21
162.24011899647476
  0
LINE
  8
_1-6_アンカ__類
  6
CONTINUOUS
 62
    4
 10
102.32774551561093
 20
162.88821899647476
 11
102.31519551561092
 21
162.61991899647475
  0
LINE
  8
_1-6_アンカ__類
  6
CONTINUOUS
 62
    4
 10
101.67989551561095
 20
162.71966899647475
 11
101.66734551561095
 21
162.45096899647476
  0
LINE
  8
_1-6_アンカ__類
  6
CONTINUOUS
 62
    4
 10
101.69774551561093
 20
163.09981899647477
 11
101.68509551561095
 21
162.83051899647475
  0
LINE
  8
_1-6_アンカ__類
  6
CONTINUOUS
 62
    4
 10
102.34554551561092
 20
163.26836899647475
 11
102.33294551561093
 21
162.99926899647477
  0
LINE
  8
_1-6_アンカ__類
  6
CONTINUOUS
 62
    4
 10
102.36334551561094
 20
163.64796899647476
 11
102.35074551561092
 21
163.37941899647475
  0
LINE
  8
_1-6_アンカ__類
  6
CONTINUOUS
 62
    4
 10
101.71554551561093
 20
163.47996899647475
 11
101.70294551561093
 21
163.21071899647475
  0
LINE
  8
_1-6_アンカ__類
  6
CONTINUOUS
 62
    4
 10
101.73329551561093
 20
163.85896899647477
 11
101.72069551561094
 21
163.59026899647478
  0
LINE
  8
_1-6_アンカ__類
  6
CONTINUOUS
 62
    4
 10
102.38114551561094
 20
164.02751899647475
 11
102.36854551561095
 21
163.75926899647476
  0
LINE
  8
_1-6_アンカ__類
  6
CONTINUOUS
 62
    4
 10
102.39894551561093
 20
164.40711899647476
 11
102.38634551561094
 21
164.13856899647476
  0
LINE
  8
_1-6_アンカ__類
  6
CONTINUOUS
 62
    4
 10
101.75109551561093
 20
164.23851899647477
 11
101.73849551561094
 21
163.96986899647476
  0
LINE
  8
_1-6_アンカ__類
  6
CONTINUOUS
 62
    4
 10
101.76459551561095
 20
164.52631899647477
 11
101.75629551561093
 21
164.34941899647475
  0
LINE
  8
_1-6_アンカ__類
  6
CONTINUOUS
 62
    4
 10
102.33324551561094
 20
164.49971899647477
 11
101.60894551561094
 21
164.31106899647477
  0
LINE
  8
_1-6_アンカ__類
  6
CONTINUOUS
 62
    4
 10
102.54704551561093
 20
164.44561899647476
 11
102.45144551561094
 21
164.49416899647477
  0
LINE
  8
_1-6_アンカ__類
  6
CONTINUOUS
 62
    4
 10
102.54704551561093
 20
164.44561899647476
 11
101.60894551561094
 21
164.31106899647477
  0
LINE
  8
_1-6_アンカ__類
  6
CONTINUOUS
 62
    4
 10
101.60894551561094
 20
164.31106899647477
 11
101.75109551561093
 21
164.23851899647477
  0
LINE
  8
_1-6_アンカ__類
  6
CONTINUOUS
 62
    4
 10
101.75109551561093
 20
164.23851899647477
 11
102.54704551561093
 21
164.44561899647476
  0
LINE
  8
_1-6_アンカ__類
  6
CONTINUOUS
 62
    4
 10
102.52924551561094
 20
164.06606899647477
 11
101.59114551561095
 21
163.93146899647476
  0
LINE
  8
_1-6_アンカ__類
  6
CONTINUOUS
 62
    4
 10
102.38634551561094
 20
164.13856899647476
 11
101.59114551561095
 21
163.93146899647476
  0
LINE
  8
_1-6_アンカ__類
  6
CONTINUOUS
 62
    4
 10
102.52924551561094
 20
164.06606899647477
 11
102.38634551561094
 21
164.13856899647476
  0
LINE
  8
_1-6_アンカ__類
  6
CONTINUOUS
 62
    4
 10
101.59114551561095
 20
163.93146899647476
 11
101.73329551561093
 21
163.85896899647477
  0
LINE
  8
_1-6_アンカ__類
  6
CONTINUOUS
 62
    4
 10
101.73329551561093
 20
163.85896899647477
 11
102.52924551561094
 21
164.06606899647477
  0
LINE
  8
_1-6_アンカ__類
  6
CONTINUOUS
 62
    4
 10
102.51229551561093
 20
163.68671899647475
 11
101.57414551561095
 21
163.55211899647477
  0
LINE
  8
_1-6_アンカ__類
  6
CONTINUOUS
 62
    4
 10
102.36934551561095
 20
163.75921899647477
 11
101.57414551561095
 21
163.55211899647477
  0
LINE
  8
_1-6_アンカ__類
  6
CONTINUOUS
 62
    4
 10
102.51229551561093
 20
163.68671899647475
 11
102.36934551561095
 21
163.75921899647477
  0
LINE
  8
_1-6_アンカ__類
  6
CONTINUOUS
 62
    4
 10
101.57414551561095
 20
163.55211899647477
 11
101.71629551561094
 21
163.47961899647476
  0
LINE
  8
_1-6_アンカ__類
  6
CONTINUOUS
 62
    4
 10
101.71629551561094
 20
163.47961899647476
 11
102.51229551561093
 21
163.68671899647475
  0
LINE
  8
_1-6_アンカ__類
  6
CONTINUOUS
 62
    4
 10
102.49369551561094
 20
163.30691899647476
 11
101.55559551561095
 21
163.17231899647476
  0
LINE
  8
_1-6_アンカ__類
  6
CONTINUOUS
 62
    4
 10
102.35074551561092
 20
163.37941899647475
 11
101.55559551561095
 21
163.17231899647476
  0
LINE
  8
_1-6_アンカ__類
  6
CONTINUOUS
 62
    4
 10
102.49369551561094
 20
163.30691899647476
 11
102.35074551561092
 21
163.37941899647475
  0
LINE
  8
_1-6_アンカ__類
  6
CONTINUOUS
 62
    4
 10
101.55559551561095
 20
163.17231899647476
 11
101.69774551561093
 21
163.09981899647477
  0
LINE
  8
_1-6_アンカ__類
  6
CONTINUOUS
 62
    4
 10
101.69774551561093
 20
163.09981899647477
 11
102.49369551561094
 21
163.30691899647476
  0
LINE
  8
_1-6_アンカ__類
  6
CONTINUOUS
 62
    4
 10
102.47589551561094
 20
162.92676899647475
 11
101.53774551561094
 21
162.79216899647477
  0
LINE
  8
_1-6_アンカ__類
  6
CONTINUOUS
 62
    4
 10
102.33294551561093
 20
162.99926899647477
 11
101.53774551561094
 21
162.79216899647477
  0
LINE
  8
_1-6_アンカ__類
  6
CONTINUOUS
 62
    4
 10
102.47589551561094
 20
162.92676899647475
 11
102.33294551561093
 21
162.99926899647477
  0
LINE
  8
_1-6_アンカ__類
  6
CONTINUOUS
 62
    4
 10
101.53774551561094
 20
162.79216899647477
 11
101.67989551561095
 21
162.71966899647475
  0
LINE
  8
_1-6_アンカ__類
  6
CONTINUOUS
 62
    4
 10
101.67989551561095
 20
162.71966899647475
 11
102.47589551561094
 21
162.92676899647475
  0
LINE
  8
_1-6_アンカ__類
  6
CONTINUOUS
 62
    4
 10
102.45889551561095
 20
162.54736899647477
 11
101.52079551561093
 21
162.41276899647477
  0
LINE
  8
_1-6_アンカ__類
  6
CONTINUOUS
 62
    4
 10
102.31594551561093
 20
162.61991899647475
 11
101.52079551561093
 21
162.41276899647477
  0
LINE
  8
_1-6_アンカ__類
  6
CONTINUOUS
 62
    4
 10
102.45889551561095
 20
162.54736899647477
 11
102.31594551561093
 21
162.61991899647475
  0
LINE
  8
_1-6_アンカ__類
  6
CONTINUOUS
 62
    4
 10
101.52079551561093
 20
162.41276899647477
 11
101.66294551561094
 21
162.34026899647478
  0
LINE
  8
_1-6_アンカ__類
  6
CONTINUOUS
 62
    4
 10
101.66294551561094
 20
162.34026899647478
 11
102.45889551561095
 21
162.54736899647477
  0
LINE
  8
_1-6_アンカ__類
  6
CONTINUOUS
 62
    4
 10
102.44029551561096
 20
162.16761899647477
 11
101.50219551561094
 21
162.03301899647477
  0
LINE
  8
_1-6_アンカ__類
  6
CONTINUOUS
 62
    4
 10
102.29739551561093
 20
162.24011899647476
 11
101.50219551561094
 21
162.03301899647477
  0
LINE
  8
_1-6_アンカ__類
  6
CONTINUOUS
 62
    4
 10
102.44029551561096
 20
162.16761899647477
 11
102.29739551561093
 21
162.24011899647476
  0
LINE
  8
_1-6_アンカ__類
  6
CONTINUOUS
 62
    4
 10
101.50219551561094
 20
162.03301899647477
 11
101.64434551561095
 21
161.96051899647478
  0
LINE
  8
_1-6_アンカ__類
  6
CONTINUOUS
 62
    4
 10
101.64434551561095
 20
161.96051899647478
 11
102.44029551561096
 21
162.16761899647477
  0
LINE
  8
_1-6_アンカ__類
  6
CONTINUOUS
 62
    4
 10
102.42249551561093
 20
161.78741899647477
 11
101.48439551561094
 21
161.65281899647476
  0
LINE
  8
_1-6_アンカ__類
  6
CONTINUOUS
 62
    4
 10
102.27954551561095
 20
161.85996899647475
 11
101.48439551561094
 21
161.65281899647476
  0
LINE
  8
_1-6_アンカ__類
  6
CONTINUOUS
 62
    4
 10
102.42249551561093
 20
161.78741899647477
 11
102.27954551561095
 21
161.85996899647475
  0
LINE
  8
_1-6_アンカ__類
  6
CONTINUOUS
 62
    4
 10
101.48439551561094
 20
161.65281899647476
 11
101.62654551561093
 21
161.58031899647477
  0
LINE
  8
_1-6_アンカ__類
  6
CONTINUOUS
 62
    4
 10
101.62654551561093
 20
161.58031899647477
 11
102.42249551561093
 21
161.78741899647477
  0
LINE
  8
_1-6_アンカ__類
  6
CONTINUOUS
 62
    4
 10
102.40469551561094
 20
161.40726899647476
 11
101.46654551561093
 21
161.27266899647475
  0
LINE
  8
_1-6_アンカ__類
  6
CONTINUOUS
 62
    4
 10
102.26174551561093
 20
161.47976899647477
 11
101.46654551561093
 21
161.27266899647475
  0
LINE
  8
_1-6_アンカ__類
  6
CONTINUOUS
 62
    4
 10
102.40469551561094
 20
161.40726899647476
 11
102.26174551561093
 21
161.47976899647477
  0
LINE
  8
_1-6_アンカ__類
  6
CONTINUOUS
 62
    4
 10
101.46654551561093
 20
161.27266899647475
 11
101.60869551561095
 21
161.20016899647476
  0
LINE
  8
_1-6_アンカ__類
  6
CONTINUOUS
 62
    4
 10
101.60869551561095
 20
161.20016899647476
 11
102.40469551561094
 21
161.40726899647476
  0
LINE
  8
_1-6_アンカ__類
  6
CONTINUOUS
 62
    4
 10
102.38689551561095
 20
161.02766899647477
 11
101.44879551561093
 21
160.89306899647477
  0
LINE
  8
_1-6_アンカ__類
  6
CONTINUOUS
 62
    4
 10
102.24394551561093
 20
161.10021899647475
 11
101.44879551561093
 21
160.89306899647477
  0
LINE
  8
_1-6_アンカ__類
  6
CONTINUOUS
 62
    4
 10
102.38689551561095
 20
161.02766899647477
 11
102.24394551561093
 21
161.10021899647475
  0
LINE
  8
_1-6_アンカ__類
  6
CONTINUOUS
 62
    4
 10
101.44879551561093
 20
160.89306899647477
 11
101.59094551561094
 21
160.82056899647478
  0
LINE
  8
_1-6_アンカ__類
  6
CONTINUOUS
 62
    4
 10
101.59094551561094
 20
160.82056899647478
 11
102.38689551561095
 21
161.02766899647477
  0
LINE
  8
_1-6_アンカ__類
  6
CONTINUOUS
 62
    4
 10
102.36909551561092
 20
160.64811899647475
 11
101.43099551561093
 21
160.51351899647477
  0
LINE
  8
_1-6_アンカ__類
  6
CONTINUOUS
 62
    4
 10
102.22614551561094
 20
160.72061899647477
 11
101.43099551561093
 21
160.51351899647477
  0
LINE
  8
_1-6_アンカ__類
  6
CONTINUOUS
 62
    4
 10
102.36909551561092
 20
160.64811899647475
 11
102.22614551561094
 21
160.72061899647477
  0
LINE
  8
_1-6_アンカ__類
  6
CONTINUOUS
 62
    4
 10
101.43099551561093
 20
160.51351899647477
 11
101.57314551561095
 21
160.44101899647475
  0
LINE
  8
_1-6_アンカ__類
  6
CONTINUOUS
 62
    4
 10
101.57314551561095
 20
160.44101899647475
 11
102.36909551561092
 21
160.64811899647475
  0
LINE
  8
_1-6_アンカ__類
  6
CONTINUOUS
 62
    4
 10
102.35209551561093
 20
160.26876899647476
 11
101.41399551561094
 21
160.13416899647476
  0
LINE
  8
_1-6_アンカ__類
  6
CONTINUOUS
 62
    4
 10
102.20919551561093
 20
160.34126899647475
 11
101.41399551561094
 21
160.13416899647476
  0
LINE
  8
_1-6_アンカ__類
  6
CONTINUOUS
 62
    4
 10
102.35209551561093
 20
160.26876899647476
 11
102.20919551561093
 21
160.34126899647475
  0
LINE
  8
_1-6_アンカ__類
  6
CONTINUOUS
 62
    4
 10
101.41399551561094
 20
160.13416899647476
 11
101.55614551561092
 21
160.06161899647475
  0
LINE
  8
_1-6_アンカ__類
  6
CONTINUOUS
 62
    4
 10
101.55614551561092
 20
160.06161899647475
 11
102.35209551561093
 21
160.26876899647476
  0
LINE
  8
_1-6_アンカ__類
  6
CONTINUOUS
 62
    4
 10
102.33354551561092
 20
159.88896899647477
 11
101.39539551561094
 21
159.75436899647477
  0
LINE
  8
_1-6_アンカ__類
  6
CONTINUOUS
 62
    4
 10
102.19059551561094
 20
159.96146899647476
 11
101.39539551561094
 21
159.75436899647477
  0
LINE
  8
_1-6_アンカ__類
  6
CONTINUOUS
 62
    4
 10
102.33354551561092
 20
159.88896899647477
 11
102.19059551561094
 21
159.96146899647476
  0
LINE
  8
_1-6_アンカ__類
  6
CONTINUOUS
 62
    4
 10
101.39539551561094
 20
159.75436899647477
 11
101.53754551561093
 21
159.68186899647475
  0
LINE
  8
_1-6_アンカ__類
  6
CONTINUOUS
 62
    4
 10
101.53754551561093
 20
159.68186899647475
 11
102.33354551561092
 21
159.88896899647477
  0
LINE
  8
_1-6_アンカ__類
  6
CONTINUOUS
 62
    4
 10
102.31574551561093
 20
159.50936899647476
 11
101.37764551561094
 21
159.37476899647476
  0
LINE
  8
_1-6_アンカ__類
  6
CONTINUOUS
 62
    4
 10
102.17279551561094
 20
159.58191899647477
 11
101.37764551561094
 21
159.37476899647476
  0
LINE
  8
_1-6_アンカ__類
  6
CONTINUOUS
 62
    4
 10
102.31574551561093
 20
159.50936899647476
 11
102.17279551561094
 21
159.58191899647477
  0
LINE
  8
_1-6_アンカ__類
  6
CONTINUOUS
 62
    4
 10
101.37764551561094
 20
159.37476899647476
 11
101.51979551561095
 21
159.30226899647477
  0
LINE
  8
_1-6_アンカ__類
  6
CONTINUOUS
 62
    4
 10
101.51979551561095
 20
159.30226899647477
 11
102.31574551561093
 21
159.50936899647476
  0
LINE
  8
_1-6_アンカ__類
  6
CONTINUOUS
 62
    4
 10
101.72734551561092
 20
164.76551899647475
 11
101.71624551561092
 21
164.52861899647476
  0
LINE
  8
_1-6_アンカ__類
  6
CONTINUOUS
 62
    4
 10
102.46254551561094
 20
164.73106899647476
 11
102.45144551561094
 21
164.49416899647477
  0
ARC
  8
_1-6_アンカ__類
  6
CONTINUOUS
 62
    4
 10
103.36014551561095
 20
158.49306899647476
 40
1.8765499999999999
 50
178.47001332285691
 51
186.61901332285689
  0
ARC
  8
_1-6_アンカ__類
  6
CONTINUOUS
 62
    4
 10
100.25029551561093
 20
158.63876899647477
 40
1.8765499999999999
 50
354.02101332285696
 51
356.29801332285689
  0
ARC
  8
_1-6_アンカ__類
  6
CONTINUOUS
 62
    4
 10
103.36014551561095
 20
158.49306899647476
 40
1.8765499999999999
 50
189.87501332285689
 51
197.45001332285693
  0
ARC
  8
_1-6_アンカ__類
  6
CONTINUOUS
 62
    4
 10
103.36014551561095
 20
158.49306899647476
 40
1.8765499999999999
 50
200.66901332285696
 51
211.26801332285692
  0
ARC
  8
_1-6_アンカ__類
  6
CONTINUOUS
 62
    4
 10
100.25029551561093
 20
158.63876899647477
 40
1.8765499999999999
 50
323.36601332285693
 51
338.82801332285703
  0
ARC
  8
_1-6_アンカ__類
  6
CONTINUOUS
 62
    4
 10
100.25029551561093
 20
158.63876899647477
 40
1.8765499999999999
 50
342.21801332285696
 51
350.48201332285697
  0
ARC
  8
_1-6_アンカ__類
  6
CONTINUOUS
 62
    4
 10
101.52754551561094
 20
164.77486899647477
 40
0.2
 50
357.31701332285689
 51
42.31701332285693
  0
ARC
  8
_1-6_アンカ__類
  6
CONTINUOUS
 62
    4
 10
102.66234551561092
 20
164.72166899647476
 40
0.2
 50
132.31701332285692
 51
177.31701332285687
  0
LINE
  8
_e-e_
  6
CONTINUOUS
 62
    7
 10
86.563903679404746
 20
154.14093425133325
 11
93.266985610094707
 21
165.75101272258513
  0
LINE
  8
_e-e_
  6
CONTINUOUS
 62
    7
 10
86.563903679404746
 20
154.14093425133325
 11
81.563903679404746
 21
154.14093425133325
  0
LINE
  8
_e-e_
  6
CONTINUOUS
 62
    7
 10
85.863619909589659
 20
178.72993123241815
 11
80.863619909589659
 21
178.72993123241815
  0
LINE
  8
_e-e_
  6
CONTINUOUS
 62
    7
 10
85.863619909589659
 20
178.72993123241815
 11
92.566701840279606
 21
167.11985276116627
  0
TEXT
  8
_e-e_
 62
    7
 10
45.563903679404746
 20
152.14093425133325
 40
4
 41
1
 50
0
  1
ＡＹシールＭＳ－１
  0
TEXT
  8
_e-e_
 62
    7
 10
60.863619909589659
 20
176.72993123241815
 40
4
 41
1
 50
0
  1
ＦＬシール
  0
TEXT
  8
_e-e_
 62
    7
 10
115.25129556811069
 20
173.74820828390659
 40
4
 41
1
 50
0
  1
ＡＹブチルテープ
  0
LINE
  8
_e-e_
  6
CONTINUOUS
 62
    7
 10
110.25129556811069
 20
175.74820828390659
 11
103.96873673226273
 21
164.86649717867712
  0
LINE
  8
_e-e_
  6
CONTINUOUS
 62
    7
 10
110.25129556811069
 20
175.74820828390659
 11
115.25129556811069
 21
175.74820828390659
  0
TEXT
  8
_e-e_
 62
    7
 10
110.44594102955918
 20
178.41980114010801
 40
4
 41
1
 50
0
  1
ＦＬ鋼板
  0
LINE
  8
_e-e_
  6
CONTINUOUS
 62
    7
 10
105.44594102955918
 20
180.41980114010801
 11
97.3869211966866
 21
166.46116933036745
  0
LINE
  8
_e-e_
  6
CONTINUOUS
 62
    7
 10
105.44594102955918
 20
180.41980114010801
 11
110.44594102955918
 21
180.41980114010801
  0
LINE
  8
_1-4_リベットル__フ
  6
CONTINUOUS
 62
    6
 10
145.16529551561095
 20
69.024218996474715
 11
144.92724551561093
 21
71.745068996474714
  0
LINE
  8
_1-4_リベットル__フ
  6
CONTINUOUS
 62
    6
 10
154.85649551561096
 20
68.359118996474734
 11
155.37609551561098
 21
68.059118996474723
  0
LINE
  8
_1-4_リベットル__フ
  6
CONTINUOUS
 62
    6
 10
155.29569551561096
 20
67.75911899647474
 11
154.77609551561096
 21
68.059118996474723
  0
LINE
  8
_1-4_リベットル__フ
  6
CONTINUOUS
 62
    6
 10
154.77609551561096
 20
68.059118996474723
 11
145.86489551561095
 21
68.059118996474723
  0
LINE
  8
_1-4_リベットル__フ
  6
CONTINUOUS
 62
    6
 10
144.86644551561096
 20
68.998118996474687
 11
144.62724551561095
 21
71.731968996474734
  0
LINE
  8
_1-4_リベットル__フ
  6
CONTINUOUS
 62
    6
 10
154.85649551561096
 20
68.359118996474734
 11
145.56374551561095
 21
68.359118996474734
  0
LINE
  8
_1-4_リベットル__フ
  6
CONTINUOUS
 62
    6
 10
145.86489551561095
 20
68.359118996474734
 11
145.86489551561095
 21
68.059118996474723
  0
LINE
  8
_1-4_リベットル__フ
  6
CONTINUOUS
 62
    6
 10
144.62724551561095
 20
160.63406899647472
 11
144.62724551561095
 21
71.731968996474734
  0
LINE
  8
_1-4_リベットル__フ
  6
CONTINUOUS
 62
    6
 10
144.92724551561093
 20
160.75421899647475
 11
144.92724551561093
 21
71.745068996474714
  0
LINE
  8
_1-4_リベットル__フ
  6
CONTINUOUS
 62
    6
 10
155.29569551561096
 20
67.75911899647474
 11
218.88104551561094
 21
67.75911899647474
  0
LINE
  8
_1-4_リベットル__フ
  6
CONTINUOUS
 62
    6
 10
155.37609551561098
 20
68.059118996474723
 11
218.88104551561094
 21
68.059118996474723
  0
LINE
  8
_1-4_リベットル__フ
  6
CONTINUOUS
 62
    6
 10
140.94564551561095
 20
164.49226899647473
 11
144.62724551561095
 21
160.63406899647472
  0
LINE
  8
_1-4_リベットル__フ
  6
CONTINUOUS
 62
    6
 10
141.07969551561095
 20
164.78626899647472
 11
144.92724551561093
 21
160.75421899647475
  0
LINE
  8
_1-4_リベットル__フ
  6
CONTINUOUS
 62
    6
 10
106.05919551561095
 20
166.74741899647472
 11
106.59734551561095
 21
166.40216899647473
  0
LINE
  8
_1-4_リベットル__フ
  6
CONTINUOUS
 62
    6
 10
106.59734551561095
 20
166.40216899647473
 11
141.07969551561095
 21
164.78626899647472
  0
LINE
  8
_1-4_リベットル__フ
  6
CONTINUOUS
 62
    6
 10
140.94564551561095
 20
164.49226899647473
 11
106.50299551561095
 21
166.10626899647474
  0
LINE
  8
_1-4_リベットル__フ
  6
CONTINUOUS
 62
    6
 10
106.50299551561095
 20
166.10626899647474
 11
105.96489551561096
 21
166.45151899647473
  0
LINE
  8
_1-4_リベットル__フ
  6
CONTINUOUS
 62
    6
 10
105.96489551561096
 20
166.45151899647473
 11
92.958445515610947
 21
167.06101899647473
  0
LINE
  8
_1-4_リベットル__フ
  6
CONTINUOUS
 62
    6
 10
92.958445515610947
 20
167.06101899647473
 11
92.972445515610957
 21
167.36066899647474
  0
LINE
  8
_1-4_リベットル__フ
  6
CONTINUOUS
 62
    6
 10
92.972445515610957
 20
167.36066899647474
 11
106.05919551561095
 21
166.74741899647472
  0
ARC
  8
_1-4_リベットル__フ
  6
CONTINUOUS
 62
    6
 10
145.56374551561095
 20
69.059118996474709
 40
0.4
 50
185.00000000000006
 51
270.00000000000006
  0
ARC
  8
_1-4_リベットル__フ
  6
CONTINUOUS
 62
    6
 10
145.56374551561095
 20
69.059118996474709
 40
0.7000000000000001
 50
185.00000000000006
 51
270.00000000000006
  0
TEXT
  8
_e-e_
 62
    7
 10
80.430303030303008
 20
98.330303030303
 40
4
 41
1
 50
0
  1
バックアップ材
  0
TEXT
  8
_e-e_
 62
    7
 10
41.43030303030298
 20
92.894096361000237
 40
4
 41
1
 50
0
  1
（ポリスチレンフォーム(１種ｂ)など）
  0
LINE
  8
_e-e_
  6
CONTINUOUS
 62
    7
 10
113.43030303030301
 20
100.330303030303
 11
108.43030303030301
 21
100.330303030303
  0
LINE
  8
_e-e_
  6
CONTINUOUS
 62
    7
 10
113.43030303030301
 20
100.330303030303
 11
127.40240798812641
 21
124.53069870593816
  0
LINE
  8
_1-a_元図__躯体
  6
CONTINUOUS
 62
    7
 10
121.22724551561089
 20
136.85911899647473
 11
133.83284551561093
 21
136.85911899647473
  0
LINE
  8
_1-a_元図__躯体
  6
CONTINUOUS
 62
    7
 10
137.2208455156109
 20
139.40011899647473
 11
137.2208455156109
 21
136.85911899647473
  0
LINE
  8
_1-a_元図__躯体
  6
CONTINUOUS
 62
    7
 10
137.2208455156109
 20
136.85911899647473
 11
140.22724551561089
 21
136.85911899647473
  0
LINE
  8
_1-3_断熱材
  6
CONTINUOUS
 62
   30
 10
143.22724551561089
 20
136.85911899647473
 11
143.22724551561089
 21
66.659118996474731
  0
LINE
  8
_1-3_断熱材
  6
CONTINUOUS
 62
   30
 10
134.5272455156109
 20
136.85911899647473
 11
143.22724551561089
 21
136.85911899647473
  0
LINE
  8
_1-3_断熱材
  6
CONTINUOUS
 62
   30
 10
134.5272455156109
 20
66.659118996474731
 11
143.22724551561089
 21
66.659118996474731
  0
LINE
  8
_1-b_その他
  6
CONTINUOUS
 62
    3
 10
122.02724551561096
 20
136.85911899647476
 11
122.02724551561096
 21
55.859118996474734
  0
LINE
  8
_1-b_その他
  6
CONTINUOUS
 62
    3
 10
121.22724551561095
 20
136.85911899647476
 11
121.22724551561095
 21
55.527718996474732
  0
LINE
  8
_1-b_その他
  6
CONTINUOUS
 62
    3
 10
122.02724551561096
 20
55.859118996474734
 11
125.02724551561096
 21
52.859118996474734
  0
LINE
  8
_1-b_その他
  6
CONTINUOUS
 62
    3
 10
121.22724551561095
 20
55.527718996474732
 11
124.69589551561097
 21
52.059118996474723
  0
LINE
  8
_1-b_その他
  6
CONTINUOUS
 62
    3
 10
124.69589551561097
 20
52.059118996474723
 11
218.88104551561094
 21
52.059118996474723
  0
LINE
  8
_1-b_その他
  6
CONTINUOUS
 62
    3
 10
125.02724551561096
 20
52.859118996474734
 11
218.88104551561094
 21
52.859118996474734
  0
LINE
  8
_1-3_断熱材
  6
CONTINUOUS
 62
   30
 10
122.02724551561096
 20
136.85911899647473
 11
122.02724551561096
 21
66.659118996474731
  0
LINE
  8
_1-3_断熱材
  6
CONTINUOUS
 62
   30
 10
122.02724551561096
 20
66.659118996474731
 11
134.5272455156109
 21
66.659118996474731
  0
LINE
  8
_1-3_断熱材
  6
CONTINUOUS
 62
   30
 10
122.02724551561096
 20
136.85911899647473
 11
134.5272455156109
 21
136.85911899647473
  0
LINE
  8
_1-3_断熱材
  6
CONTINUOUS
 62
   30
 10
134.5272455156109
 20
136.85911899647473
 11
134.5272455156109
 21
66.659118996474731
  0
LINE
  8
_1-8_下地など
  6
CONTINUOUS
 62
    7
 10
-197.72363972655171
 20
157.34427260725894
 11
-197.72363972655171
 21
30.972922607258937
  0
LINE
  8
_1-8_下地など
  6
DASHED1
 62
    7
 10
98.446145515610908
 20
165.68296899647473
 11
140.58809551561097
 21
163.70811899647472
  0
LINE
  8
_1-8_下地など
  6
DASHED1
 62
    7
 10
140.58809551561097
 20
163.70811899647472
 11
144.02724551561096
 21
160.10401899647474
  0
LINE
  8
_1-8_下地など
  6
DASHED1
 62
    7
 10
144.02724551561096
 20
160.10401899647474
 11
144.02724551561096
 21
67.4591189964747
  0
LINE
  8
_1-8_下地など
  6
DASHED1
 62
    7
 10
144.02724551561096
 20
67.4591189964747
 11
218.88104551561094
 21
67.4591189964747
  0
LINE
  8
_1-c_アンカ__類②
  6
CONTINUOUS
 62
    4
 10
150.39817282231695
 20
64.87911899647473
 11
150.29817282231696
 21
65.259118996474726
  0
LINE
  8
_1-c_アンカ__類②
  6
CONTINUOUS
 62
    4
 10
151.65417282231695
 20
65.259118996474726
 11
151.55417282231696
 21
64.87911899647473
  0
LINE
  8
_1-c_アンカ__類②
  6
CONTINUOUS
 62
    4
 10
151.55417282231696
 20
66.259118996474726
 11
150.39817282231695
 21
66.259118996474726
  0
LINE
  8
_1-c_アンカ__類②
  6
CONTINUOUS
 62
    4
 10
151.55417282231696
 20
66.039118996474727
 11
150.39817282231695
 21
66.039118996474727
  0
LINE
  8
_1-c_アンカ__類②
  6
CONTINUOUS
 62
    4
 10
150.55617282231697
 20
60.259118996474726
 11
150.37617282231696
 21
60.939118996474733
  0
LINE
  8
_1-c_アンカ__類②
  6
CONTINUOUS
 62
    4
 10
151.39617282231697
 20
60.259118996474726
 11
150.55617282231697
 21
60.259118996474726
  0
LINE
  8
_1-c_アンカ__類②
  6
CONTINUOUS
 62
    4
 10
151.39617282231697
 20
60.259118996474726
 11
151.57617282231695
 21
60.939118996474733
  0
LINE
  8
_1-c_アンカ__類②
  6
CONTINUOUS
 62
    4
 10
151.57617282231695
 20
61.459118996474729
 11
151.57617282231695
 21
61.819118996474728
  0
LINE
  8
_1-c_アンカ__類②
  6
CONTINUOUS
 62
    4
 10
150.37617282231696
 20
61.459118996474729
 11
150.37617282231696
 21
61.819118996474728
  0
LINE
  8
_1-c_アンカ__類②
  6
CONTINUOUS
 62
    4
 10
151.56117282231696
 20
61.349118996474729
 11
151.35117282231695
 21
61.349118996474729
  0
LINE
  8
_1-c_アンカ__類②
  6
CONTINUOUS
 62
    4
 10
150.60117282231695
 20
61.349118996474729
 11
150.39117282231697
 21
61.349118996474729
  0
LINE
  8
_1-c_アンカ__類②
  6
CONTINUOUS
 62
    4
 10
151.56117282231696
 20
61.249118996474735
 11
151.35117282231695
 21
61.249118996474735
  0
LINE
  8
_1-c_アンカ__類②
  6
CONTINUOUS
 62
    4
 10
151.56117282231696
 20
61.149118996474726
 11
151.35117282231695
 21
61.149118996474726
  0
LINE
  8
_1-c_アンカ__類②
  6
CONTINUOUS
 62
    4
 10
150.60117282231695
 20
61.149118996474726
 11
150.39117282231697
 21
61.149118996474726
  0
LINE
  8
_1-c_アンカ__類②
  6
CONTINUOUS
 62
    4
 10
151.56117282231696
 20
61.049118996474732
 11
151.35117282231695
 21
61.049118996474732
  0
LINE
  8
_1-c_アンカ__類②
  6
CONTINUOUS
 62
    4
 10
150.60117282231695
 20
61.049118996474732
 11
150.39117282231697
 21
61.049118996474732
  0
LINE
  8
_1-c_アンカ__類②
  6
CONTINUOUS
 62
    4
 10
150.60117282231695
 20
60.939118996474733
 11
150.60117282231695
 21
61.459118996474729
  0
LINE
  8
_1-c_アンカ__類②
  6
CONTINUOUS
 62
    4
 10
151.35117282231695
 20
60.939118996474733
 11
151.35117282231695
 21
61.459118996474729
  0
LINE
  8
_1-c_アンカ__類②
  6
CONTINUOUS
 62
    4
 10
150.60117282231695
 20
61.249118996474735
 11
150.39117282231697
 21
61.249118996474735
  0
LINE
  8
_1-c_アンカ__類②
  6
CONTINUOUS
 62
    4
 10
151.57602282231696
 20
60.939118996474733
 11
151.35117282231695
 21
60.939118996474733
  0
LINE
  8
_1-c_アンカ__類②
  6
CONTINUOUS
 62
    4
 10
150.60117282231695
 20
60.939118996474733
 11
150.37617282231696
 21
60.939118996474733
  0
LINE
  8
_1-c_アンカ__類②
  6
CONTINUOUS
 62
    4
 10
151.57617282231695
 20
61.459118996474729
 11
151.35117282231695
 21
61.459118996474729
  0
LINE
  8
_1-c_アンカ__類②
  6
CONTINUOUS
 62
    4
 10
150.60117282231695
 20
61.459118996474729
 11
150.37617282231696
 21
61.459118996474729
  0
LINE
  8
_1-c_アンカ__類②
  6
CONTINUOUS
 62
    4
 10
150.60117282231695
 20
61.819118996474728
 11
150.37617282231696
 21
61.819118996474728
  0
LINE
  8
_1-c_アンカ__類②
  6
CONTINUOUS
 62
    4
 10
150.97617282231695
 20
60.819118996474728
 11
151.25542282231697
 21
61.182118996474728
  0
LINE
  8
_1-c_アンカ__類②
  6
CONTINUOUS
 62
    4
 10
150.97617282231695
 20
60.919118996474737
 11
151.25822282231695
 21
61.285818996474731
  0
LINE
  8
_1-c_アンカ__類②
  6
CONTINUOUS
 62
    4
 10
150.97617282231695
 20
60.819118996474728
 11
150.69692282231696
 21
61.182118996474728
  0
LINE
  8
_1-c_アンカ__類②
  6
CONTINUOUS
 62
    4
 10
150.97617282231695
 20
60.919118996474737
 11
150.69412282231696
 21
61.285818996474731
  0
LINE
  8
_1-c_アンカ__類②
  6
CONTINUOUS
 62
    4
 10
151.27617282231697
 20
61.279718996474728
 11
151.27617282231697
 21
61.243118996474735
  0
LINE
  8
_1-c_アンカ__類②
  6
CONTINUOUS
 62
    4
 10
150.67617282231697
 20
61.279718996474728
 11
150.67617282231697
 21
61.243118996474735
  0
LINE
  8
_1-c_アンカ__類②
  6
CONTINUOUS
 62
    4
 10
150.97617282231695
 20
60.359118996474734
 11
151.25542282231697
 21
60.722118996474734
  0
LINE
  8
_1-c_アンカ__類②
  6
CONTINUOUS
 62
    4
 10
150.97617282231695
 20
60.459118996474729
 11
151.25822282231695
 21
60.825818996474737
  0
LINE
  8
_1-c_アンカ__類②
  6
CONTINUOUS
 62
    4
 10
151.27617282231697
 20
60.819718996474734
 11
151.27617282231697
 21
60.783118996474727
  0
LINE
  8
_1-c_アンカ__類②
  6
CONTINUOUS
 62
    4
 10
150.97617282231695
 20
60.459118996474729
 11
150.69412282231696
 21
60.825818996474737
  0
LINE
  8
_1-c_アンカ__類②
  6
CONTINUOUS
 62
    4
 10
150.67617282231697
 20
60.819718996474734
 11
150.67617282231697
 21
60.783118996474727
  0
LINE
  8
_1-c_アンカ__類②
  6
CONTINUOUS
 62
    4
 10
150.97617282231695
 20
60.359118996474734
 11
150.69692282231696
 21
60.722118996474734
  0
LINE
  8
_1-c_アンカ__類②
  6
CONTINUOUS
 62
    4
 10
150.60117282231695
 20
61.819118996474728
 11
150.56617282231696
 21
62.579118996474733
  0
LINE
  8
_1-c_アンカ__類②
  6
CONTINUOUS
 62
    4
 10
151.35117282231695
 20
61.819118996474728
 11
151.38617282231695
 21
62.579118996474733
  0
LINE
  8
_1-c_アンカ__類②
  6
CONTINUOUS
 62
    4
 10
151.60117282231695
 20
62.919118996474737
 11
151.38617282231695
 21
62.919118996474737
  0
LINE
  8
_1-c_アンカ__類②
  6
CONTINUOUS
 62
    4
 10
150.56617282231696
 20
62.919118996474737
 11
150.35117282231695
 21
62.919118996474737
  0
LINE
  8
_1-c_アンカ__類②
  6
CONTINUOUS
 62
    4
 10
151.59342282231697
 20
62.579118996474733
 11
151.38617282231695
 21
62.579118996474733
  0
LINE
  8
_1-c_アンカ__類②
  6
CONTINUOUS
 62
    4
 10
150.56617282231696
 20
62.579118996474733
 11
150.35892282231697
 21
62.579118996474733
  0
LINE
  8
_1-c_アンカ__類②
  6
CONTINUOUS
 62
    4
 10
150.35892282231697
 20
62.579118996474733
 11
150.35117282231695
 21
62.919118996474737
  0
LINE
  8
_1-c_アンカ__類②
  6
CONTINUOUS
 62
    4
 10
151.59342282231697
 20
62.579118996474733
 11
151.60117282231695
 21
62.919118996474737
  0
LINE
  8
_1-c_アンカ__類②
  6
CONTINUOUS
 62
    4
 10
150.56892282231695
 20
62.519118996474731
 11
150.36337282231696
 21
62.519118996474731
  0
LINE
  8
_1-c_アンカ__類②
  6
CONTINUOUS
 62
    4
 10
151.57617282231695
 20
61.819118996474728
 11
151.35117282231695
 21
61.819118996474728
  0
LINE
  8
_1-c_アンカ__類②
  6
CONTINUOUS
 62
    4
 10
151.58907282231695
 20
62.519118996474731
 11
151.38177282231695
 21
62.519118996474731
  0
LINE
  8
_1-c_アンカ__類②
  6
CONTINUOUS
 62
    4
 10
150.42617282231697
 20
60.939118996474733
 11
150.42617282231697
 21
61.459118996474729
  0
LINE
  8
_1-c_アンカ__類②
  6
CONTINUOUS
 62
    4
 10
151.52617282231697
 20
60.939118996474733
 11
151.52617282231697
 21
61.459118996474729
  0
LINE
  8
_1-c_アンカ__類②
  6
CONTINUOUS
 62
    4
 10
150.42617282231697
 20
61.819118996474728
 11
150.39117282231697
 21
62.579118996474733
  0
LINE
  8
_1-c_アンカ__類②
  6
CONTINUOUS
 62
    4
 10
150.33117282231694
 20
63.719118996474734
 11
150.33117282231694
 21
64.059118996474723
  0
LINE
  8
_1-c_アンカ__類②
  6
CONTINUOUS
 62
    4
 10
151.62117282231696
 20
63.719118996474734
 11
151.62117282231696
 21
64.059118996474723
  0
LINE
  8
_1-c_アンカ__類②
  6
CONTINUOUS
 62
    4
 10
150.56617282231696
 20
62.919118996474737
 11
150.54617282231695
 21
63.719118996474734
  0
LINE
  8
_1-c_アンカ__類②
  6
CONTINUOUS
 62
    4
 10
151.38617282231695
 20
62.919118996474737
 11
151.40617282231696
 21
63.719118996474734
  0
LINE
  8
_1-c_アンカ__類②
  6
CONTINUOUS
 62
    4
 10
151.62117282231696
 20
63.719118996474734
 11
151.40617282231696
 21
63.719118996474734
  0
LINE
  8
_1-c_アンカ__類②
  6
CONTINUOUS
 62
    4
 10
150.54617282231695
 20
63.719118996474734
 11
150.33117282231694
 21
63.719118996474734
  0
LINE
  8
_1-c_アンカ__類②
  6
CONTINUOUS
 62
    4
 10
150.59657282231697
 20
61.939118996474733
 11
150.37382282231695
 21
61.939118996474733
  0
LINE
  8
_1-c_アンカ__類②
  6
CONTINUOUS
 62
    4
 10
150.59197282231696
 20
62.059118996474723
 11
150.37167282231695
 21
62.059118996474723
  0
LINE
  8
_1-c_アンカ__類②
  6
CONTINUOUS
 62
    4
 10
150.58737282231695
 20
62.179118996474728
 11
150.36952282231695
 21
62.179118996474728
  0
LINE
  8
_1-c_アンカ__類②
  6
CONTINUOUS
 62
    4
 10
150.58277282231694
 20
62.299118996474732
 11
150.36732282231696
 21
62.299118996474732
  0
LINE
  8
_1-c_アンカ__類②
  6
CONTINUOUS
 62
    4
 10
150.57352282231696
 20
62.419118996474737
 11
150.36517282231696
 21
62.419118996474737
  0
LINE
  8
_1-c_アンカ__類②
  6
CONTINUOUS
 62
    4
 10
151.58682282231695
 20
62.419118996474737
 11
151.37882282231695
 21
62.419118996474737
  0
LINE
  8
_1-c_アンカ__類②
  6
CONTINUOUS
 62
    4
 10
151.58407282231695
 20
62.299118996474732
 11
151.36957282231697
 21
62.299118996474732
  0
LINE
  8
_1-c_アンカ__類②
  6
CONTINUOUS
 62
    4
 10
151.58137282231695
 20
62.179118996474728
 11
151.36497282231696
 21
62.179118996474728
  0
LINE
  8
_1-c_アンカ__類②
  6
CONTINUOUS
 62
    4
 10
151.57862282231696
 20
62.059118996474723
 11
151.36037282231695
 21
62.059118996474723
  0
LINE
  8
_1-c_アンカ__類②
  6
CONTINUOUS
 62
    4
 10
151.57592282231695
 20
61.939118996474733
 11
151.35577282231696
 21
61.939118996474733
  0
LINE
  8
_1-c_アンカ__類②
  6
CONTINUOUS
 62
    4
 10
151.52617282231697
 20
61.819118996474728
 11
151.54342282231696
 21
62.579118996474733
  0
LINE
  8
_1-c_アンカ__類②
  6
CONTINUOUS
 62
    4
 10
150.38342282231696
 20
62.919118996474737
 11
150.36342282231695
 21
63.719118996474734
  0
LINE
  8
_1-c_アンカ__類②
  6
CONTINUOUS
 62
    4
 10
151.56892282231695
 20
62.919118996474737
 11
151.58892282231696
 21
63.719118996474734
  0
LINE
  8
_1-c_アンカ__類②
  6
CONTINUOUS
 62
    4
 10
151.60247282231694
 20
63.039118996474727
 11
151.38917282231697
 21
63.039118996474727
  0
LINE
  8
_1-c_アンカ__類②
  6
CONTINUOUS
 62
    4
 10
151.60547282231695
 20
63.159118996474731
 11
151.39537282231697
 21
63.159118996474731
  0
LINE
  8
_1-c_アンカ__類②
  6
CONTINUOUS
 62
    4
 10
151.60847282231697
 20
63.279118996474736
 11
151.39517282231697
 21
63.279118996474736
  0
LINE
  8
_1-c_アンカ__類②
  6
CONTINUOUS
 62
    4
 10
151.61147282231695
 20
63.399118996474726
 11
151.39817282231695
 21
63.399118996474726
  0
LINE
  8
_1-c_アンカ__類②
  6
CONTINUOUS
 62
    4
 10
151.61447282231697
 20
63.519118996474731
 11
151.40117282231697
 21
63.519118996474731
  0
LINE
  8
_1-c_アンカ__類②
  6
CONTINUOUS
 62
    4
 10
151.61747282231696
 20
63.639118996474735
 11
151.40417282231695
 21
63.639118996474735
  0
LINE
  8
_1-c_アンカ__類②
  6
CONTINUOUS
 62
    4
 10
150.56317282231697
 20
63.039118996474727
 11
150.34987282231697
 21
63.039118996474727
  0
LINE
  8
_1-c_アンカ__類②
  6
CONTINUOUS
 62
    4
 10
150.56017282231696
 20
63.159118996474731
 11
150.34687282231695
 21
63.159118996474731
  0
LINE
  8
_1-c_アンカ__類②
  6
CONTINUOUS
 62
    4
 10
150.55717282231694
 20
63.279118996474736
 11
150.34387282231697
 21
63.279118996474736
  0
LINE
  8
_1-c_アンカ__類②
  6
CONTINUOUS
 62
    4
 10
150.55417282231696
 20
63.399118996474726
 11
150.34087282231695
 21
63.399118996474726
  0
LINE
  8
_1-c_アンカ__類②
  6
CONTINUOUS
 62
    4
 10
150.55117282231697
 20
63.519118996474731
 11
150.33787282231697
 21
63.519118996474731
  0
LINE
  8
_1-c_アンカ__類②
  6
CONTINUOUS
 62
    4
 10
150.54817282231696
 20
63.639118996474735
 11
150.33487282231695
 21
63.639118996474735
  0
LINE
  8
_1-c_アンカ__類②
  6
CONTINUOUS
 62
    4
 10
150.39817282231695
 20
64.819118996474728
 11
150.39817282231695
 21
66.259118996474726
  0
LINE
  8
_1-c_アンカ__類②
  6
CONTINUOUS
 62
    4
 10
151.55417282231696
 20
64.819118996474728
 11
151.55417282231696
 21
66.259118996474726
  0
LINE
  8
_1-c_アンカ__類②
  6
CONTINUOUS
 62
    4
 10
150.36342282231695
 20
64.059118996474723
 11
150.43042282231696
 21
64.819118996474728
  0
LINE
  8
_1-c_アンカ__類②
  6
CONTINUOUS
 62
    4
 10
151.58892282231696
 20
64.059118996474723
 11
151.52192282231695
 21
64.819118996474728
  0
LINE
  8
_1-c_アンカ__類②
  6
CONTINUOUS
 62
    4
 10
151.55417282231696
 20
64.819118996474728
 11
151.37617282231696
 21
64.819118996474728
  0
LINE
  8
_1-c_アンカ__類②
  6
CONTINUOUS
 62
    4
 10
150.57617282231695
 20
64.819118996474728
 11
150.39817282231695
 21
64.819118996474728
  0
LINE
  8
_1-c_アンカ__類②
  6
CONTINUOUS
 62
    4
 10
150.57617282231695
 20
65.299118996474732
 11
150.39817282231695
 21
65.299118996474732
  0
LINE
  8
_1-c_アンカ__類②
  6
CONTINUOUS
 62
    4
 10
150.57617282231695
 20
65.399118996474726
 11
150.39817282231695
 21
65.399118996474726
  0
LINE
  8
_1-c_アンカ__類②
  6
CONTINUOUS
 62
    4
 10
150.57617282231695
 20
65.499118996474735
 11
150.39817282231695
 21
65.499118996474735
  0
LINE
  8
_1-c_アンカ__類②
  6
CONTINUOUS
 62
    4
 10
150.57617282231695
 20
65.599118996474729
 11
150.39817282231695
 21
65.599118996474729
  0
LINE
  8
_1-c_アンカ__類②
  6
CONTINUOUS
 62
    4
 10
150.57617282231695
 20
65.699118996474738
 11
150.39817282231695
 21
65.699118996474738
  0
LINE
  8
_1-c_アンカ__類②
  6
CONTINUOUS
 62
    4
 10
150.58162282231694
 20
65.799118996474732
 11
150.39817282231695
 21
65.799118996474732
  0
LINE
  8
_1-c_アンカ__類②
  6
CONTINUOUS
 62
    4
 10
150.57617282231695
 20
65.899118996474726
 11
150.39817282231695
 21
65.899118996474726
  0
LINE
  8
_1-c_アンカ__類②
  6
CONTINUOUS
 62
    4
 10
150.57617282231695
 20
64.819118996474728
 11
150.57617282231695
 21
66.039118996474727
  0
LINE
  8
_1-c_アンカ__類②
  6
CONTINUOUS
 62
    4
 10
151.55417282231696
 20
65.299118996474732
 11
151.37617282231696
 21
65.299118996474732
  0
LINE
  8
_1-c_アンカ__類②
  6
CONTINUOUS
 62
    4
 10
151.55417282231696
 20
65.399118996474726
 11
151.37617282231696
 21
65.399118996474726
  0
LINE
  8
_1-c_アンカ__類②
  6
CONTINUOUS
 62
    4
 10
151.55417282231696
 20
65.499118996474735
 11
151.37617282231696
 21
65.499118996474735
  0
LINE
  8
_1-c_アンカ__類②
  6
CONTINUOUS
 62
    4
 10
151.55417282231696
 20
65.599118996474729
 11
151.37617282231696
 21
65.599118996474729
  0
LINE
  8
_1-c_アンカ__類②
  6
CONTINUOUS
 62
    4
 10
151.55417282231696
 20
65.699118996474738
 11
151.37617282231696
 21
65.699118996474738
  0
LINE
  8
_1-c_アンカ__類②
  6
CONTINUOUS
 62
    4
 10
151.55417282231696
 20
65.799118996474732
 11
151.37617282231696
 21
65.799118996474732
  0
LINE
  8
_1-c_アンカ__類②
  6
CONTINUOUS
 62
    4
 10
151.55417282231696
 20
65.899118996474726
 11
151.37617282231696
 21
65.899118996474726
  0
LINE
  8
_1-c_アンカ__類②
  6
CONTINUOUS
 62
    4
 10
151.37617282231696
 20
64.819118996474728
 11
151.37617282231696
 21
66.039118996474727
  0
LINE
  8
_1-c_アンカ__類②
  6
CONTINUOUS
 62
    4
 10
151.55417282231696
 20
65.179118996474728
 11
151.37617282231696
 21
65.179118996474728
  0
LINE
  8
_1-c_アンカ__類②
  6
CONTINUOUS
 62
    4
 10
150.57617282231695
 20
65.179118996474728
 11
150.39817282231695
 21
65.179118996474728
  0
LINE
  8
_1-c_アンカ__類②
  6
CONTINUOUS
 62
    4
 10
151.55602282231695
 20
64.779118996474736
 11
151.37637282231697
 21
64.779118996474736
  0
LINE
  8
_1-c_アンカ__類②
  6
CONTINUOUS
 62
    4
 10
150.54617282231695
 20
63.719118996474734
 11
150.54797282231695
 21
64.060818996474737
  0
LINE
  8
_1-c_アンカ__類②
  6
CONTINUOUS
 62
    4
 10
151.40617282231696
 20
63.719118996474734
 11
151.40437282231696
 21
64.058418996474728
  0
LINE
  8
_1-c_アンカ__類②
  6
CONTINUOUS
 62
    4
 10
150.54797282231695
 20
64.059118996474723
 11
150.57617282231695
 21
64.819118996474728
  0
LINE
  8
_1-c_アンカ__類②
  6
CONTINUOUS
 62
    4
 10
151.40437282231696
 20
64.058418996474728
 11
151.37617282231696
 21
64.819118996474728
  0
LINE
  8
_1-c_アンカ__類②
  6
CONTINUOUS
 62
    4
 10
150.55242282231697
 20
64.179118996474728
 11
150.34342282231697
 21
64.179118996474728
  0
LINE
  8
_1-c_アンカ__類②
  6
CONTINUOUS
 62
    4
 10
150.55687282231696
 20
64.299118996474732
 11
150.35402282231695
 21
64.299118996474732
  0
LINE
  8
_1-c_アンカ__類②
  6
CONTINUOUS
 62
    4
 10
150.56132282231695
 20
64.419118996474737
 11
150.36462282231696
 21
64.419118996474737
  0
LINE
  8
_1-c_アンカ__類②
  6
CONTINUOUS
 62
    4
 10
150.56577282231697
 20
64.539118996474727
 11
150.37517282231696
 21
64.539118996474727
  0
LINE
  8
_1-c_アンカ__類②
  6
CONTINUOUS
 62
    4
 10
150.57022282231696
 20
64.659118996474731
 11
150.38577282231697
 21
64.659118996474731
  0
LINE
  8
_1-c_アンカ__類②
  6
CONTINUOUS
 62
    4
 10
150.57467282231696
 20
64.779118996474736
 11
150.39632282231696
 21
64.779118996474736
  0
LINE
  8
_1-c_アンカ__類②
  6
CONTINUOUS
 62
    4
 10
151.56657282231697
 20
64.659118996474731
 11
151.38212282231697
 21
64.659118996474731
  0
LINE
  8
_1-c_アンカ__類②
  6
CONTINUOUS
 62
    4
 10
151.57717282231695
 20
64.539118996474727
 11
151.38657282231696
 21
64.539118996474727
  0
LINE
  8
_1-c_アンカ__類②
  6
CONTINUOUS
 62
    4
 10
151.58772282231695
 20
64.419118996474737
 11
151.39102282231696
 21
64.419118996474737
  0
LINE
  8
_1-c_アンカ__類②
  6
CONTINUOUS
 62
    4
 10
151.59832282231696
 20
64.299118996474732
 11
151.39547282231695
 21
64.299118996474732
  0
LINE
  8
_1-c_アンカ__類②
  6
CONTINUOUS
 62
    4
 10
151.60887282231695
 20
64.179118996474728
 11
151.39992282231697
 21
64.179118996474728
  0
LINE
  8
_1-c_アンカ__類②
  6
CONTINUOUS
 62
    4
 10
150.54797282231695
 20
64.059118996474723
 11
150.33117282231694
 21
64.059118996474723
  0
LINE
  8
_1-c_アンカ__類②
  6
CONTINUOUS
 62
    4
 10
151.62117282231696
 20
64.059118996474723
 11
151.40437282231696
 21
64.059118996474723
  0
LINE
  8
_1-c_アンカ__類②
  6
CONTINUOUS
 62
    4
 10
150.70617282231694
 20
65.119118996474725
 11
150.70617282231694
 21
65.300068996474735
  0
LINE
  8
_1-c_アンカ__類②
  6
CONTINUOUS
 62
    4
 10
150.70617282231694
 20
64.838118996474734
 11
150.70617282231694
 21
65.019118996474731
  0
LINE
  8
_1-c_アンカ__類②
  6
CONTINUOUS
 62
    4
 10
150.64617282231697
 20
65.119118996474725
 11
150.64617282231697
 21
65.300068996474735
  0
LINE
  8
_1-c_アンカ__類②
  6
CONTINUOUS
 62
    4
 10
150.64617282231697
 20
64.838118996474734
 11
150.64617282231697
 21
65.019118996474731
  0
LINE
  8
_1-c_アンカ__類②
  6
CONTINUOUS
 62
    4
 10
151.00617282231696
 20
61.059118996474723
 11
150.94617282231695
 21
61.059118996474723
  0
LINE
  8
_1-c_アンカ__類②
  6
CONTINUOUS
 62
    4
 10
151.00617282231696
 20
61.059118996474723
 11
151.00617282231696
 21
61.093868996474725
  0
LINE
  8
_1-c_アンカ__類②
  6
CONTINUOUS
 62
    4
 10
150.94617282231695
 20
61.059118996474723
 11
150.94617282231695
 21
61.093868996474725
  0
LINE
  8
_1-c_アンカ__類②
  6
CONTINUOUS
 62
    4
 10
150.79767282231697
 20
63.268068996474724
 11
151.18722282231695
 21
63.519718996474722
  0
LINE
  8
_1-c_アンカ__類②
  6
CONTINUOUS
 62
    4
 10
150.70617282231694
 20
62.638118996474731
 11
150.70617282231694
 21
63.100068996474732
  0
LINE
  8
_1-c_アンカ__類②
  6
CONTINUOUS
 62
    4
 10
150.76512282231695
 20
63.318468996474735
 11
151.15467282231697
 21
63.570118996474733
  0
LINE
  8
_1-c_アンカ__類②
  6
CONTINUOUS
 62
    4
 10
150.64617282231697
 20
62.638118996474731
 11
150.64617282231697
 21
63.100068996474732
  0
LINE
  8
_1-c_アンカ__類②
  6
CONTINUOUS
 62
    4
 10
151.30617282231697
 20
63.738118996474725
 11
151.30617282231697
 21
64.200068996474727
  0
LINE
  8
_1-c_アンカ__類②
  6
CONTINUOUS
 62
    4
 10
150.79767282231697
 20
64.670118996474727
 11
151.18722282231695
 21
64.418468996474729
  0
LINE
  8
_1-c_アンカ__類②
  6
CONTINUOUS
 62
    4
 10
151.24617282231696
 20
63.738118996474725
 11
151.24617282231696
 21
64.200068996474727
  0
LINE
  8
_1-c_アンカ__類②
  6
CONTINUOUS
 62
    4
 10
150.76512282231695
 20
64.619718996474731
 11
151.15467282231697
 21
64.368068996474733
  0
LINE
  8
_1-c_アンカ__類②
  6
CONTINUOUS
 62
    4
 10
150.76512282231695
 20
65.518468996474724
 11
151.15467282231697
 21
65.770118996474736
  0
LINE
  8
_1-c_アンカ__類②
  6
CONTINUOUS
 62
    4
 10
150.79767282231697
 20
65.468068996474727
 11
151.18722282231695
 21
65.719718996474725
  0
LINE
  8
_1-c_アンカ__類②
  6
CONTINUOUS
 62
    4
 10
151.30617282231697
 20
65.938118996474728
 11
151.30617282231697
 21
66.039118996474727
  0
LINE
  8
_1-c_アンカ__類②
  6
CONTINUOUS
 62
    4
 10
151.24617282231696
 20
65.938118996474728
 11
151.24617282231696
 21
66.039118996474727
  0
LINE
  8
_1-c_アンカ__類②
  6
CONTINUOUS
 62
    4
 10
150.70617282231694
 20
65.119118996474725
 11
150.64617282231697
 21
65.119118996474725
  0
LINE
  8
_1-c_アンカ__類②
  6
CONTINUOUS
 62
    4
 10
150.70617282231694
 20
65.019118996474731
 11
150.64617282231697
 21
65.019118996474731
  0
LINE
  8
_1-c_アンカ__類②
  6
CONTINUOUS
 62
    4
 10
150.79767282231697
 20
62.470118996474724
 11
151.14722282231696
 21
62.244318996474732
  0
LINE
  8
_1-c_アンカ__類②
  6
CONTINUOUS
 62
    4
 10
151.26617282231695
 20
61.512268996474731
 11
151.26617282231695
 21
62.025918996474729
  0
LINE
  8
_1-c_アンカ__類②
  6
CONTINUOUS
 62
    4
 10
151.09767282231695
 20
61.261868996474732
 11
151.14722282231696
 21
61.293868996474728
  0
LINE
  8
_1-c_アンカ__類②
  6
CONTINUOUS
 62
    4
 10
151.06512282231697
 20
61.312268996474728
 11
151.11467282231695
 21
61.344268996474725
  0
LINE
  8
_1-c_アンカ__類②
  6
CONTINUOUS
 62
    4
 10
150.76512282231695
 20
62.419718996474728
 11
151.11467282231695
 21
62.193918996474736
  0
LINE
  8
_1-c_アンカ__類②
  6
CONTINUOUS
 62
    4
 10
151.20617282231697
 20
61.512268996474731
 11
151.20617282231697
 21
62.025918996474729
  0
LINE
  8
_1-c_アンカ__類②
  6
CONTINUOUS
 62
    4
 10
150.24117282231697
 20
66.569118996474728
 11
150.24117282231697
 21
66.659118996474731
  0
LINE
  8
_1-c_アンカ__類②
  6
CONTINUOUS
 62
    4
 10
151.71117282231697
 20
66.659118996474731
 11
150.24117282231697
 21
66.659118996474731
  0
LINE
  8
_1-c_アンカ__類②
  6
CONTINUOUS
 62
    4
 10
151.71117282231697
 20
66.569118996474728
 11
151.71117282231697
 21
66.659118996474731
  0
LINE
  8
_1-c_アンカ__類②
  6
CONTINUOUS
 62
    4
 10
151.71117282231697
 20
66.569118996474728
 11
150.24117282231697
 21
66.569118996474728
  0
LINE
  8
_1-c_アンカ__類②
  6
CONTINUOUS
 62
    4
 10
150.39817282231695
 20
66.399118996474726
 11
150.24117282231697
 21
66.569118996474728
  0
LINE
  8
_1-c_アンカ__類②
  6
CONTINUOUS
 62
    4
 10
151.55417282231696
 20
66.399118996474726
 11
150.39817282231695
 21
66.399118996474726
  0
LINE
  8
_1-c_アンカ__類②
  6
CONTINUOUS
 62
    4
 10
151.55417282231696
 20
66.399118996474726
 11
151.71117282231697
 21
66.569118996474728
  0
LINE
  8
_1-c_アンカ__類②
  6
CONTINUOUS
 62
    4
 10
151.02617282231697
 20
66.399118996474726
 11
150.97617282231695
 21
66.299118996474732
  0
LINE
  8
_1-c_アンカ__類②
  6
CONTINUOUS
 62
    4
 10
150.97617282231695
 20
66.299118996474732
 11
150.92617282231697
 21
66.399118996474726
  0
LINE
  8
_1-c_アンカ__類②
  6
CONTINUOUS
 62
    4
 10
150.29817282231696
 20
65.259118996474726
 11
150.29817282231696
 21
66.299118996474732
  0
LINE
  8
_1-c_アンカ__類②
  6
CONTINUOUS
 62
    4
 10
150.41817282231696
 20
66.399118996474726
 11
150.29817282231696
 21
66.299118996474732
  0
LINE
  8
_1-c_アンカ__類②
  6
CONTINUOUS
 62
    4
 10
151.65417282231695
 20
66.299118996474732
 11
151.53417282231695
 21
66.399118996474726
  0
LINE
  8
_1-c_アンカ__類②
  6
CONTINUOUS
 62
    4
 10
151.65417282231695
 20
65.259118996474726
 11
151.65417282231695
 21
66.299118996474732
  0
LINE
  8
_1-c_アンカ__類②
  6
CONTINUOUS
 62
    4
 10
150.92617282231697
 20
66.259118996474726
 11
150.97617282231695
 21
66.299118996474732
  0
LINE
  8
_1-c_アンカ__類②
  6
CONTINUOUS
 62
    4
 10
151.02617282231697
 20
66.259118996474726
 11
150.97617282231695
 21
66.299118996474732
  0
LINE
  8
_1-c_アンカ__類②
  6
CONTINUOUS
 62
    4
 10
150.92617282231697
 20
66.259118996474726
 11
150.92617282231697
 21
66.399118996474726
  0
LINE
  8
_1-c_アンカ__類②
  6
CONTINUOUS
 62
    4
 10
151.02617282231697
 20
66.259118996474726
 11
151.02617282231697
 21
66.399118996474726
  0
LINE
  8
_1-c_アンカ__類②
  6
CONTINUOUS
 62
    4
 10
150.41817282231696
 20
66.259118996474726
 11
150.41817282231696
 21
66.399118996474726
  0
LINE
  8
_1-c_アンカ__類②
  6
CONTINUOUS
 62
    4
 10
151.53417282231695
 20
66.259118996474726
 11
151.53417282231695
 21
66.399118996474726
  0
ARC
  8
_1-c_アンカ__類②
  6
CONTINUOUS
 62
    4
 10
151.17617282231697
 20
61.243118996474735
 40
0.1
 50
322.43100000000004
 51
0.0000000000000572
  0
ARC
  8
_1-c_アンカ__類②
  6
CONTINUOUS
 62
    4
 10
151.26617282231695
 20
61.279718996474728
 40
0.01
 50
0
 51
142.43100000000004
  0
ARC
  8
_1-c_アンカ__類②
  6
CONTINUOUS
 62
    4
 10
150.77617282231697
 20
61.243118996474735
 40
0.1
 50
180.00000000000006
 51
217.56900000000005
  0
ARC
  8
_1-c_アンカ__類②
  6
CONTINUOUS
 62
    4
 10
150.68617282231696
 20
61.279718996474728
 40
0.01
 50
37.56900000000001
 51
180.00000000000003
  0
ARC
  8
_1-c_アンカ__類②
  6
CONTINUOUS
 62
    4
 10
151.17617282231697
 20
60.783118996474727
 40
0.1
 50
322.43100000000004
 51
0.0000000000000572
  0
ARC
  8
_1-c_アンカ__類②
  6
CONTINUOUS
 62
    4
 10
151.26617282231695
 20
60.819718996474734
 40
0.01
 50
0
 51
142.43100000000004
  0
ARC
  8
_1-c_アンカ__類②
  6
CONTINUOUS
 62
    4
 10
150.68617282231696
 20
60.819718996474734
 40
0.01
 50
37.56900000000001
 51
180.00000000000003
  0
ARC
  8
_1-c_アンカ__類②
  6
CONTINUOUS
 62
    4
 10
150.77617282231697
 20
60.783118996474727
 40
0.1
 50
180.00000000000006
 51
217.56900000000005
  0
ARC
  8
_1-c_アンカ__類②
  6
CONTINUOUS
 62
    4
 10
151.20617282231697
 20
61.093868996474725
 40
0.26
 50
122.85800000000002
 51
180.00000000000003
  0
ARC
  8
_1-c_アンカ__類②
  6
CONTINUOUS
 62
    4
 10
151.20617282231697
 20
61.093868996474725
 40
0.2
 50
122.85800000000002
 51
180.00000000000003
  0
ARC
  8
_1-c_アンカ__類②
  6
CONTINUOUS
 62
    4
 10
150.90617282231696
 20
63.100068996474732
 40
0.2
 50
122.85800000000002
 51
180.00000000000003
  0
ARC
  8
_1-c_アンカ__類②
  6
CONTINUOUS
 62
    4
 10
150.90617282231696
 20
63.100068996474732
 40
0.26
 50
122.85800000000002
 51
180.00000000000003
  0
ARC
  8
_1-c_アンカ__類②
  6
CONTINUOUS
 62
    4
 10
150.90617282231696
 20
62.638118996474731
 40
0.2
 50
180.00000000000006
 51
237.14200000000005
  0
ARC
  8
_1-c_アンカ__類②
  6
CONTINUOUS
 62
    4
 10
150.90617282231696
 20
62.638118996474731
 40
0.26
 50
180.00000000000006
 51
237.14200000000005
  0
ARC
  8
_1-c_アンカ__類②
  6
CONTINUOUS
 62
    4
 10
151.04617282231695
 20
63.738118996474725
 40
0.26
 50
302.85800000000006
 51
0.0000000000000826
  0
ARC
  8
_1-c_アンカ__類②
  6
CONTINUOUS
 62
    4
 10
151.04617282231695
 20
64.200068996474727
 40
0.26
 50
0
 51
57.142000000000017
  0
ARC
  8
_1-c_アンカ__類②
  6
CONTINUOUS
 62
    4
 10
151.04617282231695
 20
64.200068996474727
 40
0.2
 50
0.0000000000001017
 51
57.14200000000011
  0
ARC
  8
_1-c_アンカ__類②
  6
CONTINUOUS
 62
    4
 10
151.04617282231695
 20
63.738118996474725
 40
0.2
 50
302.85800000000006
 51
0.0000000000000826
  0
ARC
  8
_1-c_アンカ__類②
  6
CONTINUOUS
 62
    4
 10
150.90617282231696
 20
64.838118996474734
 40
0.2
 50
180.00000000000006
 51
237.14200000000005
  0
ARC
  8
_1-c_アンカ__類②
  6
CONTINUOUS
 62
    4
 10
150.90617282231696
 20
64.838118996474734
 40
0.26
 50
180.00000000000006
 51
237.14200000000005
  0
ARC
  8
_1-c_アンカ__類②
  6
CONTINUOUS
 62
    4
 10
150.90617282231696
 20
65.300068996474735
 40
0.26
 50
122.85800000000002
 51
180.00000000000003
  0
ARC
  8
_1-c_アンカ__類②
  6
CONTINUOUS
 62
    4
 10
151.04617282231695
 20
65.938118996474728
 40
0.26
 50
302.85800000000006
 51
0.0000000000000826
  0
ARC
  8
_1-c_アンカ__類②
  6
CONTINUOUS
 62
    4
 10
150.90617282231696
 20
65.300068996474735
 40
0.2
 50
122.85800000000002
 51
180.00000000000003
  0
ARC
  8
_1-c_アンカ__類②
  6
CONTINUOUS
 62
    4
 10
151.04617282231695
 20
65.938118996474728
 40
0.2
 50
302.85800000000006
 51
0.0000000000000826
  0
ARC
  8
_1-c_アンカ__類②
  6
CONTINUOUS
 62
    4
 10
151.00617282231696
 20
62.025918996474729
 40
0.26
 50
0
 51
57.142000000000017
  0
ARC
  8
_1-c_アンカ__類②
  6
CONTINUOUS
 62
    4
 10
151.00617282231696
 20
61.512268996474731
 40
0.26
 50
302.85800000000006
 51
0.0000000000000826
  0
ARC
  8
_1-c_アンカ__類②
  6
CONTINUOUS
 62
    4
 10
151.00617282231696
 20
61.512268996474731
 40
0.2
 50
302.85800000000006
 51
0.0000000000000826
  0
ARC
  8
_1-c_アンカ__類②
  6
CONTINUOUS
 62
    4
 10
151.00617282231696
 20
62.025918996474729
 40
0.2
 50
0.0000000000001017
 51
57.14200000000011
  0
LINE
  8
_1-6_アンカ__類
  6
CONTINUOUS
 62
    4
 10
151.43619571079174
 20
63.760650447539632
 11
150.51619571079175
 21
63.580521071628517
  0
LINE
  8
_1-6_アンカ__類
  6
CONTINUOUS
 62
    4
 10
151.43619571079176
 20
63.64507667704784
 11
150.51619571079175
 21
63.464947301136718
  0
LINE
  8
_1-6_アンカ__類
  6
CONTINUOUS
 62
    4
 10
151.43619571079174
 20
63.760650447539632
 11
151.43619571079174
 21
63.64507667704784
  0
LINE
  8
_1-6_アンカ__類
  6
CONTINUOUS
 62
    4
 10
150.51619571079175
 20
63.464947301136718
 11
150.51619571079175
 21
63.580521071628517
  0
LINE
  8
_1-6_アンカ__類
  6
CONTINUOUS
 62
    4
 10
151.43619571079174
 20
63.320650394279127
 11
150.51619571079175
 21
63.140521018368005
  0
LINE
  8
_1-6_アンカ__類
  6
CONTINUOUS
 62
    4
 10
151.43619571079176
 20
63.205076623787335
 11
150.51619571079175
 21
63.024947247876213
  0
LINE
  8
_1-6_アンカ__類
  6
CONTINUOUS
 62
    4
 10
151.43619571079174
 20
63.320650394279127
 11
151.43619571079174
 21
63.205076623787335
  0
LINE
  8
_1-6_アンカ__類
  6
CONTINUOUS
 62
    4
 10
150.51619571079175
 20
63.024947247876213
 11
150.51619571079175
 21
63.140521018368005
  0
LINE
  8
_1-6_アンカ__類
  6
CONTINUOUS
 62
    4
 10
151.43619571079174
 20
62.880650341018637
 11
150.51619571079175
 21
62.700520965107536
  0
LINE
  8
_1-6_アンカ__類
  6
CONTINUOUS
 62
    4
 10
151.43619571079176
 20
62.76507657052683
 11
150.51619571079175
 21
62.584947194615737
  0
LINE
  8
_1-6_アンカ__類
  6
CONTINUOUS
 62
    4
 10
151.43619571079174
 20
62.880650341018637
 11
151.43619571079174
 21
62.76507657052683
  0
LINE
  8
_1-6_アンカ__類
  6
CONTINUOUS
 62
    4
 10
150.51619571079175
 20
62.584947194615737
 11
150.51619571079175
 21
62.700520965107536
  0
LINE
  8
_1-6_アンカ__類
  6
CONTINUOUS
 62
    4
 10
151.43619571079174
 20
62.440650287758146
 11
150.51619571079175
 21
62.260520911847053
  0
LINE
  8
_1-6_アンカ__類
  6
CONTINUOUS
 62
    4
 10
151.43619571079176
 20
62.325076517266353
 11
150.51619571079175
 21
62.144947141355246
  0
LINE
  8
_1-6_アンカ__類
  6
CONTINUOUS
 62
    4
 10
151.43619571079174
 20
62.440650287758146
 11
151.43619571079174
 21
62.325076517266353
  0
LINE
  8
_1-6_アンカ__類
  6
CONTINUOUS
 62
    4
 10
150.51619571079175
 20
62.144947141355246
 11
150.51619571079175
 21
62.260520911847053
  0
LINE
  8
_1-6_アンカ__類
  6
CONTINUOUS
 62
    4
 10
151.43619571079174
 20
62.000650234497677
 11
150.51619571079175
 21
61.820520858586555
  0
LINE
  8
_1-6_アンカ__類
  6
CONTINUOUS
 62
    4
 10
151.43619571079176
 20
61.885076464005877
 11
150.51619571079175
 21
61.704947088094755
  0
LINE
  8
_1-6_アンカ__類
  6
CONTINUOUS
 62
    4
 10
151.43619571079174
 20
62.000650234497677
 11
151.43619571079174
 21
61.885076464005877
  0
LINE
  8
_1-6_アンカ__類
  6
CONTINUOUS
 62
    4
 10
150.51619571079175
 20
61.704947088094755
 11
150.51619571079175
 21
61.820520858586555
  0
LINE
  8
_1-6_アンカ__類
  6
CONTINUOUS
 62
    4
 10
151.43619571079174
 20
61.560650181237165
 11
150.51619571079175
 21
61.380520805326043
  0
LINE
  8
_1-6_アンカ__類
  6
CONTINUOUS
 62
    4
 10
151.43619571079176
 20
61.445076410745372
 11
150.51619571079175
 21
61.264947034834258
  0
LINE
  8
_1-6_アンカ__類
  6
CONTINUOUS
 62
    4
 10
151.43619571079174
 20
61.560650181237165
 11
151.43619571079174
 21
61.445076410745372
  0
LINE
  8
_1-6_アンカ__類
  6
CONTINUOUS
 62
    4
 10
150.51619571079175
 20
61.264947034834258
 11
150.51619571079175
 21
61.380520805326043
  0
LINE
  8
_1-6_アンカ__類
  6
CONTINUOUS
 62
    4
 10
150.97619551561095
 20
58.059119002069338
 11
150.96500198699161
 21
58.089872969195056
  0
LINE
  8
_1-6_アンカ__類
  6
CONTINUOUS
 62
    4
 10
150.97619551561095
 20
58.059119002069338
 11
150.99196283691259
 21
58.102439361310857
  0
LINE
  8
_1-6_アンカ__類
  6
CONTINUOUS
 62
    4
 10
150.94523585203365
 20
58.144179978661839
 11
150.82906435225607
 21
58.463358551084994
  0
LINE
  8
_1-6_アンカ__類
  6
CONTINUOUS
 62
    4
 10
151.0219714788465
 20
58.184887427412761
 11
151.16416403738444
 21
58.575558271210227
  0
LINE
  8
_1-6_アンカ__類
  6
CONTINUOUS
 62
    4
 10
150.79988380921912
 20
58.543531434166411
 11
150.67948885592469
 21
58.874313849759154
  0
LINE
  8
_1-6_アンカ__類
  6
CONTINUOUS
 62
    4
 10
150.91683164201018
 20
59.42714165931919
 11
150.51619518639657
 21
59.358456515036494
  0
LINE
  8
_1-6_アンカ__類
  6
CONTINUOUS
 62
    4
 10
150.96500198699161
 20
58.089872969195056
 11
151.08401027837959
 21
58.145342468821227
  0
LINE
  8
_1-6_アンカ__類
  6
CONTINUOUS
 62
    4
 10
150.87018939054821
 20
58.104368614478872
 11
150.96500198699161
 21
58.089872969195056
  0
LINE
  8
_1-6_アンカ__類
  6
CONTINUOUS
 62
    4
 10
151.0219714788465
 20
58.184887427412761
 11
150.87018939054821
 21
58.104368614478872
  0
LINE
  8
_1-6_アンカ__類
  6
CONTINUOUS
 62
    4
 10
151.08401027837959
 20
58.145342468821255
 11
151.0219714788465
 21
58.184887427412761
  0
LINE
  8
_1-6_アンカ__類
  6
CONTINUOUS
 62
    4
 10
151.08401027837959
 20
58.145342468821227
 11
150.87018939054821
 21
58.104368614478872
  0
LINE
  8
_1-6_アンカ__類
  6
CONTINUOUS
 62
    4
 10
150.97619550106336
 20
59.710585398957818
 11
151.12271697003135
 21
59.801648086198512
  0
LINE
  8
_1-6_アンカ__類
  6
CONTINUOUS
 62
    4
 10
151.43619581131694
 20
59.800650147658793
 11
150.97619550106336
 21
59.710585398957818
  0
LINE
  8
_1-6_アンカ__類
  6
CONTINUOUS
 62
    4
 10
151.43619581131694
 20
59.685076377166993
 11
150.97619546918713
 21
59.595011622224874
  0
LINE
  8
_1-6_アンカ__類
  6
CONTINUOUS
 62
    4
 10
150.97619546918713
 20
59.595011622224874
 11
151.0642478307131
 21
59.557221889981165
  0
LINE
  8
_1-6_アンカ__類
  6
CONTINUOUS
 62
    4
 10
150.97619548210253
 20
59.59501161668193
 11
150.97619548210253
 21
59.71058538717373
  0
LINE
  8
_1-6_アンカ__類
  6
CONTINUOUS
 62
    4
 10
151.43619581131694
 20
59.800650147658793
 11
151.43619581131694
 21
59.685076377166993
  0
LINE
  8
_1-6_アンカ__類
  6
CONTINUOUS
 62
    4
 10
151.43619577780856
 20
60.240650141098094
 11
150.51619577780855
 21
60.060520765186993
  0
LINE
  8
_1-6_アンカ__類
  6
CONTINUOUS
 62
    4
 10
151.43619577780856
 20
60.125076370606294
 11
150.51619577780855
 21
59.944946994695172
  0
LINE
  8
_1-6_アンカ__類
  6
CONTINUOUS
 62
    4
 10
151.43619577780856
 20
60.240650141098094
 11
151.43619577780856
 21
60.125076370606294
  0
LINE
  8
_1-6_アンカ__類
  6
CONTINUOUS
 62
    4
 10
150.51619577780855
 20
59.944946994695172
 11
150.51619577780855
 21
60.060520765186993
  0
LINE
  8
_1-6_アンカ__類
  6
CONTINUOUS
 62
    4
 10
151.43619574430016
 20
60.680650134537395
 11
150.51619574430015
 21
60.500520758626294
  0
LINE
  8
_1-6_アンカ__類
  6
CONTINUOUS
 62
    4
 10
151.43619574430016
 20
60.565076364045595
 11
150.51619574430015
 21
60.384946988134494
  0
LINE
  8
_1-6_アンカ__類
  6
CONTINUOUS
 62
    4
 10
151.43619574430016
 20
60.680650134537395
 11
151.43619574430016
 21
60.565076364045595
  0
LINE
  8
_1-6_アンカ__類
  6
CONTINUOUS
 62
    4
 10
150.51619574430015
 20
60.384946988134494
 11
150.51619574430015
 21
60.500520758626294
  0
LINE
  8
_1-6_アンカ__類
  6
CONTINUOUS
 62
    4
 10
151.43619571079174
 20
61.120650127976695
 11
150.51619571079175
 21
60.940520752065595
  0
LINE
  8
_1-6_アンカ__類
  6
CONTINUOUS
 62
    4
 10
151.43619571079176
 20
61.005076357484896
 11
150.51619571079175
 21
60.824946981573795
  0
LINE
  8
_1-6_アンカ__類
  6
CONTINUOUS
 62
    4
 10
150.51619571079175
 20
60.824946981573795
 11
150.51619571079175
 21
60.940520752065595
  0
LINE
  8
_1-6_アンカ__類
  6
CONTINUOUS
 62
    4
 10
150.53896444579382
 20
58.921578033723009
 11
150.65032805514653
 21
58.954432491430353
  0
LINE
  8
_1-6_アンカ__類
  6
CONTINUOUS
 62
    4
 10
150.53896444579382
 20
58.921578033723009
 11
150.67948885592469
 21
58.874313849759154
  0
LINE
  8
_1-6_アンカ__類
  6
CONTINUOUS
 62
    4
 10
150.67948885592469
 20
58.874313849759154
 11
151.43619584482531
 21
59.079303016257597
  0
LINE
  8
_1-6_アンカ__類
  6
CONTINUOUS
 62
    4
 10
151.43619584482531
 20
59.079303016257597
 11
150.53896444579382
 21
58.921578033723009
  0
LINE
  8
_1-6_アンカ__類
  6
CONTINUOUS
 62
    4
 10
151.30460011662728
 20
58.622579768053768
 11
150.69041156420568
 21
58.508460800517256
  0
LINE
  8
_1-6_アンカ__類
  6
CONTINUOUS
 62
    4
 10
150.82906435225607
 20
58.463358551084994
 11
151.30460011662728
 21
58.622579768053768
  0
LINE
  8
_1-6_アンカ__類
  6
CONTINUOUS
 62
    4
 10
151.30460011662728
 20
58.622579768053768
 11
151.19905083762549
 21
58.671408967109613
  0
LINE
  8
_1-6_アンカ__類
  6
CONTINUOUS
 62
    4
 10
151.19905083762549
 20
58.671408967109613
 11
150.69041156420568
 21
58.508460800517256
  0
LINE
  8
_1-6_アンカ__類
  6
CONTINUOUS
 62
    4
 10
150.69041156420568
 20
58.508460800517256
 11
150.82906435225607
 21
58.463358551084994
  0
ARC
  8
_1-6_アンカ__類
  6
CONTINUOUS
 62
    4
 10
150.97619551561093
 20
68.041484905558093
 40
1.1299999999999812
 50
179.10584070968685
 51
179.99999999999991
  0
LINE
  8
_1-6_アンカ__類
  6
CONTINUOUS
 62
    4
 10
149.84633311742365
 20
68.059118996474751
 11
152.10605791379822
 21
68.059118996474751
  0
ARC
  8
_1-6_アンカ__類
  6
CONTINUOUS
 62
    4
 10
150.97619551561093
 20
68.041484905558093
 40
1.1299999999999812
 50
359.99999999999852
 51
0.894159290312816
  0
LINE
  8
_1-6_アンカ__類
  6
CONTINUOUS
 62
    4
 10
149.84619551561096
 20
68.041484905558093
 11
152.10619551561092
 21
68.041484905558093
  0
LINE
  8
_1-6_アンカ__類
  6
CONTINUOUS
 62
    4
 10
150.57640368632482
 20
67.259118996474754
 11
151.37619551561076
 21
67.259118996474754
  0
LINE
  8
_1-6_アンカ__類
  6
CONTINUOUS
 62
    4
 10
151.43619571079174
 20
61.120650127976695
 11
151.43619571079174
 21
61.005076357484896
  0
LINE
  8
_1-6_アンカ__類
  6
CONTINUOUS
 62
    4
 10
150.91683164201018
 20
59.42714165931919
 11
150.85792896524063
 21
59.369837803031011
  0
LINE
  8
_1-6_アンカ__類
  6
CONTINUOUS
 62
    4
 10
150.91683164201018
 20
59.42714165931919
 11
150.87049071346459
 21
59.448510329169736
  0
LINE
  8
_1-6_アンカ__類
  6
CONTINUOUS
 62
    4
 10
150.64620441747775
 20
63.208885713773817
 11
150.64620441747775
 21
63.417738252497898
  0
LINE
  8
_1-6_アンカ__類
  6
CONTINUOUS
 62
    4
 10
150.64620441747775
 20
62.768885660513305
 11
150.64620441747775
 21
62.977738199237393
  0
LINE
  8
_1-6_アンカ__類
  6
CONTINUOUS
 62
    4
 10
150.64620441747775
 20
62.328885607252836
 11
150.64620441747775
 21
62.537738145976917
  0
LINE
  8
_1-6_アンカ__類
  6
CONTINUOUS
 62
    4
 10
150.64620441747775
 20
61.888885553992324
 11
150.64620441747775
 21
62.097738092716412
  0
LINE
  8
_1-6_アンカ__類
  6
CONTINUOUS
 62
    4
 10
150.64620441747775
 20
61.448885500731855
 11
150.64620441747775
 21
61.657738039455907
  0
LINE
  8
_1-6_アンカ__類
  6
CONTINUOUS
 62
    4
 10
150.64620441747775
 20
61.008885447471343
 11
150.64620441747775
 21
61.217737986195445
  0
LINE
  8
_1-6_アンカ__類
  6
CONTINUOUS
 62
    4
 10
150.64620441747775
 20
60.568885287453824
 11
150.64620441747775
 21
60.777737906487758
  0
LINE
  8
_1-6_アンカ__類
  6
CONTINUOUS
 62
    4
 10
150.64620441747775
 20
63.648885767034315
 11
150.64620441747775
 21
63.859118996474798
  0
LINE
  8
_1-6_アンカ__類
  6
CONTINUOUS
 62
    4
 10
150.64620468550504
 20
59.396908889662868
 11
150.64620468550507
 21
59.897737905228247
  0
LINE
  8
_1-6_アンカ__類
  6
CONTINUOUS
 62
    4
 10
151.30618633988706
 20
63.367859469365143
 11
151.30618633988706
 21
63.576711928381556
  0
LINE
  8
_1-6_アンカ__類
  6
CONTINUOUS
 62
    4
 10
151.30618633988706
 20
62.927859416104653
 11
151.30618633988706
 21
63.136711875121058
  0
LINE
  8
_1-6_アンカ__類
  6
CONTINUOUS
 62
    4
 10
151.30618633988706
 20
62.487859362844191
 11
151.30618633988706
 21
62.696711821860546
  0
LINE
  8
_1-6_アンカ__類
  6
CONTINUOUS
 62
    4
 10
151.30618633988706
 20
62.047859309583693
 11
151.30618633988706
 21
62.256711768600077
  0
LINE
  8
_1-6_アンカ__類
  6
CONTINUOUS
 62
    4
 10
151.30618633988706
 20
61.607859256323195
 11
151.30618633988706
 21
61.816711715339565
  0
LINE
  8
_1-6_アンカ__類
  6
CONTINUOUS
 62
    4
 10
151.30618634571681
 20
59.130026227730099
 11
151.30618634571681
 21
59.616711674151276
  0
LINE
  8
_1-6_アンカ__類
  6
CONTINUOUS
 62
    4
 10
151.30618633988706
 20
61.167859203062733
 11
151.30618633988706
 21
61.376711662079096
  0
LINE
  8
_1-6_アンカ__類
  6
CONTINUOUS
 62
    4
 10
151.30618633988706
 20
60.727859209623389
 11
151.30618633988706
 21
60.936711662079105
  0
LINE
  8
_1-6_アンカ__類
  6
CONTINUOUS
 62
    4
 10
151.30618634571681
 20
60.28785921618411
 11
151.30618634571681
 21
60.496711668639797
  0
LINE
  8
_1-6_アンカ__類
  6
CONTINUOUS
 62
    4
 10
151.30618634571681
 20
59.847859222744809
 11
151.30618634571681
 21
60.056711675200503
  0
LINE
  8
_1-6_アンカ__類
  6
CONTINUOUS
 62
    4
 10
151.30618634571681
 20
63.807859190907415
 11
151.30618634571681
 21
63.859118996474798
  0
LINE
  8
_1-6_アンカ__類
  6
CONTINUOUS
 62
    4
 10
150.64620468550507
 20
58.96576135641233
 11
150.64620468550507
 21
59.311192331072604
  0
LINE
  8
_1-6_アンカ__類
  6
CONTINUOUS
 62
    4
 10
150.65032805514653
 20
58.954432491430353
 11
150.64620468550507
 21
58.96576135641233
  0
LINE
  8
_1-6_アンカ__類
  6
CONTINUOUS
 62
    4
 10
151.19905083762549
 20
58.671408967109613
 11
151.30618637922521
 21
58.965761448475774
  0
LINE
  8
_1-6_アンカ__類
  6
CONTINUOUS
 62
    4
 10
150.57119551561095
 20
63.859118996474798
 11
151.38119551561095
 21
63.859118996474798
  0
LINE
  8
_1-6_アンカ__類
  6
CONTINUOUS
 62
    4
 10
150.57119551561095
 20
63.859118996474855
 11
150.57119551561095
 21
67.225282861320451
  0
LINE
  8
_1-6_アンカ__類
  6
CONTINUOUS
 62
    4
 10
149.846195521108
 20
68.041484887778509
 11
150.54430104243522
 21
67.29351468635646
  0
ARC
  8
_1-6_アンカ__類
  6
CONTINUOUS
 62
    4
 10
150.47119551561093
 20
67.225282861320451
 40
0.1
 50
359.99999999999977
 51
43.025065989116086
  0
LINE
  8
_1-6_アンカ__類
  6
CONTINUOUS
 62
    4
 10
151.38119551561095
 20
63.859118996474855
 11
151.38119551561093
 21
67.225282873210375
  0
LINE
  8
_1-6_アンカ__類
  6
CONTINUOUS
 62
    4
 10
151.40808998878663
 20
67.293514698246369
 11
152.10619551561095
 21
68.041484905558121
  0
ARC
  8
_1-6_アンカ__類
  6
CONTINUOUS
 62
    4
 10
151.48119551561092
 20
67.225282873210375
 40
0.1
 50
136.97493401087911
 51
179.99999999999991
  0
LINE
  8
_1-6_アンカ__類
  6
CONTINUOUS
 62
    4
 10
150.51619577780855
 20
59.944946994695172
 11
150.64620468550507
 21
59.897737919609185
  0
LINE
  8
_1-6_アンカ__類
  6
CONTINUOUS
 62
    4
 10
150.51619577780855
 20
60.060520765186993
 11
150.64620468550507
 21
60.128885445372909
  0
LINE
  8
_1-6_アンカ__類
  6
CONTINUOUS
 62
    4
 10
150.64620468550507
 20
60.128885445372909
 11
150.64620442330749
 21
60.337737913048457
  0
LINE
  8
_1-6_アンカ__類
  6
CONTINUOUS
 62
    4
 10
150.51619574430015
 20
60.384946988134494
 11
150.64620468550507
 21
60.337737913048457
  0
LINE
  8
_1-6_アンカ__類
  6
CONTINUOUS
 62
    4
 10
150.51619574430015
 20
60.500520758626294
 11
150.64620468550507
 21
60.568885474857424
  0
LINE
  8
_1-6_アンカ__類
  6
CONTINUOUS
 62
    4
 10
150.51619571079175
 20
60.824946981573795
 11
150.64620468550507
 21
60.777737906487772
  0
LINE
  8
_1-6_アンカ__類
  6
CONTINUOUS
 62
    4
 10
150.51619571079175
 20
60.940520752065595
 11
150.64620441747775
 21
61.008885468296754
  0
LINE
  8
_1-6_アンカ__類
  6
CONTINUOUS
 62
    4
 10
150.51619571079175
 20
61.264947034834258
 11
150.64620468550507
 21
61.217737986195445
  0
LINE
  8
_1-6_アンカ__類
  6
CONTINUOUS
 62
    4
 10
150.51619571079175
 20
61.380520805326043
 11
150.64620441747775
 21
61.448885500731876
  0
LINE
  8
_1-6_アンカ__類
  6
CONTINUOUS
 62
    4
 10
150.51619571079175
 20
61.704947088094755
 11
150.64620468550507
 21
61.657738013008739
  0
LINE
  8
_1-6_アンカ__類
  6
CONTINUOUS
 62
    4
 10
150.51619571079175
 20
61.820520858586555
 11
150.64620468550507
 21
61.888885553992324
  0
LINE
  8
_1-6_アンカ__類
  6
CONTINUOUS
 62
    4
 10
150.51619571079175
 20
62.144947141355246
 11
150.64620468550507
 21
62.09773806626923
  0
LINE
  8
_1-6_アンカ__類
  6
CONTINUOUS
 62
    4
 10
150.51619571079175
 20
62.260520911847053
 11
150.64620441747775
 21
62.329683747042353
  0
LINE
  8
_1-6_アンカ__類
  6
CONTINUOUS
 62
    4
 10
150.51619571079175
 20
62.584947194615737
 11
150.64620468550507
 21
62.537738119529735
  0
LINE
  8
_1-6_アンカ__類
  6
CONTINUOUS
 62
    4
 10
150.51619571079175
 20
62.700520965107536
 11
150.64620468550507
 21
62.768885660513334
  0
LINE
  8
_1-6_アンカ__類
  6
CONTINUOUS
 62
    4
 10
150.51619571079175
 20
63.024947247876213
 11
150.64620468550507
 21
62.977738235451795
  0
LINE
  8
_1-6_アンカ__類
  6
CONTINUOUS
 62
    4
 10
150.51619571079175
 20
63.140521018368005
 11
150.64620468550507
 21
63.208885713773824
  0
LINE
  8
_1-6_アンカ__類
  6
CONTINUOUS
 62
    4
 10
150.51619571079175
 20
63.464947301136718
 11
150.64620468550507
 21
63.417738288712272
  0
LINE
  8
_1-6_アンカ__類
  6
CONTINUOUS
 62
    4
 10
150.51619571079175
 20
63.580521071628517
 11
150.64620468550507
 21
63.648885767034336
  0
LINE
  8
_1-6_アンカ__類
  6
CONTINUOUS
 62
    4
 10
151.43619581131694
 20
59.685076377166993
 11
151.30618634571681
 21
59.616711681761231
  0
LINE
  8
_1-6_アンカ__類
  6
CONTINUOUS
 62
    4
 10
151.30618634571681
 20
59.616711681761231
 11
151.0642478307131
 21
59.557221889981165
  0
LINE
  8
_1-6_アンカ__類
  6
CONTINUOUS
 62
    4
 10
151.12271697003135
 20
59.801648086198512
 11
151.30618634571681
 21
59.847859199915035
  0
LINE
  8
_1-6_アンカ__類
  6
CONTINUOUS
 62
    4
 10
151.30618634571681
 20
59.847859199915035
 11
151.43619581131694
 21
59.800650147658793
  0
LINE
  8
_1-6_アンカ__類
  6
CONTINUOUS
 62
    4
 10
151.30618634571681
 20
60.056711675200532
 11
150.64620468550507
 21
59.897737919609185
  0
LINE
  8
_1-6_アンカ__類
  6
CONTINUOUS
 62
    4
 10
151.43619577780856
 20
60.125076370606294
 11
151.30618634571681
 21
60.056711675200532
  0
LINE
  8
_1-6_アンカ__類
  6
CONTINUOUS
 62
    4
 10
150.64620468550507
 20
60.128885445372909
 11
151.30618634571681
 21
60.287859201803215
  0
LINE
  8
_1-6_アンカ__類
  6
CONTINUOUS
 62
    4
 10
151.30618634571681
 20
60.287859201803215
 11
151.43619577780856
 21
60.240650141098094
  0
LINE
  8
_1-6_アンカ__類
  6
CONTINUOUS
 62
    4
 10
151.30618634571681
 20
60.496711668639804
 11
150.64620468550507
 21
60.337737913048457
  0
LINE
  8
_1-6_アンカ__類
  6
CONTINUOUS
 62
    4
 10
151.43619574430016
 20
60.565076364045595
 11
151.30618634571681
 21
60.496711668639797
  0
LINE
  8
_1-6_アンカ__類
  6
CONTINUOUS
 62
    4
 10
150.64620468550507
 20
60.568885474857424
 11
151.30618633988706
 21
60.727859195242488
  0
LINE
  8
_1-6_アンカ__類
  6
CONTINUOUS
 62
    4
 10
151.30618633988706
 20
60.727859195242488
 11
151.43619574430016
 21
60.680650134537395
  0
LINE
  8
_1-6_アンカ__類
  6
CONTINUOUS
 62
    4
 10
151.30618633988706
 20
60.936711669912995
 11
150.64620441747775
 21
60.777737906487772
  0
LINE
  8
_1-6_アンカ__類
  6
CONTINUOUS
 62
    4
 10
151.43619571079174
 20
61.005076357484896
 11
151.30618633988706
 21
60.936711669912995
  0
LINE
  8
_1-6_アンカ__類
  6
CONTINUOUS
 62
    4
 10
150.64620468550507
 20
61.008885468296754
 11
151.30618633988706
 21
61.167859188681838
  0
LINE
  8
_1-6_アンカ__類
  6
CONTINUOUS
 62
    4
 10
151.30618633988706
 20
61.167859188681838
 11
151.43619571079174
 21
61.120650127976695
  0
LINE
  8
_1-6_アンカ__類
  6
CONTINUOUS
 62
    4
 10
151.30618633988706
 20
61.376711715339617
 11
150.64620468550507
 21
61.217737986195445
  0
LINE
  8
_1-6_アンカ__類
  6
CONTINUOUS
 62
    4
 10
151.43619571079174
 20
61.445076410745372
 11
151.30618633988706
 21
61.376711715339617
  0
LINE
  8
_1-6_アンカ__類
  6
CONTINUOUS
 62
    4
 10
150.64620468550507
 20
61.448885500731876
 11
151.30618633988706
 21
61.607859256323209
  0
LINE
  8
_1-6_アンカ__類
  6
CONTINUOUS
 62
    4
 10
151.30618633988706
 20
61.607859256323195
 11
151.43619571079174
 21
61.560650181237165
  0
LINE
  8
_1-6_アンカ__類
  6
CONTINUOUS
 62
    4
 10
151.30618633988706
 20
61.816711768600086
 11
150.64620441747775
 21
61.657738013008739
  0
LINE
  8
_1-6_アンカ__類
  6
CONTINUOUS
 62
    4
 10
151.43619571079174
 20
61.885076464005877
 11
151.30618633988706
 21
61.816711768600086
  0
LINE
  8
_1-6_アンカ__類
  6
CONTINUOUS
 62
    4
 10
150.64620468550507
 20
61.888885553992324
 11
151.30618633988706
 21
62.047859309583714
  0
LINE
  8
_1-6_アンカ__類
  6
CONTINUOUS
 62
    4
 10
151.30618633988706
 20
62.047859309583693
 11
151.43619571079174
 21
62.000650234497677
  0
LINE
  8
_1-6_アンカ__類
  6
CONTINUOUS
 62
    4
 10
151.30618633988706
 20
62.256711821860598
 11
150.64620468550507
 21
62.09773806626923
  0
LINE
  8
_1-6_アンカ__類
  6
CONTINUOUS
 62
    4
 10
151.43619571079174
 20
62.325076517266353
 11
151.30618633988706
 21
62.256711821860598
  0
LINE
  8
_1-6_アンカ__類
  6
CONTINUOUS
 62
    4
 10
150.64620468550507
 20
62.329683747042353
 11
151.30618633988706
 21
62.487859362844191
  0
LINE
  8
_1-6_アンカ__類
  6
CONTINUOUS
 62
    4
 10
151.30618633988706
 20
62.487859362844191
 11
151.43619571079174
 21
62.440650287758146
  0
LINE
  8
_1-6_アンカ__類
  6
CONTINUOUS
 62
    4
 10
151.30618633988706
 20
62.696711875121068
 11
150.64620468550507
 21
62.537738119529735
  0
LINE
  8
_1-6_アンカ__類
  6
CONTINUOUS
 62
    4
 10
151.43619571079174
 20
62.76507657052683
 11
151.30618633988706
 21
62.696711875121068
  0
LINE
  8
_1-6_アンカ__類
  6
CONTINUOUS
 62
    4
 10
150.64620468550507
 20
62.768885660513334
 11
151.30618633988706
 21
62.927859416104674
  0
LINE
  8
_1-6_アンカ__類
  6
CONTINUOUS
 62
    4
 10
151.30618633988706
 20
62.927859416104674
 11
151.43619571079174
 21
62.880650341018637
  0
LINE
  8
_1-6_アンカ__類
  6
CONTINUOUS
 62
    4
 10
151.30618633988706
 20
63.136711928381573
 11
150.64620441747775
 21
62.977738172790239
  0
LINE
  8
_1-6_アンカ__類
  6
CONTINUOUS
 62
    4
 10
151.43619571079174
 20
63.205076623787335
 11
151.30618633988706
 21
63.136711928381573
  0
LINE
  8
_1-6_アンカ__類
  6
CONTINUOUS
 62
    4
 10
151.30618633988706
 20
63.367859469365172
 11
151.43619571079174
 21
63.320650394279127
  0
LINE
  8
_1-6_アンカ__類
  6
CONTINUOUS
 62
    4
 10
150.64620468550507
 20
63.208885713773824
 11
151.30618633988706
 21
63.367859469365172
  0
LINE
  8
_1-6_アンカ__類
  6
CONTINUOUS
 62
    4
 10
151.30618633988706
 20
63.576711981642077
 11
150.64620441747775
 21
63.41773822605073
  0
LINE
  8
_1-6_アンカ__類
  6
CONTINUOUS
 62
    4
 10
151.43619571079174
 20
63.64507667704784
 11
151.30618633988706
 21
63.576711981642077
  0
LINE
  8
_1-6_アンカ__類
  6
CONTINUOUS
 62
    4
 10
150.64620468550507
 20
63.648885767034336
 11
151.30618634571681
 21
63.807859522625677
  0
LINE
  8
_1-6_アンカ__類
  6
CONTINUOUS
 62
    4
 10
151.30618634571681
 20
63.807859522625677
 11
151.43619571079174
 21
63.760650447539632
  0
LINE
  8
_1-6_アンカ__類
  6
CONTINUOUS
 62
    4
 10
151.30618637922521
 20
58.965761448475774
 11
151.30618637922521
 21
59.044083925670108
  0
LINE
  8
_1-6_アンカ__類
  6
CONTINUOUS
 62
    4
 10
151.43619584482531
 20
59.079303016257597
 11
151.30618634571681
 21
59.130026227730099
  0
LINE
  8
_1-6_アンカ__類
  6
CONTINUOUS
 62
    4
 10
151.30618634571681
 20
59.130026227730099
 11
150.65032805514653
 21
58.954432491430353
  0
LINE
  8
_1-6_アンカ__類
  6
CONTINUOUS
 62
    4
 10
150.64620468550507
 20
59.311192331072604
 11
150.85792896524063
 21
59.369837803031011
  0
LINE
  8
_1-6_アンカ__類
  6
CONTINUOUS
 62
    4
 10
150.51619518639657
 20
59.358456515036494
 11
150.64620468550507
 21
59.311192331072604
  0
LINE
  8
_1-6_アンカ__類
  6
CONTINUOUS
 62
    4
 10
150.87049071346459
 20
59.448510329169736
 11
150.64620468550504
 21
59.396908889662868
  0
LINE
  8
_1-6_アンカ__類
  6
CONTINUOUS
 62
    4
 10
150.51619518639657
 20
59.358456515036494
 11
150.64620468550504
 21
59.396908889662868
  0
ARC
  8
_1-2_ハッチング
  6
CONTINUOUS
 62
    4
 10
154.12524551561094
 20
68.666268996474713
 40
0.2311999999999999
 50
19.679000000000002
 51
181.77000000000007
  0
LINE
  8
_1-4_リベットル__フ
  6
CONTINUOUS
 62
    6
 10
154.26494551561095
 20
68.659118996474717
 11
154.26494551561095
 21
68.359118996474734
  0
LINE
  8
_1-4_リベットル__フ
  6
CONTINUOUS
 62
    6
 10
154.26494551561095
 20
68.659118996474717
 11
145.56374551561095
 21
68.659118996474717
  0
ARC
  8
_1-2_ハッチング
  6
CONTINUOUS
 62
    4
 10
155.5281903607524
 20
69.573690570812303
 40
1.4467175002313406
 50
214.98848767086255
 51
237.09116576755343
  0
LINE
  8
_e-e_
  6
CONTINUOUS
 62
    7
 10
154.39677816323524
 20
68.481761372149322
 11
159.3967781632353
 21
77.142015409993718
  0
LINE
  8
_e-e_
  6
CONTINUOUS
 62
    7
 10
159.3967781632353
 20
77.142015409993718
 11
164.3967781632353
 21
77.142015409993718
  0
TEXT
  8
_e-e_
 62
    7
 10
164.3967781632353
 20
75.142015409993718
 40
4
 41
1
 50
0
  1
ＦＬシール
  0
LINE
  8
_e-e_
  6
CONTINUOUS
 62
    7
 10
154.79023558626551
 20
86.14427722474997
 11
159.79023558626551
 21
86.14427722474997
  0
TEXT
  8
_e-e_
 62
    7
 10
159.79023558626551
 20
84.14427722474997
 40
4
 41
1
 50
0
  1
ＦＬ鋼板
  0
LINE
  8
_e-e_
  6
CONTINUOUS
 62
    7
 10
154.79023558626551
 20
86.14427722474997
 11
144.79023558626551
 21
68.823769149061206
  0
LINE
  8
_e-e_
  6
CONTINUOUS
 62
    7
 10
200.05570182827208
 20
93.455691651236535
 11
205.05570182827208
 21
93.455691651236535
  0
LINE
  8
_e-e_
  6
CONTINUOUS
 62
    7
 10
195.05570182827208
 20
84.795437613392124
 11
200.05570182827208
 21
93.455691651236535
  0
TEXT
  8
_e-e_
 62
    7
 10
205.05570182827208
 20
91.455691651236521
 40
4
 41
1
 50
0
  1
リベットルーフ
  0
LINE
  8
_e-e_
  6
CONTINUOUS
 62
    7
 10
195.05570182827208
 20
84.795437613392124
 11
200.05570182827208
 21
84.795437613392124
  0
LINE
  8
_e-e_
  6
CONTINUOUS
 62
    7
 10
185.05570182827208
 20
67.474929537703332
 11
195.05570182827208
 21
84.795437613392124
  0
TEXT
  8
_e-e_
 62
    7
 10
200.05570182827208
 20
82.795437613392124
 40
4
 41
1
 50
0
  1
絶縁シート
  0
LINE
  8
_e-e_
  6
CONTINUOUS
 62
    7
 10
158.94332261064909
 20
142.31761197829741
 11
163.94332261064909
 21
142.31761197829741
  0
LINE
  8
_e-e_
  6
CONTINUOUS
 62
    7
 10
153.94332261064909
 20
133.65735794045298
 11
158.94332261064909
 21
142.31761197829741
  0
TEXT
  8
_e-e_
 62
    7
 10
168.94332261064909
 20
148.97786601614177
 40
4
 41
1
 50
0
  1
リベットルーフ
  0
LINE
  8
_e-e_
  6
CONTINUOUS
 62
    7
 10
163.94332261064909
 20
150.97786601614177
 11
168.94332261064909
 21
150.97786601614177
  0
LINE
  8
_e-e_
  6
CONTINUOUS
 62
    7
 10
158.94332261064909
 20
142.31761197829741
 11
163.94332261064909
 21
150.97786601614177
  0
TEXT
  8
_e-e_
 62
    7
 10
163.94332261064909
 20
140.31761197829741
 40
4
 41
1
 50
0
  1
絶縁シート
  0
TEXT
  8
_e-e_
 62
    7
 10
158.94332261064909
 20
131.65735794045298
 40
4
 41
1
 50
0
  1
断熱材
  0
LINE
  8
_e-e_
  6
CONTINUOUS
 62
    7
 10
138.94332261064909
 20
107.67659582691981
 11
153.94332261064909
 21
133.65735794045298
  0
LINE
  8
_e-e_
  6
CONTINUOUS
 62
    7
 10
153.94332261064909
 20
133.65735794045298
 11
158.94332261064909
 21
133.65735794045298
  0
LINE
  8
_1-5_ＦＬ鋼板__ディスク
  6
CONTINUOUS
 62
    5
 10
101.53129551561096
 20
165.53836899647476
 11
100.52129551561097
 21
166.18636899647476
  0
LINE
  8
_1-5_ＦＬ鋼板__ディスク
  6
CONTINUOUS
 62
    5
 10
101.54319551561096
 20
165.79211899647476
 11
101.53129551561096
 21
165.53836899647476
  0
LINE
  8
_1-5_ＦＬ鋼板__ディスク
  6
CONTINUOUS
 62
    5
 10
102.74189551561096
 20
165.73596899647475
 11
102.72999551561097
 21
165.48221899647476
  0
LINE
  8
_1-5_ＦＬ鋼板__ディスク
  6
CONTINUOUS
 62
    5
 10
102.74189551561096
 20
165.73596899647475
 11
103.74759551561095
 21
166.25541899647476
  0
LINE
  8
_1-5_ＦＬ鋼板__ディスク
  6
CONTINUOUS
 62
    5
 10
102.72999551561097
 20
165.48221899647476
 11
103.79619551561098
 21
166.03291899647476
  0
LINE
  8
_1-5_ＦＬ鋼板__ディスク
  6
CONTINUOUS
 62
    5
 10
105.83689551561096
 20
165.55686899647475
 11
104.54579551561096
 21
165.77751899647475
  0
LINE
  8
_1-5_ＦＬ鋼板__ディスク
  6
CONTINUOUS
 62
    5
 10
104.58289551561097
 20
165.99436899647475
 11
104.54579551561096
 21
165.77751899647475
  0
LINE
  8
_1-5_ＦＬ鋼板__ディスク
  6
CONTINUOUS
 62
    5
 10
103.79619551561098
 20
166.03291899647476
 11
105.85469551561096
 21
165.93641899647474
  0
LINE
  8
_1-5_ＦＬ鋼板__ディスク
  6
CONTINUOUS
 62
    5
 10
92.179995515610983
 20
166.79746899647475
 11
105.86499551561096
 21
166.15616899647475
  0
LINE
  8
_1-5_ＦＬ鋼板__ディスク
  6
CONTINUOUS
 62
    5
 10
91.758695515610952
 20
157.80736899647476
 11
92.179995515610983
 21
166.79746899647475
  0
LINE
  8
_1-5_ＦＬ鋼板__ディスク
  6
CONTINUOUS
 62
    5
 10
92.389445515610959
 20
166.56741899647474
 11
100.52129551561097
 21
166.18636899647476
  0
LINE
  8
_1-5_ＦＬ鋼板__ディスク
  6
CONTINUOUS
 62
    5
 10
91.758695515610952
 20
157.80736899647476
 11
93.237595515610963
 21
159.15381899647477
  0
LINE
  8
_1-5_ＦＬ鋼板__ディスク
  6
CONTINUOUS
 62
    5
 10
92.00334551561096
 20
158.32761899647474
 11
92.389445515610959
 21
166.56741899647474
  0
LINE
  8
_1-5_ＦＬ鋼板__ディスク
  6
CONTINUOUS
 62
    5
 10
105.85639551561096
 20
165.77671899647476
 11
104.58289551561097
 21
165.99436899647475
  0
LINE
  8
_1-5_ＦＬ鋼板__ディスク
  6
CONTINUOUS
 62
    5
 10
101.54319551561096
 20
165.79211899647476
 11
100.59049551561097
 21
166.40336899647477
  0
LINE
  8
_1-5_ＦＬ鋼板__ディスク
  6
CONTINUOUS
 62
    5
 10
92.00334551561096
 20
158.32761899647474
 11
93.089445515610976
 21
159.31646899647475
  0
LINE
  8
_1-5_ＦＬ鋼板__ディスク
  6
CONTINUOUS
 62
    5
 10
93.089445515610976
 20
159.31646899647475
 11
93.237595515610963
 21
159.15381899647477
  0
ARC
  8
_1-5_ＦＬ鋼板__ディスク
  6
CONTINUOUS
 62
    5
 10
105.85094551561096
 20
165.85651899647476
 40
0.3
 50
267.31700000000006
 51
87.317000000000107
  0
ARC
  8
_1-5_ＦＬ鋼板__ディスク
  6
CONTINUOUS
 62
    5
 10
105.85094551561096
 20
165.85651899647476
 40
0.08
 50
273.91100000000006
 51
87.317000000000078
  0
LINE
  8
_1-5_ＦＬ鋼板__ディスク
  6
CONTINUOUS
 62
    5
 10
144.51624551561096
 20
70.457418996474757
 11
144.30109551561097
 21
70.411618996474743
  0
LINE
  8
_1-5_ＦＬ鋼板__ディスク
  6
CONTINUOUS
 62
    5
 10
144.02839551561095
 20
71.692718996474753
 11
144.30109551561097
 21
70.411618996474743
  0
LINE
  8
_1-5_ＦＬ鋼板__ディスク
  6
CONTINUOUS
 62
    5
 10
144.24729551561097
 20
71.721118996474758
 11
144.51624551561096
 21
70.457418996474757
  0
LINE
  8
_1-5_ＦＬ鋼板__ディスク
  6
CONTINUOUS
 62
    5
 10
153.40299551561097
 20
67.837468996474769
 11
153.37609551561096
 21
67.619118996474754
  0
LINE
  8
_1-5_ＦＬ鋼板__ディスク
  6
CONTINUOUS
 62
    5
 10
154.67609551561097
 20
67.459118996474757
 11
153.37609551561096
 21
67.619118996474754
  0
LINE
  8
_1-5_ＦＬ鋼板__ディスク
  6
CONTINUOUS
 62
    5
 10
154.68529551561096
 20
67.679618996474744
 11
153.40299551561097
 21
67.837468996474769
  0
LINE
  8
_1-5_ＦＬ鋼板__ディスク
  6
CONTINUOUS
 62
    5
 10
152.16409551561097
 20
67.839118996474753
 11
154.67609551561097
 21
67.839118996474753
  0
LINE
  8
_1-5_ＦＬ鋼板__ディスク
  6
CONTINUOUS
 62
    5
 10
144.66714551561097
 20
68.751968996474744
 11
144.40694551561097
 21
71.725868996474759
  0
LINE
  8
_1-5_ＦＬ鋼板__ディスク
  6
CONTINUOUS
 62
    5
 10
145.66334551561096
 20
67.839118996474753
 11
149.78819551561097
 21
67.839118996474753
  0
LINE
  8
_1-5_ＦＬ鋼板__ディスク
  6
CONTINUOUS
 62
    5
 10
144.86874551561095
 20
68.971968996474743
 11
144.62609551561096
 21
71.745018996474755
  0
LINE
  8
_1-5_ＦＬ鋼板__ディスク
  6
CONTINUOUS
 62
    5
 10
145.86489551561095
 20
68.059118996474751
 11
154.67609551561097
 21
68.059118996474751
  0
LINE
  8
_1-5_ＦＬ鋼板__ディスク
  6
CONTINUOUS
 62
    5
 10
150.44639551561096
 20
67.459118996474757
 11
149.78819551561097
 21
67.839118996474753
  0
LINE
  8
_1-5_ＦＬ鋼板__ディスク
  6
CONTINUOUS
 62
    5
 10
150.44639551561096
 20
67.713118996474748
 11
150.44639551561096
 21
67.459118996474757
  0
LINE
  8
_1-5_ＦＬ鋼板__ディスク
  6
CONTINUOUS
 62
    5
 10
150.44639551561096
 20
67.713118996474748
 11
149.84714551561098
 21
68.059118996474751
  0
LINE
  8
_1-5_ＦＬ鋼板__ディスク
  6
CONTINUOUS
 62
    5
 10
151.50589551561097
 20
67.459118996474757
 11
152.16409551561097
 21
67.839118996474753
  0
LINE
  8
_1-5_ＦＬ鋼板__ディスク
  6
CONTINUOUS
 62
    5
 10
151.50589551561097
 20
67.713118996474748
 11
151.50589551561097
 21
67.459118996474757
  0
LINE
  8
_1-5_ＦＬ鋼板__ディスク
  6
CONTINUOUS
 62
    5
 10
151.50589551561097
 20
67.713118996474748
 11
152.10514551561096
 21
68.059118996474751
  0
ARC
  8
_1-5_ＦＬ鋼板__ディスク
  6
CONTINUOUS
 62
    5
 10
144.32724551561097
 20
71.718868996474754
 40
0.3
 50
5.0000000000000009
 51
185.00000000000006
  0
ARC
  8
_1-5_ＦＬ鋼板__ディスク
  6
CONTINUOUS
 62
    5
 10
144.32724551561097
 20
71.718868996474754
 40
0.08
 50
5.0000000000000009
 51
178.40600000000003
  0
ARC
  8
_1-5_ＦＬ鋼板__ディスク
  6
CONTINUOUS
 62
    5
 10
154.67609551561097
 20
67.759118996474768
 40
0.08
 50
276.59400000000005
 51
90.000000000000071
  0
ARC
  8
_1-5_ＦＬ鋼板__ディスク
  6
CONTINUOUS
 62
    5
 10
154.67609551561097
 20
67.759118996474768
 40
0.3
 50
270.00000000000006
 51
90.000000000000099
  0
ARC
  8
_1-5_ＦＬ鋼板__ディスク
  6
CONTINUOUS
 62
    5
 10
145.66334551561096
 20
68.839118996474753
 40
1
 50
185.00000000000006
 51
270.00000000000006
  0
ARC
  8
_1-5_ＦＬ鋼板__ディスク
  6
CONTINUOUS
 62
    5
 10
145.86489551561095
 20
69.059118996474751
 40
1
 50
185.00000000000006
 51
270.00000000000006
  0
ENDSEC
  0
EOF
