  0
SECTION
  2
HEADER
  9
$ACADVER
  1
AC1009
  9
$INSBASE
 10
0
 20
0
 30
0
  9
$EXTMIN
 10
0
 20
0
  9
$EXTMAX
 10
297
 20
210
  9
$LIMMIN
 10
0
 20
0
  9
$LIMMAX
 10
297
 20
210
  9
$LTSCALE
 40
1
  0
ENDSEC
  0
SECTION
  2
TABLES
  0
TABLE
  2
LTYPE
 70
     9
  0
LTYPE
  2
CONTINUOUS
 70
    64
  3
実線
 72
    65
 73
     0
 40
0.0
  0
LTYPE
  2
DASHED1
 70
    64
  3
--  --  --  --  --  --  --  --  
 72
    65
 73
     2
 40
2.5
 49
1.25
 49
-1.25
  0
LTYPE
  2
DASHED2
 70
    64
  3
----    ----    ----    ----    
 72
    65
 73
     2
 40
5.0
 49
2.5
 49
-2.5
  0
LTYPE
  2
DASHED3
 70
    64
  3
------  ------  ------  ------  
 72
    65
 73
     2
 40
5.0
 49
3.75
 49
-1.25
  0
LTYPE
  2
CENTER1
 70
    64
  3
----- - ----- - ----- - ----- - 
 72
    65
 73
     4
 40
10.0
 49
6.25
 49
-1.25
 49
1.25
 49
-1.25
  0
LTYPE
  2
CENTER2
 70
    64
  3
----------  --  ----------  --  
 72
    65
 73
     4
 40
20.0
 49
12.5
 49
-2.5
 49
2.5
 49
-2.5
  0
LTYPE
  2
PHANTOM1
 70
    64
  3
--- - - --- - - --- - - --- - - 
 72
    65
 73
     6
 40
10.0
 49
3.25
 49
-1.25
 49
1.25
 49
-1.25
 49
1.25
 49
-1.25
  0
LTYPE
  2
PHANTOM2
 70
    64
  3
--------  -  -  --------  -  -  
 72
    65
 73
     6
 40
20.0
 49
10.0
 49
-2.5
 49
1.25
 49
-2.5
 49
1.25
 49
-2.5
  0
LTYPE
  2
DOT
 70
    64
  3
-   -   -   -   -   -   -   -   
 72
    65
 73
     2
 40
2.5
 49
0.625
 49
-1.875
  0
LTYPE
  2
DUMMY
 70
    64
  3
ダミー
 72
    65
 73
     0
 40
0.0
  0
LTYPE
  2
RAND1
 70
    64
  3
ランダム線1
 72
    65
 73
     4
 40
10.0
 49
1.0
 49
-2.0
 49
3.0
 49
-4.0
  0
LTYPE
  2
RAND2
 70
    64
  3
ランダム線2
 72
    65
 73
     4
 40
14.0
 49
2.0
 49
-3.0
 49
4.0
 49
-5.0
  0
LTYPE
  2
RAND3
 70
    64
  3
ランダム線3
 72
    65
 73
     4
 40
18.0
 49
3.0
 49
-4.0
 49
5.0
 49
-6.0
  0
LTYPE
  2
RAND4
 70
    64
  3
ランダム線4
 72
    65
 73
     4
 40
22.0
 49
4.0
 49
-5.0
 49
6.0
 49
-7.0
  0
LTYPE
  2
RAND5
 70
    64
  3
ランダム線5
 72
    65
 73
     4
 40
26.0
 49
5.0
 49
-6.0
 49
7.0
 49
-8.0
  0
LTYPE
  2
LONG1
 70
    64
  3
----------  --  ----------  --  
 72
    65
 73
     4
 40
40.0
 49
32.5
 49
-2.5
 49
2.5
 49
-2.5
  0
LTYPE
  2
LONG2
 70
    64
  3
--------  -  -  --------  -  -  
 72
    65
 73
     6
 40
40.0
 49
30.0
 49
-2.5
 49
1.25
 49
-2.5
 49
1.25
 49
-2.5
  0
LTYPE
  2
LONG3
 70
    64
  3
+++++++++++++++..+++++++++++++++
 72
    65
 73
     2
 40
40.0
 49
37.5
 49
-2.5
  0
LTYPE
  2
LONG4
 70
    64
  3
+++++++++++++++..+++++++++++++++
 72
    65
 73
     2
 40
80.0
 49
75.0
 49
-5.0
  0
LTYPE
  2
LONG5
 70
    64
  3
----------  --  ----------  --  
 72
    65
 73
     4
 40
60.0
 49
37.5
 49
-7.5
 49
7.5
 49
-7.5
  0
LTYPE
  2
dashed
 70
   64
  3
-------   -------------   ------
 72
   65
 73
    2
 40
7.5
 49
6
 49
-1.5
  0
LTYPE
  2
dashed_spaced
 70
   64
  3
----        --------        ----
 72
   65
 73
    2
 40
12
 49
6
 49
-6
  0
LTYPE
  2
long_dashed_dotted
 70
   64
  3
------------- --- --------------
 72
   65
 73
    4
 40
15.25
 49
12
 49
-1.5
 49
0.25
 49
-1.5
  0
LTYPE
  2
long_dashed_double-dotted
 70
   64
  3
----------- --- --- ------------
 72
   65
 73
    6
 40
17
 49
12
 49
-1.5
 49
0.25
 49
-1.5
 49
0.25
 49
-1.5
  0
LTYPE
  2
long_dashed_triplicate-dotted
 70
   64
  3
--------- --- --- --- ----------
 72
   65
 73
    8
 40
18.75
 49
12
 49
-1.5
 49
0.25
 49
-1.5
 49
0.25
 49
-1.5
 49
0.25
 49
-1.5
  0
LTYPE
  2
dotted
 70
   64
  3
   -       -       -       -    
 72
   65
 73
    2
 40
1.75
 49
0.25
 49
-1.5
  0
LTYPE
  2
chain
 70
   64
  3
-------------- -- --------------
 72
   65
 73
    4
 40
18.5
 49
12
 49
-1.5
 49
3.5
 49
-1.5
  0
LTYPE
  2
chain_double_dash
 70
   64
  3
------------ -- -- -------------
 72
   65
 73
    6
 40
23.5
 49
12
 49
-1.5
 49
3.5
 49
-1.5
 49
3.5
 49
-1.5
  0
LTYPE
  2
dashed_dotted
 70
   64
  3
-----------     -     ----------
 72
   65
 73
    4
 40
9.25
 49
6
 49
-1.5
 49
0.25
 49
-1.5
  0
LTYPE
  2
double-dashed_dotted
 70
   64
  3
------   -----------   -   -----
 72
   65
 73
    6
 40
16.75
 49
6
 49
-1.5
 49
6
 49
-1.5
 49
0.25
 49
-1.5
  0
LTYPE
  2
dashed_double-dotted
 70
   64
  3
---------    -    -    ---------
 72
   65
 73
    6
 40
11
 49
6
 49
-1.5
 49
0.25
 49
-1.5
 49
0.25
 49
-1.5
  0
LTYPE
  2
double-dashed_double-dotted
 70
   64
  3
-----   ---------   -   -   ----
 72
   65
 73
    8
 40
18.5
 49
6
 49
-1.5
 49
6
 49
-1.5
 49
0.25
 49
-1.5
 49
0.25
 49
-1.5
  0
LTYPE
  2
dashed_triplicate-dotted
 70
   64
  3
-------    -    -    -    ------
 72
   65
 73
    8
 40
12.75
 49
6
 49
-1.5
 49
0.25
 49
-1.5
 49
0.25
 49
-1.5
 49
0.25
 49
-1.5
  0
LTYPE
  2
double-dashed_triplicate-dotted
 70
   64
  3
-----  ---------  -  -  -  -----
 72
   65
 73
   10
 40
20.25
 49
6
 49
-1.5
 49
6
 49
-1.5
 49
0.25
 49
-1.5
 49
0.25
 49
-1.5
 49
0.25
 49
-1.5
  0
LTYPE
  2
undefined
 70
   64
  3
--------------------------------
 72
   65
 73
    0
 40
0
  0
LTYPE
  2
AIGENLINE001
 70
   64
  3
                                
 72
   65
 73
    4
 40
4.2333600000000002
 49
2.1166800000000001
 49
-0.7055599999999999
 49
0.7055599999999999
 49
-0.7055599999999999
  0
LTYPE
  2
2-AXIS
 70
   64
  3
                                
 72
   65
 73
    0
 40
0
  0
LTYPE
  2
BORDER
 70
   64
  3
                                
 72
   65
 73
    0
 40
0
  0
LTYPE
  2
BORDER2
 70
   64
  3
                                
 72
   65
 73
    0
 40
0
  0
LTYPE
  2
BORDERX2
 70
   64
  3
                                
 72
   65
 73
    0
 40
0
  0
LTYPE
  2
CENTER
 70
   64
  3
                                
 72
   65
 73
    0
 40
0
  0
LTYPE
  2
CENTER2_23
 70
   64
  3
                                
 72
   65
 73
    0
 40
0
  0
LTYPE
  2
CENTERX2
 70
   64
  3
                                
 72
   65
 73
    0
 40
0
  0
LTYPE
  2
DASHDOT
 70
   64
  3
                                
 72
   65
 73
    0
 40
0
  0
LTYPE
  2
DASHDOT2
 70
   64
  3
                                
 72
   65
 73
    0
 40
0
  0
LTYPE
  2
DASHDOTX2
 70
   64
  3
                                
 72
   65
 73
    0
 40
0
  0
LTYPE
  2
DASHED
 70
   64
  3
                                
 72
   65
 73
    0
 40
0
  0
LTYPE
  2
DASHED2_29
 70
   64
  3
                                
 72
   65
 73
    0
 40
0
  0
LTYPE
  2
DASHEDX2
 70
   64
  3
                                
 72
   65
 73
    0
 40
0
  0
LTYPE
  2
DIVIDE
 70
   64
  3
                                
 72
   65
 73
    0
 40
0
  0
LTYPE
  2
DIVIDE2
 70
   64
  3
                                
 72
   65
 73
    0
 40
0
  0
ENDTAB
  0
TABLE
  2
STYLE
  5
3
100
AcDbSymbolTable
 70
     1
  0
STYLE
  5
10
100
AcDbSymbolTableRecord
100
AcDbTextStyleTableRecord
  2
STANDARD
 70
     0
 40
0.0
 41
1.0
 50
0.0
 71
     0
 42
0.2
  3
txt
  4
bigfont.shx
  0
STYLE
  5
26
100
AcDbSymbolTableRecord
100
AcDbTextStyleTableRecord
  2
TATEGAKI
 70
    68
 40
0.0
 41
1.0
 50
0.0
 71
     0
 42
1.0
  3
txt
  4
bigfont.shx
  0
ENDTAB
  0
TABLE
  2
LAYER
 70
   12
  0
LAYER
  2
_1-2_ハッチング
 70
   64
 62
    7
  6
CONTINUOUS
  0
LAYER
  2
_1-3_断熱材
 70
   64
 62
    7
  6
CONTINUOUS
  0
LAYER
  2
_1-4_リベットル__フ
 70
   64
 62
    7
  6
CONTINUOUS
  0
LAYER
  2
_1-5_ＦＬ鋼板__ディスク
 70
   64
 62
    7
  6
CONTINUOUS
  0
LAYER
  2
_1-6_アンカ__類
 70
   64
 62
    7
  6
CONTINUOUS
  0
LAYER
  2
_1-8_下地など
 70
   64
 62
    7
  6
CONTINUOUS
  0
LAYER
  2
_1-a_元図__躯体
 70
   64
 62
    7
  6
CONTINUOUS
  0
LAYER
  2
_1-b_その他
 70
   64
 62
    7
  6
CONTINUOUS
  0
LAYER
  2
_1-c_アンカ__類②
 70
   64
 62
    7
  6
CONTINUOUS
  0
LAYER
  2
_e-e_
 70
   64
 62
    7
  6
CONTINUOUS
  0
LAYER
  2
_f-f_
 70
   64
 62
    7
  6
CONTINUOUS
  0
LAYER
  2
ADD_LINE
 70
   64
 62
    7
  6
CONTINUOUS
  0
ENDTAB
  0
ENDSEC
  0
SECTION
  2
BLOCKS
  0
ENDSEC
  0
SECTION
  2
ENTITIES
  0
LINE
  8
_f-f_
  6
CONTINUOUS
 62
    7
 10
13.5
 20
197
 11
13.5
 21
17
  0
LINE
  8
_f-f_
  6
CONTINUOUS
 62
    7
 10
13.5
 20
197
 11
283.5
 21
197
  0
LINE
  8
_f-f_
  6
CONTINUOUS
 62
    7
 10
283.5
 20
197
 11
283.5
 21
17
  0
LINE
  8
_f-f_
  6
CONTINUOUS
 62
    7
 10
283.5
 20
17
 11
13.5
 21
17
  0
SOLID
  8
_f-f_
  6
CONTINUOUS
 62
    5
 10
236.97536482015869
 20
15.135014055698207
 11
235.41260194015859
 21
14.597233959698244
 12
233.7490795136022
 22
12.030232905347191
 13
233.7490795136022
 23
12.030232905347191
  0
SOLID
  8
_f-f_
  6
CONTINUOUS
 62
    5
 10
236.97536482015869
 20
15.135014055698207
 11
235.44783384279719
 21
14.653922266010412
 12
235.41260194015859
 22
14.597233959698244
 13
235.41260194015859
 23
14.597233959698244
  0
SOLID
  8
_f-f_
  6
CONTINUOUS
 62
    5
 10
236.97536482015869
 20
15.135014055698207
 11
235.44348964523115
 21
14.814711211354776
 12
235.44783384279719
 22
14.653922266010412
 13
235.44783384279719
 23
14.653922266010412
  0
SOLID
  8
_f-f_
  6
CONTINUOUS
 62
    5
 10
236.97536482015869
 20
15.135014055698207
 11
235.37802752940809
 21
14.882325091646777
 12
235.44348964523115
 22
14.814711211354776
 13
235.44348964523115
 23
14.814711211354776
  0
SOLID
  8
_f-f_
  6
CONTINUOUS
 62
    5
 10
236.97536482015869
 20
15.135014055698207
 11
235.23671672676957
 21
14.943561152901822
 12
235.37802752940809
 22
14.882325091646777
 13
235.37802752940809
 23
14.882325091646777
  0
SOLID
  8
_f-f_
  6
CONTINUOUS
 62
    5
 10
236.97536482015869
 20
15.135014055698207
 11
231.75858153825016
 21
14.827104307519747
 12
235.23671672676957
 22
14.943561152901822
 13
235.23671672676957
 23
14.943561152901822
  0
SOLID
  8
_f-f_
  6
CONTINUOUS
 62
    5
 10
236.97536482015869
 20
15.135014055698207
 11
232.06580002015863
 21
15.134816487698203
 12
231.75858153825016
 22
14.827104307519747
 13
231.75858153825016
 23
14.827104307519747
  0
SOLID
  8
_f-f_
  6
CONTINUOUS
 62
    5
 10
233.7490795136022
 20
12.030232905347191
 11
237.28752157062101
 21
14.827697368205875
 12
236.97536482015869
 22
15.135014055698207
 13
236.97536482015869
 23
15.135014055698207
  0
SOLID
  8
_f-f_
  6
CONTINUOUS
 62
    5
 10
233.7490795136022
 20
12.030232905347191
 11
237.23911742342443
 21
14.662629348534509
 12
237.28752157062101
 22
14.827697368205875
 13
237.28752157062101
 23
14.827697368205875
  0
SOLID
  8
_f-f_
  6
CONTINUOUS
 62
    5
 10
233.7490795136022
 20
12.030232905347191
 11
234.52749735533226
 21
10.733752628573797
 12
234.7892749001586
 22
10.88042668929819
 13
234.7892749001586
 23
10.88042668929819
  0
SOLID
  8
_f-f_
  6
CONTINUOUS
 62
    5
 10
233.7490795136022
 20
12.030232905347191
 11
234.31609954015863
 21
10.81863729729821
 12
234.52749735533226
 22
10.733752628573797
 13
234.52749735533226
 23
10.733752628573797
  0
SOLID
  8
_f-f_
  6
CONTINUOUS
 62
    5
 10
233.7490795136022
 20
12.030232905347191
 11
233.74611586015862
 21
11.682740458898223
 12
234.31609954015863
 22
10.81863729729821
 13
234.31609954015863
 23
10.81863729729821
  0
SOLID
  8
_f-f_
  6
CONTINUOUS
 62
    5
 10
233.7490795136022
 20
12.030232905347191
 11
233.69277264325217
 21
11.856303946266479
 12
233.74611586015862
 22
11.682740458898223
 13
233.74611586015862
 23
11.682740458898223
  0
SOLID
  8
_f-f_
  6
CONTINUOUS
 62
    5
 10
231.75858153825016
 20
14.827104307519747
 11
235.08661474015867
 21
14.909095047698244
 12
235.23671672676957
 22
14.943561152901822
 13
235.23671672676957
 23
14.943561152901822
  0
SOLID
  8
_f-f_
  6
CONTINUOUS
 62
    5
 10
231.75858153825016
 20
14.827104307519747
 11
233.61868450015868
 21
12.669167847698219
 12
235.08661474015867
 22
14.909095047698244
 13
235.08661474015867
 23
14.909095047698244
  0
SOLID
  8
_f-f_
  6
CONTINUOUS
 62
    5
 10
231.75858153825016
 20
14.827104307519747
 11
233.36184569383056
 21
12.528992955061909
 12
233.61868450015868
 22
12.669167847698219
 13
233.61868450015868
 23
12.669167847698219
  0
SOLID
  8
_f-f_
  6
CONTINUOUS
 62
    5
 10
231.75858153825016
 20
14.827104307519747
 11
233.14254562015859
 21
12.622541799698183
 12
233.36184569383056
 22
12.528992955061909
 13
233.36184569383056
 23
12.528992955061909
  0
SOLID
  8
_f-f_
  6
CONTINUOUS
 62
    5
 10
231.75858153825016
 20
14.827104307519747
 11
231.79611970015864
 21
14.683571175698262
 12
233.14254562015859
 22
12.622541799698183
 13
233.14254562015859
 23
12.622541799698183
  0
ARC
  8
_f-f_
  6
CONTINUOUS
 62
    1
 10
235.22789232415863
 20
14.712033315698221
 40
0.217477092
 50
328.13846999999998
 51
2.2615330000000116
  0
ARC
  8
_f-f_
  6
CONTINUOUS
 62
    1
 10
235.20651958255868
 20
14.716275265298208
 40
0.2387205912
 50
1.0417719999999999
 51
44.073639999999997
  0
ARC
  8
_f-f_
  6
CONTINUOUS
 62
    1
 10
235.19156286175863
 20
14.452033827698216
 40
0.4689556368
 50
66.570734999999999
 51
102.931843
  0
ARC
  8
_f-f_
  6
CONTINUOUS
 62
    1
 10
237.02758780495867
 20
14.814288750098285
 40
0.260279376
 50
324.36078900000001
 51
2.9529709999999993
  0
ARC
  8
_f-f_
  6
CONTINUOUS
 62
    1
 10
232.07207198095867
 20
14.832415614098267
 40
0.3135354768
 50
180.97063600000004
 51
208.34173000000004
  0
ARC
  8
_f-f_
  6
CONTINUOUS
 62
    1
 10
233.98573291615867
 20
11.857541216498191
 40
0.2929628856
 50
143.88086999999999
 51
180.24197799999999
  0
ARC
  8
_f-f_
  6
CONTINUOUS
 62
    1
 10
234.52945733935863
 20
11.04430852209822
 40
0.3105620784
 50
226.60652999999999
 51
269.63839899999999
  0
ARC
  8
_f-f_
  6
CONTINUOUS
 62
    1
 10
234.52688648575864
 20
11.041782944498237
 40
0.3080315616
 50
270.11356000000001
 51
328.41042499999998
  0
ARC
  8
_f-f_
  6
CONTINUOUS
 62
    1
 10
234.00220761775864
 20
11.856427426898193
 40
0.3094359408
 50
180.022864
 51
214.145926
  0
ARC
  8
_f-f_
  6
CONTINUOUS
 62
    1
 10
233.36445399775863
 20
12.838928151698155
 40
0.3099455016
 50
224.27817500000003
 51
269.51790500000004
  0
ARC
  8
_f-f_
  6
CONTINUOUS
 62
    1
 10
233.35885129855865
 20
12.839866599698212
 40
0.3108880655999999
 50
270.55186700000002
 51
326.69684100000006
  0
ARC
  8
_f-f_
  6
CONTINUOUS
 62
    1
 10
236.97555497935861
 20
14.823012200498198
 40
0.3120026784
 50
0.860427
 51
90.034943999999982
  0
ARC
  8
_f-f_
  6
CONTINUOUS
 62
    1
 10
232.06827949855861
 20
14.825122062098245
 40
0.309704304
 50
90.458761999999993
 51
179.63327899999999
  0
SOLID
  8
_f-f_
  6
CONTINUOUS
 62
   70
 10
235.3592583789839
 20
15.664101361536453
 11
236.00431761052957
 21
15.467422329706778
 12
236.2927671804093
 22
15.73818913178016
 13
236.2927671804093
 23
15.73818913178016
  0
SOLID
  8
_f-f_
  6
CONTINUOUS
 62
   70
 10
235.60029133369804
 20
16.279624399265259
 11
235.3592583789839
 21
15.664101361536453
 12
236.5328128054206
 22
16.353613516858246
 13
236.2927671804093
 23
15.73818913178016
  0
SOLID
  8
_f-f_
  6
CONTINUOUS
 62
   70
 10
236.19101981268187
 20
16.670512794070959
 11
235.60029133369804
 21
16.279624399265259
 12
236.42019869045436
 22
16.615391008345767
 13
236.5328128054206
 23
16.353613516858246
  0
ARC
  8
_f-f_
  6
CONTINUOUS
 62
    1
 10
236.00221070815871
 20
16.616671155698256
 40
1.1492505864
 50
235.98198100000002
 51
270.10504300000002
  0
ARC
  8
_f-f_
  6
CONTINUOUS
 62
    1
 10
235.63663664335866
 20
16.148141113298266
 40
0.7736713488000001
 50
298.37509499999999
 51
328.00274300000001
  0
ARC
  8
_f-f_
  6
CONTINUOUS
 62
    1
 10
234.71712471295865
 20
16.707292304498239
 40
1.8498135431999998
 50
328.40629300000006
 51
348.97735100000006
  0
ARC
  8
_f-f_
  6
CONTINUOUS
 62
    1
 10
237.17571194335866
 20
15.307750227698264
 40
1.8510779783999998
 50
148.329635
 51
168.90069299999999
  0
ARC
  8
_f-f_
  6
CONTINUOUS
 62
    1
 10
236.05002628015859
 20
16.301035695698289
 40
0.4856410776
 50
6.2152969999999996
 51
40.338358999999997
  0
SOLID
  8
_f-f_
  6
CONTINUOUS
 62
    5
 10
233.7490795136022
 20
12.030232905347191
 11
234.7892749001586
 21
10.88042668929819
 12
237.23911742342443
 22
14.662629348534509
 13
237.23911742342443
 23
14.662629348534509
  0
ARC
  8
_f-f_
  6
CONTINUOUS
 62
    1
 10
236.23946353375865
 20
16.367937159698243
 40
0.3064287911999999
 50
53.856383000000008
 51
99.096113000000003
  0
ARC
  8
_f-f_
  6
CONTINUOUS
 62
    1
 10
236.36472164575864
 20
15.766194423698238
 40
0.9208496303999999
 50
100.872968
 51
146.11269799999999
  0
LINE
  8
_f-f_
  6
CONTINUOUS
 62
    7
 10
267.37625600000001
 20
14.687935999999993
 11
267.06892800000003
 21
14.687935999999993
  0
LINE
  8
_f-f_
  6
CONTINUOUS
 62
    7
 10
267.06892800000003
 20
14.687935999999993
 11
267.06892800000003
 21
13.853760000000037
  0
LINE
  8
_f-f_
  6
CONTINUOUS
 62
    7
 10
267.04697599999997
 20
13.458624000000043
 11
267.02502399999992
 21
13.370815999999991
  0
LINE
  8
_f-f_
  6
CONTINUOUS
 62
    7
 10
267.02502399999992
 20
13.370815999999991
 11
267.02502399999992
 21
13.326912000000021
  0
LINE
  8
_f-f_
  6
CONTINUOUS
 62
    7
 10
267.02502399999992
 20
13.326912000000021
 11
266.99209599999995
 21
13.195199999999971
  0
LINE
  8
_f-f_
  6
CONTINUOUS
 62
    7
 10
266.99209599999995
 20
13.195199999999971
 11
266.97014399999995
 21
13.151296000000031
  0
LINE
  8
_f-f_
  6
CONTINUOUS
 62
    7
 10
266.97014399999995
 20
13.151296000000031
 11
266.93721599999992
 21
13.019583999999952
  0
LINE
  8
_f-f_
  6
CONTINUOUS
 62
    7
 10
266.93721599999992
 20
13.019583999999952
 11
266.91526399999998
 21
12.975680000000011
  0
LINE
  8
_f-f_
  6
CONTINUOUS
 62
    7
 10
266.91526399999998
 20
12.975680000000011
 11
266.90428799999995
 21
12.931776000000013
  0
LINE
  8
_f-f_
  6
CONTINUOUS
 62
    7
 10
266.90428799999995
 20
12.931776000000013
 11
266.88233600000001
 21
12.887871999999987
  0
LINE
  8
_f-f_
  6
CONTINUOUS
 62
    7
 10
266.88233600000001
 20
12.887871999999987
 11
266.87135999999998
 21
12.84396799999999
  0
LINE
  8
_f-f_
  6
CONTINUOUS
 62
    7
 10
266.87135999999998
 20
12.84396799999999
 11
266.82745599999998
 21
12.756160000000023
  0
LINE
  8
_f-f_
  6
CONTINUOUS
 62
    7
 10
266.82745599999998
 20
12.756160000000023
 11
266.81647999999996
 21
12.712256000000025
  0
LINE
  8
_f-f_
  6
CONTINUOUS
 62
    7
 10
266.81647999999996
 20
12.712256000000025
 11
266.7506239999999
 21
12.580544000000003
  0
LINE
  8
_f-f_
  6
CONTINUOUS
 62
    7
 10
266.7506239999999
 20
12.580544000000003
 11
266.71769599999999
 21
12.536639999999977
  0
LINE
  8
_f-f_
  6
CONTINUOUS
 62
    7
 10
266.71769599999999
 20
12.536639999999977
 11
266.67379199999993
 21
12.448831999999982
  0
LINE
  8
_f-f_
  6
CONTINUOUS
 62
    7
 10
266.67379199999993
 20
12.448831999999982
 11
266.64086399999997
 21
12.404927999999984
  0
LINE
  8
_f-f_
  6
CONTINUOUS
 62
    7
 10
266.64086399999997
 20
12.404927999999984
 11
266.61891199999997
 21
12.361024000000015
  0
LINE
  8
_f-f_
  6
CONTINUOUS
 62
    7
 10
266.61891199999997
 20
12.361024000000015
 11
266.48719999999992
 21
12.185407999999995
  0
LINE
  8
_f-f_
  6
CONTINUOUS
 62
    7
 10
266.48719999999992
 20
12.185407999999995
 11
266.44329599999992
 21
12.141503999999998
  0
LINE
  8
_f-f_
  6
CONTINUOUS
 62
    7
 10
266.44329599999992
 20
12.141503999999998
 11
266.41036799999995
 21
12.0976
  0
LINE
  8
_f-f_
  6
CONTINUOUS
 62
    7
 10
266.41036799999995
 20
12.0976
 11
266.36646399999995
 21
12.053696000000031
  0
LINE
  8
_f-f_
  6
CONTINUOUS
 62
    7
 10
266.36646399999995
 20
12.053696000000031
 11
266.36646399999995
 21
12.009792000000004
  0
LINE
  8
_f-f_
  6
CONTINUOUS
 62
    7
 10
266.36646399999995
 20
12.009792000000004
 11
266.38841599999989
 21
11.965888000000007
  0
LINE
  8
_f-f_
  6
CONTINUOUS
 62
    7
 10
266.38841599999989
 20
11.965888000000007
 11
266.42134399999998
 21
11.921984000000009
  0
LINE
  8
_f-f_
  6
CONTINUOUS
 62
    7
 10
266.42134399999998
 20
11.921984000000009
 11
266.44329599999992
 21
11.878080000000011
  0
LINE
  8
_f-f_
  6
CONTINUOUS
 62
    7
 10
266.44329599999992
 20
11.878080000000011
 11
266.476224
 21
11.834176000000014
  0
LINE
  8
_f-f_
  6
CONTINUOUS
 62
    7
 10
266.476224
 20
11.834176000000014
 11
266.49817599999994
 21
11.790272000000016
  0
LINE
  8
_f-f_
  6
CONTINUOUS
 62
    7
 10
266.49817599999994
 20
11.790272000000016
 11
266.53110399999997
 21
11.746368000000018
  0
LINE
  8
_f-f_
  6
CONTINUOUS
 62
    7
 10
266.53110399999997
 20
11.746368000000018
 11
266.55305599999997
 21
11.70246400000002
  0
LINE
  8
_f-f_
  6
CONTINUOUS
 62
    7
 10
269.22022399999992
 20
14.687935999999993
 11
268.9019199999999
 21
14.687935999999993
  0
LINE
  8
_f-f_
  6
CONTINUOUS
 62
    7
 10
268.9019199999999
 20
14.687935999999993
 11
268.9019199999999
 21
13.941568000000032
  0
LINE
  8
_f-f_
  6
CONTINUOUS
 62
    7
 10
268.9019199999999
 20
13.941568000000032
 11
268.56166399999995
 21
13.941568000000032
  0
LINE
  8
_f-f_
  6
CONTINUOUS
 62
    7
 10
268.37507199999993
 20
14.336704000000026
 11
268.35311999999999
 21
14.336704000000026
  0
LINE
  8
_f-f_
  6
CONTINUOUS
 62
    7
 10
268.35311999999999
 20
14.336704000000026
 11
268.34214399999996
 21
14.292800000000028
  0
LINE
  8
_f-f_
  6
CONTINUOUS
 62
    7
 10
268.34214399999996
 20
14.292800000000028
 11
268.32019199999996
 21
14.248896000000016
  0
LINE
  8
_f-f_
  6
CONTINUOUS
 62
    7
 10
268.32019199999996
 20
14.248896000000016
 11
268.29823999999996
 21
14.161087999999992
  0
LINE
  8
_f-f_
  6
CONTINUOUS
 62
    7
 10
268.29823999999996
 20
14.161087999999992
 11
268.27628800000002
 21
14.117184000000023
  0
LINE
  8
_f-f_
  6
CONTINUOUS
 62
    7
 10
268.27628800000002
 20
14.117184000000023
 11
268.26531199999999
 21
14.073279999999997
  0
LINE
  8
_f-f_
  6
CONTINUOUS
 62
    7
 10
268.26531199999999
 20
14.073279999999997
 11
268.24335999999994
 21
14.029375999999999
  0
LINE
  8
_f-f_
  6
CONTINUOUS
 62
    7
 10
268.24335999999994
 20
14.029375999999999
 11
268.23238399999997
 21
13.985471999999987
  0
LINE
  8
_f-f_
  6
CONTINUOUS
 62
    7
 10
268.23238399999997
 20
13.985471999999987
 11
268.18847999999991
 21
13.897663999999992
  0
LINE
  8
_f-f_
  6
CONTINUOUS
 62
    7
 10
268.18847999999991
 20
13.897663999999992
 11
268.17750399999989
 21
13.853760000000037
  0
LINE
  8
_f-f_
  6
CONTINUOUS
 62
    7
 10
268.17750399999989
 20
13.853760000000037
 11
268.11164799999995
 21
13.722048000000001
  0
LINE
  8
_f-f_
  6
CONTINUOUS
 62
    7
 10
268.11164799999995
 20
13.722048000000001
 11
268.07871999999998
 21
13.678143999999975
  0
LINE
  8
_f-f_
  6
CONTINUOUS
 62
    7
 10
268.07871999999998
 20
13.678143999999975
 11
268.03481599999992
 21
13.590336000000008
  0
LINE
  8
_f-f_
  6
CONTINUOUS
 62
    7
 10
268.03481599999992
 20
13.590336000000008
 11
267.90310399999998
 21
13.414720000000017
  0
LINE
  8
_f-f_
  6
CONTINUOUS
 62
    7
 10
267.90310399999998
 20
13.414720000000017
 11
267.85919999999999
 21
13.370815999999991
  0
LINE
  8
_f-f_
  6
CONTINUOUS
 62
    7
 10
267.85919999999999
 20
13.370815999999991
 11
267.99091199999998
 21
13.239103999999998
  0
LINE
  8
_f-f_
  6
CONTINUOUS
 62
    7
 10
267.99091199999998
 20
13.239103999999998
 11
268.02383999999995
 21
13.195199999999971
  0
LINE
  8
_f-f_
  6
CONTINUOUS
 62
    7
 10
268.02383999999995
 20
13.195199999999971
 11
268.11164799999995
 21
13.107392000000061
  0
LINE
  8
_f-f_
  6
CONTINUOUS
 62
    7
 10
268.9019199999999
 20
13.546432000000038
 11
268.9019199999999
 21
13.019583999999952
  0
LINE
  8
_f-f_
  6
CONTINUOUS
 62
    7
 10
268.87996799999996
 20
12.624447999999973
 11
268.85801599999996
 21
12.580544000000003
  0
LINE
  8
_f-f_
  6
CONTINUOUS
 62
    7
 10
268.85801599999996
 20
12.580544000000003
 11
268.82508799999994
 21
12.536639999999977
  0
LINE
  8
_f-f_
  6
CONTINUOUS
 62
    7
 10
268.82508799999994
 20
12.536639999999977
 11
268.80313599999999
 21
12.492735999999979
  0
LINE
  8
_f-f_
  6
CONTINUOUS
 62
    7
 10
268.80313599999999
 20
12.492735999999979
 11
268.70435199999997
 21
12.361024000000015
  0
LINE
  8
_f-f_
  6
CONTINUOUS
 62
    7
 10
268.70435199999997
 20
12.361024000000015
 11
268.68239999999997
 21
12.317120000000017
  0
LINE
  8
_f-f_
  6
CONTINUOUS
 62
    7
 10
268.68239999999997
 20
12.317120000000017
 11
268.64947199999995
 21
12.273216000000019
  0
LINE
  8
_f-f_
  6
CONTINUOUS
 62
    7
 10
268.64947199999995
 20
12.273216000000019
 11
268.60556799999995
 21
12.229311999999993
  0
LINE
  8
_f-f_
  6
CONTINUOUS
 62
    7
 10
268.60556799999995
 20
12.229311999999993
 11
268.50678399999998
 21
12.0976
  0
LINE
  8
_f-f_
  6
CONTINUOUS
 62
    7
 10
268.50678399999998
 20
12.0976
 11
268.41897599999993
 21
12.009792000000004
  0
LINE
  8
_f-f_
  6
CONTINUOUS
 62
    7
 10
268.41897599999993
 20
12.009792000000004
 11
268.38604799999996
 21
11.965888000000007
  0
LINE
  8
_f-f_
  6
CONTINUOUS
 62
    7
 10
268.38604799999996
 20
11.965888000000007
 11
268.21043199999997
 21
11.790272000000016
  0
LINE
  8
_f-f_
  6
CONTINUOUS
 62
    7
 10
268.21043199999997
 20
11.790272000000016
 11
268.15555199999994
 21
11.746368000000018
  0
LINE
  8
_f-f_
  6
CONTINUOUS
 62
    7
 10
268.15555199999994
 20
11.746368000000018
 11
268.11164799999995
 21
11.70246400000002
  0
LINE
  8
_f-f_
  6
CONTINUOUS
 62
    7
 10
268.11164799999995
 20
11.70246400000002
 11
268.05676799999998
 21
11.658559999999994
  0
LINE
  8
_f-f_
  6
CONTINUOUS
 62
    7
 10
268.05676799999998
 20
11.658559999999994
 11
268.01286399999992
 21
11.614655999999997
  0
LINE
  8
_f-f_
  6
CONTINUOUS
 62
    7
 10
268.01286399999992
 20
11.614655999999997
 11
267.95798399999995
 21
11.570752000000027
  0
LINE
  8
_f-f_
  6
CONTINUOUS
 62
    7
 10
267.95798399999995
 20
11.570752000000027
 11
267.89212799999996
 21
11.52684800000003
  0
LINE
  8
_f-f_
  6
CONTINUOUS
 62
    7
 10
267.89212799999996
 20
11.52684800000003
 11
267.72748799999999
 21
11.395136000000008
  0
LINE
  8
_f-f_
  6
CONTINUOUS
 62
    7
 10
267.72748799999999
 20
11.395136000000008
 11
267.79334399999999
 21
11.263423999999986
  0
LINE
  8
_f-f_
  6
CONTINUOUS
 62
    7
 10
267.79334399999999
 20
11.263423999999986
 11
267.8262719999999
 21
11.219519999999989
  0
LINE
  8
_f-f_
  6
CONTINUOUS
 62
    7
 10
267.8262719999999
 20
11.219519999999989
 11
267.89212799999996
 21
11.087808000000024
  0
LINE
  8
_f-f_
  6
CONTINUOUS
 62
    7
 10
267.44211199999995
 20
12.536639999999977
 11
267.48601599999995
 21
12.492735999999979
  0
LINE
  8
_f-f_
  6
CONTINUOUS
 62
    7
 10
267.48601599999995
 20
12.492735999999979
 11
267.61772799999994
 21
12.317120000000017
  0
LINE
  8
_f-f_
  6
CONTINUOUS
 62
    7
 10
267.61772799999994
 20
12.317120000000017
 11
267.63968
 21
12.273216000000019
  0
LINE
  8
_f-f_
  6
CONTINUOUS
 62
    7
 10
267.63968
 20
12.273216000000019
 11
267.67260799999997
 21
12.229311999999993
  0
LINE
  8
_f-f_
  6
CONTINUOUS
 62
    7
 10
267.67260799999997
 20
12.229311999999993
 11
267.69455999999997
 21
12.185407999999995
  0
LINE
  8
_f-f_
  6
CONTINUOUS
 62
    7
 10
267.69455999999997
 20
12.185407999999995
 11
267.72748799999999
 21
12.141503999999998
  0
LINE
  8
_f-f_
  6
CONTINUOUS
 62
    7
 10
267.06892800000003
 20
12.448831999999982
 11
267.06892800000003
 21
10.736576000000014
  0
LINE
  8
_f-f_
  6
CONTINUOUS
 62
    7
 10
268.9019199999999
 20
12.0976
 11
268.9019199999999
 21
10.736576000000014
  0
LINE
  8
_f-f_
  6
CONTINUOUS
 62
    7
 10
269.27510399999994
 20
12.0976
 11
269.37388799999991
 21
11.965888000000007
  0
LINE
  8
_f-f_
  6
CONTINUOUS
 62
    7
 10
269.37388799999991
 20
11.965888000000007
 11
269.41779199999996
 21
11.921984000000009
  0
LINE
  8
_f-f_
  6
CONTINUOUS
 62
    7
 10
269.41779199999996
 20
11.921984000000009
 11
269.45071999999993
 21
11.878080000000011
  0
LINE
  8
_f-f_
  6
CONTINUOUS
 62
    7
 10
269.45071999999993
 20
11.878080000000011
 11
269.49462399999999
 21
11.834176000000014
  0
LINE
  8
_f-f_
  6
CONTINUOUS
 62
    7
 10
269.49462399999999
 20
11.834176000000014
 11
269.5275519999999
 21
11.790272000000016
  0
LINE
  8
_f-f_
  6
CONTINUOUS
 62
    7
 10
269.5275519999999
 20
11.790272000000016
 11
269.70316800000001
 21
11.614655999999997
  0
LINE
  8
_f-f_
  6
CONTINUOUS
 62
    7
 10
269.70316800000001
 20
11.614655999999997
 11
269.75804799999997
 21
11.570752000000027
  0
LINE
  8
_f-f_
  6
CONTINUOUS
 62
    7
 10
269.75804799999997
 20
11.570752000000027
 11
269.80195199999991
 21
11.52684800000003
  0
LINE
  8
_f-f_
  6
CONTINUOUS
 62
    7
 10
269.80195199999991
 20
11.52684800000003
 11
269.91171199999997
 21
11.439040000000034
  0
LINE
  8
_f-f_
  6
CONTINUOUS
 62
    7
 10
269.91171199999997
 20
11.439040000000034
 11
269.95561599999996
 21
11.395136000000008
  0
LINE
  8
_f-f_
  6
CONTINUOUS
 62
    7
 10
269.95561599999996
 20
11.395136000000008
 11
270.01049599999999
 21
11.35123200000001
  0
LINE
  8
_f-f_
  6
CONTINUOUS
 62
    7
 10
270.01049599999999
 20
11.35123200000001
 11
270.07635199999993
 21
11.307327999999984
  0
LINE
  8
_f-f_
  6
CONTINUOUS
 62
    7
 10
270.07635199999993
 20
11.307327999999984
 11
270.18611199999998
 21
11.219519999999989
  0
LINE
  8
_f-f_
  6
CONTINUOUS
 62
    7
 10
267.37625600000001
 20
14.687935999999993
 11
267.44211199999995
 21
14.644031999999967
  0
LINE
  8
_f-f_
  6
CONTINUOUS
 62
    7
 10
267.44211199999995
 20
14.644031999999967
 11
267.39820799999995
 21
14.600128000000012
  0
LINE
  8
_f-f_
  6
CONTINUOUS
 62
    7
 10
267.39820799999995
 20
14.600128000000012
 11
267.38723200000004
 21
14.556224000000014
  0
LINE
  8
_f-f_
  6
CONTINUOUS
 62
    7
 10
267.38723200000004
 20
14.556224000000014
 11
267.38723200000004
 21
13.853760000000037
  0
LINE
  8
_f-f_
  6
CONTINUOUS
 62
    7
 10
267.38723200000004
 20
13.458624000000043
 11
267.38723200000004
 21
12.975680000000011
  0
LINE
  8
_f-f_
  6
CONTINUOUS
 62
    7
 10
267.38723200000004
 20
12.975680000000011
 11
267.51894399999992
 21
12.887871999999987
  0
LINE
  8
_f-f_
  6
CONTINUOUS
 62
    7
 10
267.51894399999992
 20
12.887871999999987
 11
267.683584
 21
12.756160000000023
  0
LINE
  8
_f-f_
  6
CONTINUOUS
 62
    7
 10
267.683584
 20
12.756160000000023
 11
267.90310399999998
 21
12.536639999999977
  0
LINE
  8
_f-f_
  6
CONTINUOUS
 62
    7
 10
267.90310399999998
 20
12.536639999999977
 11
267.96895999999992
 21
12.448831999999982
  0
LINE
  8
_f-f_
  6
CONTINUOUS
 62
    7
 10
267.96895999999992
 20
12.448831999999982
 11
267.80431999999996
 21
12.229311999999993
  0
LINE
  8
_f-f_
  6
CONTINUOUS
 62
    7
 10
267.80431999999996
 20
12.229311999999993
 11
267.76041599999996
 21
12.185407999999995
  0
LINE
  8
_f-f_
  6
CONTINUOUS
 62
    7
 10
267.76041599999996
 20
12.185407999999995
 11
267.72748799999999
 21
12.141503999999998
  0
LINE
  8
_f-f_
  6
CONTINUOUS
 62
    7
 10
269.22022399999992
 20
14.687935999999993
 11
269.27510399999994
 21
14.644031999999967
  0
LINE
  8
_f-f_
  6
CONTINUOUS
 62
    7
 10
269.27510399999994
 20
14.644031999999967
 11
269.23119999999994
 21
14.600128000000012
  0
LINE
  8
_f-f_
  6
CONTINUOUS
 62
    7
 10
269.23119999999994
 20
14.600128000000012
 11
269.23119999999994
 21
13.941568000000032
  0
LINE
  8
_f-f_
  6
CONTINUOUS
 62
    7
 10
269.23119999999994
 20
13.546432000000038
 11
269.23119999999994
 21
13.019583999999952
  0
LINE
  8
_f-f_
  6
CONTINUOUS
 62
    7
 10
269.26412799999991
 20
12.624447999999973
 11
269.28607999999997
 21
12.580544000000003
  0
LINE
  8
_f-f_
  6
CONTINUOUS
 62
    7
 10
269.28607999999997
 20
12.580544000000003
 11
269.48364800000002
 21
12.317120000000017
  0
LINE
  8
_f-f_
  6
CONTINUOUS
 62
    7
 10
269.48364800000002
 20
12.317120000000017
 11
269.5275519999999
 21
12.273216000000019
  0
LINE
  8
_f-f_
  6
CONTINUOUS
 62
    7
 10
269.5275519999999
 20
12.273216000000019
 11
269.56047999999998
 21
12.229311999999993
  0
LINE
  8
_f-f_
  6
CONTINUOUS
 62
    7
 10
269.56047999999998
 20
12.229311999999993
 11
269.64828799999998
 21
12.141503999999998
  0
LINE
  8
_f-f_
  6
CONTINUOUS
 62
    7
 10
269.64828799999998
 20
12.141503999999998
 11
269.70316800000001
 21
12.0976
  0
LINE
  8
_f-f_
  6
CONTINUOUS
 62
    7
 10
269.70316800000001
 20
12.0976
 11
269.74707199999995
 21
12.053696000000031
  0
LINE
  8
_f-f_
  6
CONTINUOUS
 62
    7
 10
269.74707199999995
 20
12.053696000000031
 11
270.02147199999996
 21
11.834176000000014
  0
LINE
  8
_f-f_
  6
CONTINUOUS
 62
    7
 10
270.02147199999996
 20
11.834176000000014
 11
270.35075199999994
 21
11.614655999999997
  0
LINE
  8
_f-f_
  6
CONTINUOUS
 62
    7
 10
270.35075199999994
 20
11.614655999999997
 11
270.42758399999991
 21
11.570752000000027
  0
LINE
  8
_f-f_
  6
CONTINUOUS
 62
    7
 10
270.42758399999991
 20
11.570752000000027
 11
270.38367999999997
 21
11.482944000000003
  0
LINE
  8
_f-f_
  6
CONTINUOUS
 62
    7
 10
270.38367999999997
 20
11.482944000000003
 11
270.35075199999994
 21
11.439040000000034
  0
LINE
  8
_f-f_
  6
CONTINUOUS
 62
    7
 10
270.35075199999994
 20
11.439040000000034
 11
270.24099199999989
 21
11.219519999999989
  0
LINE
  8
_f-f_
  6
CONTINUOUS
 62
    7
 10
270.24099199999989
 20
11.219519999999989
 11
270.18611199999998
 21
11.219519999999989
  0
LINE
  8
_f-f_
  6
CONTINUOUS
 62
    7
 10
268.37507199999993
 20
14.336704000000026
 11
268.55068799999992
 21
14.292800000000028
  0
LINE
  8
_f-f_
  6
CONTINUOUS
 62
    7
 10
268.55068799999992
 20
14.292800000000028
 11
268.70435199999997
 21
14.248896000000016
  0
LINE
  8
_f-f_
  6
CONTINUOUS
 62
    7
 10
268.70435199999997
 20
14.248896000000016
 11
268.70435199999997
 21
14.204992000000018
  0
LINE
  8
_f-f_
  6
CONTINUOUS
 62
    7
 10
268.70435199999997
 20
14.204992000000018
 11
268.63849599999992
 21
14.161087999999992
  0
LINE
  8
_f-f_
  6
CONTINUOUS
 62
    7
 10
268.63849599999992
 20
14.161087999999992
 11
268.62752
 21
14.117184000000023
  0
LINE
  8
_f-f_
  6
CONTINUOUS
 62
    7
 10
268.62752
 20
14.117184000000023
 11
268.60556799999995
 21
14.073279999999997
  0
LINE
  8
_f-f_
  6
CONTINUOUS
 62
    7
 10
268.60556799999995
 20
14.073279999999997
 11
268.58361600000001
 21
13.985471999999987
  0
LINE
  8
_f-f_
  6
CONTINUOUS
 62
    7
 10
268.58361600000001
 20
13.985471999999987
 11
268.56166399999995
 21
13.941568000000032
  0
LINE
  8
_f-f_
  6
CONTINUOUS
 62
    7
 10
268.9019199999999
 20
13.546432000000038
 11
268.40799999999996
 21
13.546432000000038
  0
LINE
  8
_f-f_
  6
CONTINUOUS
 62
    7
 10
268.40799999999996
 20
13.546432000000038
 11
268.34214399999996
 21
13.414720000000017
  0
LINE
  8
_f-f_
  6
CONTINUOUS
 62
    7
 10
268.34214399999996
 20
13.414720000000017
 11
268.30921599999999
 21
13.370815999999991
  0
LINE
  8
_f-f_
  6
CONTINUOUS
 62
    7
 10
268.30921599999999
 20
13.370815999999991
 11
268.26531199999999
 21
13.283008000000024
  0
LINE
  8
_f-f_
  6
CONTINUOUS
 62
    7
 10
268.26531199999999
 20
13.283008000000024
 11
268.13359999999994
 21
13.107392000000061
  0
LINE
  8
_f-f_
  6
CONTINUOUS
 62
    7
 10
268.13359999999994
 20
13.107392000000061
 11
268.11164799999995
 21
13.107392000000061
  0
LINE
  8
_f-f_
  6
CONTINUOUS
 62
    7
 10
267.44211199999995
 20
12.536639999999977
 11
267.38723200000004
 21
12.536639999999977
  0
LINE
  8
_f-f_
  6
CONTINUOUS
 62
    7
 10
267.38723200000004
 20
12.536639999999977
 11
267.38723200000004
 21
10.736576000000014
  0
LINE
  8
_f-f_
  6
CONTINUOUS
 62
    7
 10
267.38723200000004
 20
10.736576000000014
 11
267.06892800000003
 21
10.736576000000014
  0
LINE
  8
_f-f_
  6
CONTINUOUS
 62
    7
 10
267.06892800000003
 20
12.448831999999982
 11
267.03599999999994
 21
12.448831999999982
  0
LINE
  8
_f-f_
  6
CONTINUOUS
 62
    7
 10
267.03599999999994
 20
12.448831999999982
 11
266.99209599999995
 21
12.361024000000015
  0
LINE
  8
_f-f_
  6
CONTINUOUS
 62
    7
 10
266.99209599999995
 20
12.361024000000015
 11
266.98111999999998
 21
12.317120000000017
  0
LINE
  8
_f-f_
  6
CONTINUOUS
 62
    7
 10
266.98111999999998
 20
12.317120000000017
 11
266.91526399999998
 21
12.185407999999995
  0
LINE
  8
_f-f_
  6
CONTINUOUS
 62
    7
 10
266.91526399999998
 20
12.185407999999995
 11
266.88233600000001
 21
12.141503999999998
  0
LINE
  8
_f-f_
  6
CONTINUOUS
 62
    7
 10
266.88233600000001
 20
12.141503999999998
 11
266.8384319999999
 21
12.053696000000031
  0
LINE
  8
_f-f_
  6
CONTINUOUS
 62
    7
 10
266.8384319999999
 20
12.053696000000031
 11
266.77257599999996
 21
11.965888000000007
  0
LINE
  8
_f-f_
  6
CONTINUOUS
 62
    7
 10
266.77257599999996
 20
11.965888000000007
 11
266.7506239999999
 21
11.921984000000009
  0
LINE
  8
_f-f_
  6
CONTINUOUS
 62
    7
 10
266.7506239999999
 20
11.921984000000009
 11
266.65183999999999
 21
11.790272000000016
  0
LINE
  8
_f-f_
  6
CONTINUOUS
 62
    7
 10
266.65183999999999
 20
11.790272000000016
 11
266.607936
 21
11.746368000000018
  0
LINE
  8
_f-f_
  6
CONTINUOUS
 62
    7
 10
266.607936
 20
11.746368000000018
 11
266.57500799999991
 21
11.70246400000002
  0
LINE
  8
_f-f_
  6
CONTINUOUS
 62
    7
 10
266.57500799999991
 20
11.70246400000002
 11
266.55305599999997
 21
11.70246400000002
  0
LINE
  8
_f-f_
  6
CONTINUOUS
 62
    7
 10
268.9019199999999
 20
12.0976
 11
268.87996799999996
 21
12.0976
  0
LINE
  8
_f-f_
  6
CONTINUOUS
 62
    7
 10
268.87996799999996
 20
12.0976
 11
268.84703999999994
 21
12.053696000000031
  0
LINE
  8
_f-f_
  6
CONTINUOUS
 62
    7
 10
268.84703999999994
 20
12.053696000000031
 11
268.82508799999994
 21
12.009792000000004
  0
LINE
  8
_f-f_
  6
CONTINUOUS
 62
    7
 10
268.82508799999994
 20
12.009792000000004
 11
268.79215999999997
 21
11.965888000000007
  0
LINE
  8
_f-f_
  6
CONTINUOUS
 62
    7
 10
268.79215999999997
 20
11.965888000000007
 11
268.77020799999997
 21
11.921984000000009
  0
LINE
  8
_f-f_
  6
CONTINUOUS
 62
    7
 10
268.77020799999997
 20
11.921984000000009
 11
268.60556799999995
 21
11.70246400000002
  0
LINE
  8
_f-f_
  6
CONTINUOUS
 62
    7
 10
268.60556799999995
 20
11.70246400000002
 11
268.56166399999995
 21
11.658559999999994
  0
LINE
  8
_f-f_
  6
CONTINUOUS
 62
    7
 10
268.56166399999995
 20
11.658559999999994
 11
268.52873599999998
 21
11.614655999999997
  0
LINE
  8
_f-f_
  6
CONTINUOUS
 62
    7
 10
268.52873599999998
 20
11.614655999999997
 11
268.26531199999999
 21
11.35123200000001
  0
LINE
  8
_f-f_
  6
CONTINUOUS
 62
    7
 10
268.26531199999999
 20
11.35123200000001
 11
267.99091199999998
 21
11.131712000000022
  0
LINE
  8
_f-f_
  6
CONTINUOUS
 62
    7
 10
267.99091199999998
 20
11.131712000000022
 11
267.92505599999993
 21
11.087808000000024
  0
LINE
  8
_f-f_
  6
CONTINUOUS
 62
    7
 10
267.92505599999993
 20
11.087808000000024
 11
267.89212799999996
 21
11.087808000000024
  0
LINE
  8
_f-f_
  6
CONTINUOUS
 62
    7
 10
269.27510399999994
 20
12.0976
 11
269.23119999999994
 21
12.0976
  0
LINE
  8
_f-f_
  6
CONTINUOUS
 62
    7
 10
269.23119999999994
 20
12.0976
 11
269.23119999999994
 21
10.736576000000014
  0
LINE
  8
_f-f_
  6
CONTINUOUS
 62
    7
 10
269.23119999999994
 20
10.736576000000014
 11
268.9019199999999
 21
10.736576000000014
  0
LINE
  8
_f-f_
  6
CONTINUOUS
 62
    7
 10
273.48988799999995
 20
14.600128000000012
 11
273.07279999999992
 21
14.600128000000012
  0
LINE
  8
_f-f_
  6
CONTINUOUS
 62
    7
 10
273.07279999999992
 20
14.600128000000012
 11
273.07279999999992
 21
13.853760000000037
  0
LINE
  8
_f-f_
  6
CONTINUOUS
 62
    7
 10
273.083776
 20
13.458624000000043
 11
273.083776
 21
13.414720000000017
  0
LINE
  8
_f-f_
  6
CONTINUOUS
 62
    7
 10
273.083776
 20
13.414720000000017
 11
273.09475199999997
 21
13.370815999999991
  0
LINE
  8
_f-f_
  6
CONTINUOUS
 62
    7
 10
273.09475199999997
 20
13.370815999999991
 11
273.09475199999997
 21
13.151296000000031
  0
LINE
  8
_f-f_
  6
CONTINUOUS
 62
    7
 10
273.09475199999997
 20
13.151296000000031
 11
273.105728
 21
13.107392000000061
  0
LINE
  8
_f-f_
  6
CONTINUOUS
 62
    7
 10
273.105728
 20
13.107392000000061
 11
273.105728
 21
12.975680000000011
  0
LINE
  8
_f-f_
  6
CONTINUOUS
 62
    7
 10
273.105728
 20
12.975680000000011
 11
273.11670399999991
 21
12.931776000000013
  0
LINE
  8
_f-f_
  6
CONTINUOUS
 62
    7
 10
273.11670399999991
 20
12.931776000000013
 11
273.11670399999991
 21
12.84396799999999
  0
LINE
  8
_f-f_
  6
CONTINUOUS
 62
    7
 10
273.11670399999991
 20
12.84396799999999
 11
273.12767999999994
 21
12.800064000000049
  0
LINE
  8
_f-f_
  6
CONTINUOUS
 62
    7
 10
273.12767999999994
 20
12.800064000000049
 11
273.12767999999994
 21
12.756160000000023
  0
LINE
  8
_f-f_
  6
CONTINUOUS
 62
    7
 10
273.12767999999994
 20
12.756160000000023
 11
273.13865599999997
 21
12.712256000000025
  0
LINE
  8
_f-f_
  6
CONTINUOUS
 62
    7
 10
273.13865599999997
 20
12.712256000000025
 11
273.13865599999997
 21
12.668351999999999
  0
LINE
  8
_f-f_
  6
CONTINUOUS
 62
    7
 10
273.13865599999997
 20
12.668351999999999
 11
273.149632
 21
12.624447999999973
  0
LINE
  8
_f-f_
  6
CONTINUOUS
 62
    7
 10
273.149632
 20
12.624447999999973
 11
273.149632
 21
12.580544000000003
  0
LINE
  8
_f-f_
  6
CONTINUOUS
 62
    7
 10
273.149632
 20
12.580544000000003
 11
273.17158399999994
 21
12.492735999999979
  0
LINE
  8
_f-f_
  6
CONTINUOUS
 62
    7
 10
273.17158399999994
 20
12.492735999999979
 11
273.17158399999994
 21
12.448831999999982
  0
LINE
  8
_f-f_
  6
CONTINUOUS
 62
    7
 10
273.17158399999994
 20
12.448831999999982
 11
273.20451199999991
 21
12.317120000000017
  0
LINE
  8
_f-f_
  6
CONTINUOUS
 62
    7
 10
273.20451199999991
 20
12.317120000000017
 11
273.20451199999991
 21
12.273216000000019
  0
LINE
  8
_f-f_
  6
CONTINUOUS
 62
    7
 10
273.20451199999991
 20
12.273216000000019
 11
273.25939199999999
 21
12.053696000000031
  0
LINE
  8
_f-f_
  6
CONTINUOUS
 62
    7
 10
273.25939199999999
 20
12.053696000000031
 11
273.28134399999999
 21
12.009792000000004
  0
LINE
  8
_f-f_
  6
CONTINUOUS
 62
    7
 10
273.28134399999999
 20
12.009792000000004
 11
273.31427199999996
 21
11.878080000000011
  0
LINE
  8
_f-f_
  6
CONTINUOUS
 62
    7
 10
273.31427199999996
 20
11.878080000000011
 11
273.3362239999999
 21
11.834176000000014
  0
LINE
  8
_f-f_
  6
CONTINUOUS
 62
    7
 10
273.3362239999999
 20
11.834176000000014
 11
273.34719999999999
 21
11.790272000000016
  0
LINE
  8
_f-f_
  6
CONTINUOUS
 62
    7
 10
273.34719999999999
 20
11.790272000000016
 11
273.41305599999998
 21
11.658559999999994
  0
LINE
  8
_f-f_
  6
CONTINUOUS
 62
    7
 10
273.41305599999998
 20
11.658559999999994
 11
273.42403199999995
 21
11.614655999999997
  0
LINE
  8
_f-f_
  6
CONTINUOUS
 62
    7
 10
273.42403199999995
 20
11.614655999999997
 11
273.44598400000001
 21
11.570752000000027
  0
LINE
  8
_f-f_
  6
CONTINUOUS
 62
    7
 10
273.44598400000001
 20
11.570752000000027
 11
273.47891199999992
 21
11.52684800000003
  0
LINE
  8
_f-f_
  6
CONTINUOUS
 62
    7
 10
273.47891199999992
 20
11.52684800000003
 11
273.52281599999992
 21
11.439040000000034
  0
LINE
  8
_f-f_
  6
CONTINUOUS
 62
    7
 10
273.52281599999992
 20
11.439040000000034
 11
273.555744
 21
11.395136000000008
  0
LINE
  8
_f-f_
  6
CONTINUOUS
 62
    7
 10
273.555744
 20
11.395136000000008
 11
273.57769599999995
 21
11.35123200000001
  0
LINE
  8
_f-f_
  6
CONTINUOUS
 62
    7
 10
273.57769599999995
 20
11.35123200000001
 11
273.70940799999994
 21
11.175616000000019
  0
LINE
  8
_f-f_
  6
CONTINUOUS
 62
    7
 10
273.70940799999994
 20
11.175616000000019
 11
273.79721599999993
 21
11.087808000000024
  0
LINE
  8
_f-f_
  6
CONTINUOUS
 62
    7
 10
273.79721599999993
 20
11.087808000000024
 11
273.85209599999996
 21
11.043903999999998
  0
LINE
  8
_f-f_
  6
CONTINUOUS
 62
    7
 10
273.85209599999996
 20
11.043903999999998
 11
273.98380799999995
 21
10.956095999999974
  0
LINE
  8
_f-f_
  6
CONTINUOUS
 62
    7
 10
273.98380799999995
 20
10.956095999999974
 11
274.093568
 21
10.912192000000005
  0
LINE
  8
_f-f_
  6
CONTINUOUS
 62
    7
 10
273.95087999999998
 20
14.512320000000003
 11
273.90697599999999
 21
14.512320000000003
  0
LINE
  8
_f-f_
  6
CONTINUOUS
 62
    7
 10
273.90697599999999
 20
14.512320000000003
 11
273.85209599999996
 21
14.468416000000005
  0
LINE
  8
_f-f_
  6
CONTINUOUS
 62
    7
 10
273.85209599999996
 20
14.468416000000005
 11
273.80819200000002
 21
14.424512000000007
  0
LINE
  8
_f-f_
  6
CONTINUOUS
 62
    7
 10
273.80819200000002
 20
14.424512000000007
 11
273.69843199999997
 21
14.336704000000026
  0
LINE
  8
_f-f_
  6
CONTINUOUS
 62
    7
 10
273.69843199999997
 20
14.336704000000026
 11
273.65452800000003
 21
14.292800000000028
  0
LINE
  8
_f-f_
  6
CONTINUOUS
 62
    7
 10
273.65452800000003
 20
14.292800000000028
 11
273.69843199999997
 21
14.248896000000016
  0
LINE
  8
_f-f_
  6
CONTINUOUS
 62
    7
 10
273.69843199999997
 20
14.248896000000016
 11
273.77526399999999
 21
14.204992000000018
  0
LINE
  8
_f-f_
  6
CONTINUOUS
 62
    7
 10
273.77526399999999
 20
14.204992000000018
 11
273.84111999999993
 21
14.161087999999992
  0
LINE
  8
_f-f_
  6
CONTINUOUS
 62
    7
 10
273.84111999999993
 20
14.161087999999992
 11
274.06063999999998
 21
13.985471999999987
  0
LINE
  8
_f-f_
  6
CONTINUOUS
 62
    7
 10
272.83132799999998
 20
12.84396799999999
 11
271.15199999999993
 21
12.84396799999999
  0
LINE
  8
_f-f_
  6
CONTINUOUS
 62
    7
 10
271.83251199999995
 20
12.536639999999977
 11
271.83251199999995
 21
11.570752000000027
  0
LINE
  8
_f-f_
  6
CONTINUOUS
 62
    7
 10
271.83251199999995
 20
11.570752000000027
 11
271.56908799999997
 21
11.52684800000003
  0
LINE
  8
_f-f_
  6
CONTINUOUS
 62
    7
 10
271.56908799999997
 20
11.52684800000003
 11
271.19590399999998
 21
11.482944000000003
  0
LINE
  8
_f-f_
  6
CONTINUOUS
 62
    7
 10
271.19590399999998
 20
11.482944000000003
 11
270.99833599999994
 21
11.439040000000034
  0
LINE
  8
_f-f_
  6
CONTINUOUS
 62
    7
 10
270.99833599999994
 20
11.439040000000034
 11
271.04223999999999
 21
11.263423999999986
  0
LINE
  8
_f-f_
  6
CONTINUOUS
 62
    7
 10
271.04223999999999
 20
11.263423999999986
 11
271.04223999999999
 21
11.219519999999989
  0
LINE
  8
_f-f_
  6
CONTINUOUS
 62
    7
 10
271.04223999999999
 20
11.219519999999989
 11
271.08614399999999
 21
11.043903999999998
  0
LINE
  8
_f-f_
  6
CONTINUOUS
 62
    7
 10
271.08614399999999
 20
11.043903999999998
 11
271.11907199999996
 21
11
  0
LINE
  8
_f-f_
  6
CONTINUOUS
 62
    7
 10
273.07279999999992
 20
11.746368000000018
 11
272.95206399999995
 21
11.746368000000018
  0
LINE
  8
_f-f_
  6
CONTINUOUS
 62
    7
 10
272.95206399999995
 20
11.746368000000018
 11
272.71059199999996
 21
11.70246400000002
  0
LINE
  8
_f-f_
  6
CONTINUOUS
 62
    7
 10
272.71059199999996
 20
11.70246400000002
 11
272.44716799999998
 21
11.658559999999994
  0
LINE
  8
_f-f_
  6
CONTINUOUS
 62
    7
 10
272.44716799999998
 20
11.658559999999994
 11
272.16179199999999
 21
11.658559999999994
  0
LINE
  8
_f-f_
  6
CONTINUOUS
 62
    7
 10
274.38991999999996
 20
11.70246400000002
 11
274.31308799999994
 21
11.70246400000002
  0
LINE
  8
_f-f_
  6
CONTINUOUS
 62
    7
 10
274.31308799999994
 20
11.70246400000002
 11
274.31308799999994
 21
11.614655999999997
  0
LINE
  8
_f-f_
  6
CONTINUOUS
 62
    7
 10
274.31308799999994
 20
11.614655999999997
 11
274.30211199999997
 21
11.570752000000027
  0
LINE
  8
_f-f_
  6
CONTINUOUS
 62
    7
 10
274.30211199999997
 20
11.570752000000027
 11
274.30211199999997
 21
11.52684800000003
  0
LINE
  8
_f-f_
  6
CONTINUOUS
 62
    7
 10
274.30211199999997
 20
11.52684800000003
 11
274.29113599999994
 21
11.482944000000003
  0
LINE
  8
_f-f_
  6
CONTINUOUS
 62
    7
 10
274.29113599999994
 20
11.482944000000003
 11
274.29113599999994
 21
11.439040000000034
  0
LINE
  8
_f-f_
  6
CONTINUOUS
 62
    7
 10
274.29113599999994
 20
11.439040000000034
 11
274.269184
 21
11.395136000000008
  0
LINE
  8
_f-f_
  6
CONTINUOUS
 62
    7
 10
274.269184
 20
11.395136000000008
 11
274.23625599999997
 21
11.35123200000001
  0
LINE
  8
_f-f_
  6
CONTINUOUS
 62
    7
 10
274.23625599999997
 20
11.35123200000001
 11
274.137472
 21
11.35123200000001
  0
LINE
  8
_f-f_
  6
CONTINUOUS
 62
    7
 10
273.48988799999995
 20
14.600128000000012
 11
273.51183999999995
 21
14.556224000000014
  0
LINE
  8
_f-f_
  6
CONTINUOUS
 62
    7
 10
273.51183999999995
 20
14.556224000000014
 11
273.44598400000001
 21
14.468416000000005
  0
LINE
  8
_f-f_
  6
CONTINUOUS
 62
    7
 10
273.44598400000001
 20
14.468416000000005
 11
273.44598400000001
 21
13.853760000000037
  0
LINE
  8
_f-f_
  6
CONTINUOUS
 62
    7
 10
273.44598400000001
 20
13.458624000000043
 11
273.44598400000001
 21
13.370815999999991
  0
LINE
  8
_f-f_
  6
CONTINUOUS
 62
    7
 10
273.44598400000001
 20
13.370815999999991
 11
273.45695999999998
 21
13.326912000000021
  0
LINE
  8
_f-f_
  6
CONTINUOUS
 62
    7
 10
273.45695999999998
 20
13.326912000000021
 11
273.45695999999998
 21
13.239103999999998
  0
LINE
  8
_f-f_
  6
CONTINUOUS
 62
    7
 10
273.45695999999998
 20
13.239103999999998
 11
273.46793600000001
 21
13.195199999999971
  0
LINE
  8
_f-f_
  6
CONTINUOUS
 62
    7
 10
273.46793600000001
 20
13.195199999999971
 11
273.46793600000001
 21
13.107392000000061
  0
LINE
  8
_f-f_
  6
CONTINUOUS
 62
    7
 10
273.46793600000001
 20
13.107392000000061
 11
273.47891199999992
 21
13.063488000000007
  0
LINE
  8
_f-f_
  6
CONTINUOUS
 62
    7
 10
273.47891199999992
 20
13.063488000000007
 11
273.47891199999992
 21
13.019583999999952
  0
LINE
  8
_f-f_
  6
CONTINUOUS
 62
    7
 10
273.47891199999992
 20
13.019583999999952
 11
273.48988799999995
 21
12.975680000000011
  0
LINE
  8
_f-f_
  6
CONTINUOUS
 62
    7
 10
273.48988799999995
 20
12.975680000000011
 11
273.48988799999995
 21
12.887871999999987
  0
LINE
  8
_f-f_
  6
CONTINUOUS
 62
    7
 10
273.48988799999995
 20
12.887871999999987
 11
273.50086399999998
 21
12.84396799999999
  0
LINE
  8
_f-f_
  6
CONTINUOUS
 62
    7
 10
273.50086399999998
 20
12.84396799999999
 11
273.50086399999998
 21
12.800064000000049
  0
LINE
  8
_f-f_
  6
CONTINUOUS
 62
    7
 10
273.50086399999998
 20
12.800064000000049
 11
273.52281599999992
 21
12.712256000000025
  0
LINE
  8
_f-f_
  6
CONTINUOUS
 62
    7
 10
273.52281599999992
 20
12.712256000000025
 11
273.52281599999992
 21
12.668351999999999
  0
LINE
  8
_f-f_
  6
CONTINUOUS
 62
    7
 10
273.52281599999992
 20
12.668351999999999
 11
273.53379199999995
 21
12.624447999999973
  0
LINE
  8
_f-f_
  6
CONTINUOUS
 62
    7
 10
273.53379199999995
 20
12.624447999999973
 11
273.53379199999995
 21
12.580544000000003
  0
LINE
  8
_f-f_
  6
CONTINUOUS
 62
    7
 10
273.53379199999995
 20
12.580544000000003
 11
273.56671999999992
 21
12.448831999999982
  0
LINE
  8
_f-f_
  6
CONTINUOUS
 62
    7
 10
273.56671999999992
 20
12.448831999999982
 11
273.56671999999992
 21
12.404927999999984
  0
LINE
  8
_f-f_
  6
CONTINUOUS
 62
    7
 10
273.56671999999992
 20
12.404927999999984
 11
273.63257599999997
 21
12.141503999999998
  0
LINE
  8
_f-f_
  6
CONTINUOUS
 62
    7
 10
273.63257599999997
 20
12.141503999999998
 11
273.65452800000003
 21
12.0976
  0
LINE
  8
_f-f_
  6
CONTINUOUS
 62
    7
 10
273.65452800000003
 20
12.0976
 11
273.67647999999997
 21
12.009792000000004
  0
LINE
  8
_f-f_
  6
CONTINUOUS
 62
    7
 10
273.67647999999997
 20
12.009792000000004
 11
273.69843199999997
 21
11.965888000000007
  0
LINE
  8
_f-f_
  6
CONTINUOUS
 62
    7
 10
273.69843199999997
 20
11.965888000000007
 11
273.70940799999994
 21
11.921984000000009
  0
LINE
  8
_f-f_
  6
CONTINUOUS
 62
    7
 10
273.70940799999994
 20
11.921984000000009
 11
273.84111999999993
 21
11.658559999999994
  0
LINE
  8
_f-f_
  6
CONTINUOUS
 62
    7
 10
273.84111999999993
 20
11.658559999999994
 11
273.87404799999996
 21
11.614655999999997
  0
LINE
  8
_f-f_
  6
CONTINUOUS
 62
    7
 10
273.87404799999996
 20
11.614655999999997
 11
273.89599999999996
 21
11.570752000000027
  0
LINE
  8
_f-f_
  6
CONTINUOUS
 62
    7
 10
273.89599999999996
 20
11.570752000000027
 11
273.92892799999993
 21
11.52684800000003
  0
LINE
  8
_f-f_
  6
CONTINUOUS
 62
    7
 10
273.92892799999993
 20
11.52684800000003
 11
273.97283199999998
 21
11.482944000000003
  0
LINE
  8
_f-f_
  6
CONTINUOUS
 62
    7
 10
273.97283199999998
 20
11.482944000000003
 11
274.0057599999999
 21
11.439040000000034
  0
LINE
  8
_f-f_
  6
CONTINUOUS
 62
    7
 10
274.0057599999999
 20
11.439040000000034
 11
274.06063999999998
 21
11.395136000000008
  0
LINE
  8
_f-f_
  6
CONTINUOUS
 62
    7
 10
274.06063999999998
 20
11.395136000000008
 11
274.137472
 21
11.35123200000001
  0
LINE
  8
_f-f_
  6
CONTINUOUS
 62
    7
 10
273.95087999999998
 20
14.512320000000003
 11
274.10454399999992
 21
14.424512000000007
  0
LINE
  8
_f-f_
  6
CONTINUOUS
 62
    7
 10
274.10454399999992
 20
14.424512000000007
 11
274.15942399999994
 21
14.380608000000009
  0
LINE
  8
_f-f_
  6
CONTINUOUS
 62
    7
 10
274.15942399999994
 20
14.380608000000009
 11
274.22528
 21
14.336704000000026
  0
LINE
  8
_f-f_
  6
CONTINUOUS
 62
    7
 10
274.22528
 20
14.336704000000026
 11
274.28016000000002
 21
14.292800000000028
  0
LINE
  8
_f-f_
  6
CONTINUOUS
 62
    7
 10
274.28016000000002
 20
14.292800000000028
 11
274.32406400000002
 21
14.248896000000016
  0
LINE
  8
_f-f_
  6
CONTINUOUS
 62
    7
 10
274.32406400000002
 20
14.248896000000016
 11
274.35699199999999
 21
14.204992000000018
  0
LINE
  8
_f-f_
  6
CONTINUOUS
 62
    7
 10
274.35699199999999
 20
14.204992000000018
 11
274.24723199999994
 21
14.117184000000023
  0
LINE
  8
_f-f_
  6
CONTINUOUS
 62
    7
 10
274.24723199999994
 20
14.117184000000023
 11
274.20332799999994
 21
14.073279999999997
  0
LINE
  8
_f-f_
  6
CONTINUOUS
 62
    7
 10
274.20332799999994
 20
14.073279999999997
 11
274.093568
 21
13.985471999999987
  0
LINE
  8
_f-f_
  6
CONTINUOUS
 62
    7
 10
274.093568
 20
13.985471999999987
 11
274.06063999999998
 21
13.985471999999987
  0
LINE
  8
_f-f_
  6
CONTINUOUS
 62
    7
 10
273.07279999999992
 20
11.746368000000018
 11
273.083776
 21
11.70246400000002
  0
LINE
  8
_f-f_
  6
CONTINUOUS
 62
    7
 10
273.083776
 20
11.70246400000002
 11
273.083776
 21
11.658559999999994
  0
LINE
  8
_f-f_
  6
CONTINUOUS
 62
    7
 10
273.083776
 20
11.658559999999994
 11
273.105728
 21
11.570752000000027
  0
LINE
  8
_f-f_
  6
CONTINUOUS
 62
    7
 10
273.105728
 20
11.570752000000027
 11
273.105728
 21
11.52684800000003
  0
LINE
  8
_f-f_
  6
CONTINUOUS
 62
    7
 10
273.105728
 20
11.52684800000003
 11
273.11670399999991
 21
11.482944000000003
  0
LINE
  8
_f-f_
  6
CONTINUOUS
 62
    7
 10
273.11670399999991
 20
11.482944000000003
 11
273.03987199999995
 21
11.439040000000034
  0
LINE
  8
_f-f_
  6
CONTINUOUS
 62
    7
 10
273.03987199999995
 20
11.439040000000034
 11
272.62278400000002
 21
11.35123200000001
  0
LINE
  8
_f-f_
  6
CONTINUOUS
 62
    7
 10
272.62278400000002
 20
11.35123200000001
 11
272.18374399999993
 21
11.263423999999986
  0
LINE
  8
_f-f_
  6
CONTINUOUS
 62
    7
 10
272.18374399999993
 20
11.263423999999986
 11
271.72275199999996
 21
11.175616000000019
  0
LINE
  8
_f-f_
  6
CONTINUOUS
 62
    7
 10
271.72275199999996
 20
11.175616000000019
 11
271.48127999999997
 21
11.131712000000022
  0
LINE
  8
_f-f_
  6
CONTINUOUS
 62
    7
 10
271.48127999999997
 20
11.131712000000022
 11
271.2288319999999
 21
11.087808000000024
  0
LINE
  8
_f-f_
  6
CONTINUOUS
 62
    7
 10
271.2288319999999
 20
11.087808000000024
 11
271.17395199999999
 21
11.043903999999998
  0
LINE
  8
_f-f_
  6
CONTINUOUS
 62
    7
 10
271.17395199999999
 20
11.043903999999998
 11
271.15199999999993
 21
11
  0
LINE
  8
_f-f_
  6
CONTINUOUS
 62
    7
 10
271.15199999999993
 20
11
 11
271.11907199999996
 21
11
  0
LINE
  8
_f-f_
  6
CONTINUOUS
 62
    7
 10
274.38991999999996
 20
11.70246400000002
 11
274.47772799999996
 21
11.658559999999994
  0
LINE
  8
_f-f_
  6
CONTINUOUS
 62
    7
 10
274.47772799999996
 20
11.658559999999994
 11
274.67529599999995
 21
11.570752000000027
  0
LINE
  8
_f-f_
  6
CONTINUOUS
 62
    7
 10
274.67529599999995
 20
11.570752000000027
 11
274.67529599999995
 21
11.52684800000003
  0
LINE
  8
_f-f_
  6
CONTINUOUS
 62
    7
 10
274.67529599999995
 20
11.52684800000003
 11
274.65334399999995
 21
11.439040000000034
  0
LINE
  8
_f-f_
  6
CONTINUOUS
 62
    7
 10
274.65334399999995
 20
11.439040000000034
 11
274.65334399999995
 21
11.395136000000008
  0
LINE
  8
_f-f_
  6
CONTINUOUS
 62
    7
 10
274.65334399999995
 20
11.395136000000008
 11
274.63139200000001
 21
11.307327999999984
  0
LINE
  8
_f-f_
  6
CONTINUOUS
 62
    7
 10
274.63139200000001
 20
11.307327999999984
 11
274.63139200000001
 21
11.263423999999986
  0
LINE
  8
_f-f_
  6
CONTINUOUS
 62
    7
 10
274.63139200000001
 20
11.263423999999986
 11
274.60943999999995
 21
11.175616000000019
  0
LINE
  8
_f-f_
  6
CONTINUOUS
 62
    7
 10
274.60943999999995
 20
11.175616000000019
 11
274.60943999999995
 21
11.131712000000022
  0
LINE
  8
_f-f_
  6
CONTINUOUS
 62
    7
 10
274.60943999999995
 20
11.131712000000022
 11
274.59846399999998
 21
11.087808000000024
  0
LINE
  8
_f-f_
  6
CONTINUOUS
 62
    7
 10
274.59846399999998
 20
11.087808000000024
 11
274.55455999999992
 21
11
  0
LINE
  8
_f-f_
  6
CONTINUOUS
 62
    7
 10
274.55455999999992
 20
11
 11
274.52163199999995
 21
10.956095999999974
  0
LINE
  8
_f-f_
  6
CONTINUOUS
 62
    7
 10
274.52163199999995
 20
10.956095999999974
 11
274.46675199999993
 21
10.912192000000005
  0
LINE
  8
_f-f_
  6
CONTINUOUS
 62
    7
 10
274.46675199999993
 20
10.912192000000005
 11
274.093568
 21
10.912192000000005
  0
LINE
  8
_f-f_
  6
CONTINUOUS
 62
    7
 10
277.05708800000002
 20
14.644031999999967
 11
276.99123199999997
 21
14.644031999999967
  0
LINE
  8
_f-f_
  6
CONTINUOUS
 62
    7
 10
276.99123199999997
 20
14.644031999999967
 11
276.94732799999997
 21
14.556224000000014
  0
LINE
  8
_f-f_
  6
CONTINUOUS
 62
    7
 10
276.94732799999997
 20
14.556224000000014
 11
276.9144
 21
14.512320000000003
  0
LINE
  8
_f-f_
  6
CONTINUOUS
 62
    7
 10
276.9144
 20
14.512320000000003
 11
276.89244799999994
 21
14.468416000000005
  0
LINE
  8
_f-f_
  6
CONTINUOUS
 62
    7
 10
276.89244799999994
 20
14.468416000000005
 11
276.82659199999995
 21
14.380608000000009
  0
LINE
  8
_f-f_
  6
CONTINUOUS
 62
    7
 10
276.82659199999995
 20
14.380608000000009
 11
276.80463999999995
 21
14.336704000000026
  0
LINE
  8
_f-f_
  6
CONTINUOUS
 62
    7
 10
276.80463999999995
 20
14.336704000000026
 11
276.70585599999993
 21
14.204992000000018
  0
LINE
  8
_f-f_
  6
CONTINUOUS
 62
    7
 10
276.70585599999993
 20
14.204992000000018
 11
276.66195199999999
 21
14.161087999999992
  0
LINE
  8
_f-f_
  6
CONTINUOUS
 62
    7
 10
276.66195199999999
 20
14.161087999999992
 11
276.59609599999999
 21
14.073279999999997
  0
LINE
  8
_f-f_
  6
CONTINUOUS
 62
    7
 10
276.59609599999999
 20
14.073279999999997
 11
276.42048
 21
13.897663999999992
  0
LINE
  8
_f-f_
  6
CONTINUOUS
 62
    7
 10
276.42048
 20
13.897663999999992
 11
276.36559999999997
 21
13.853760000000037
  0
LINE
  8
_f-f_
  6
CONTINUOUS
 62
    7
 10
276.36559999999997
 20
13.853760000000037
 11
276.32169599999997
 21
13.809856000000011
  0
LINE
  8
_f-f_
  6
CONTINUOUS
 62
    7
 10
276.32169599999997
 20
13.809856000000011
 11
276.21193599999998
 21
13.722048000000001
  0
LINE
  8
_f-f_
  6
CONTINUOUS
 62
    7
 10
276.21193599999998
 20
13.722048000000001
 11
276.01436799999999
 21
13.590336000000008
  0
LINE
  8
_f-f_
  6
CONTINUOUS
 62
    7
 10
276.01436799999999
 20
13.590336000000008
 11
275.860704
 21
13.502527999999984
  0
LINE
  8
_f-f_
  6
CONTINUOUS
 62
    7
 10
275.860704
 20
13.502527999999984
 11
275.68508799999995
 21
13.414720000000017
  0
LINE
  8
_f-f_
  6
CONTINUOUS
 62
    7
 10
275.68508799999995
 20
13.414720000000017
 11
275.46556799999996
 21
13.326912000000021
  0
LINE
  8
_f-f_
  6
CONTINUOUS
 62
    7
 10
275.46556799999996
 20
13.326912000000021
 11
275.33385599999997
 21
13.283008000000024
  0
LINE
  8
_f-f_
  6
CONTINUOUS
 62
    7
 10
275.33385599999997
 20
13.283008000000024
 11
275.22409599999997
 21
13.239103999999998
  0
LINE
  8
_f-f_
  6
CONTINUOUS
 62
    7
 10
275.22409599999997
 20
13.239103999999998
 11
275.23507199999995
 21
13.195199999999971
  0
LINE
  8
_f-f_
  6
CONTINUOUS
 62
    7
 10
275.23507199999995
 20
13.195199999999971
 11
275.257024
 21
13.151296000000031
  0
LINE
  8
_f-f_
  6
CONTINUOUS
 62
    7
 10
275.257024
 20
13.151296000000031
 11
275.26800000000003
 21
13.107392000000061
  0
LINE
  8
_f-f_
  6
CONTINUOUS
 62
    7
 10
275.26800000000003
 20
13.107392000000061
 11
275.28995199999997
 21
13.063488000000007
  0
LINE
  8
_f-f_
  6
CONTINUOUS
 62
    7
 10
275.28995199999997
 20
13.063488000000007
 11
275.300928
 21
13.019583999999952
  0
LINE
  8
_f-f_
  6
CONTINUOUS
 62
    7
 10
275.300928
 20
13.019583999999952
 11
275.32287999999994
 21
12.975680000000011
  0
LINE
  8
_f-f_
  6
CONTINUOUS
 62
    7
 10
275.32287999999994
 20
12.975680000000011
 11
275.33385599999997
 21
12.931776000000013
  0
LINE
  8
_f-f_
  6
CONTINUOUS
 62
    7
 10
275.33385599999997
 20
12.931776000000013
 11
275.35580800000002
 21
12.887871999999987
  0
LINE
  8
_f-f_
  6
CONTINUOUS
 62
    7
 10
277.17782399999993
 20
14.292800000000028
 11
277.19977599999999
 21
14.248896000000016
  0
LINE
  8
_f-f_
  6
CONTINUOUS
 62
    7
 10
277.19977599999999
 20
14.248896000000016
 11
277.2327039999999
 21
14.204992000000018
  0
LINE
  8
_f-f_
  6
CONTINUOUS
 62
    7
 10
277.2327039999999
 20
14.204992000000018
 11
277.25465599999995
 21
14.161087999999992
  0
LINE
  8
_f-f_
  6
CONTINUOUS
 62
    7
 10
277.25465599999995
 20
14.161087999999992
 11
277.48515199999997
 21
13.853760000000037
  0
LINE
  8
_f-f_
  6
CONTINUOUS
 62
    7
 10
277.48515199999997
 20
13.853760000000037
 11
277.70467199999996
 21
13.634240000000005
  0
LINE
  8
_f-f_
  6
CONTINUOUS
 62
    7
 10
277.70467199999996
 20
13.634240000000005
 11
277.86931199999992
 21
13.502527999999984
  0
LINE
  8
_f-f_
  6
CONTINUOUS
 62
    7
 10
277.86931199999992
 20
13.502527999999984
 11
278.06687999999991
 21
13.370815999999991
  0
LINE
  8
_f-f_
  6
CONTINUOUS
 62
    7
 10
278.06687999999991
 20
13.370815999999991
 11
278.14371199999994
 21
13.326912000000021
  0
LINE
  8
_f-f_
  6
CONTINUOUS
 62
    7
 10
278.14371199999994
 20
13.326912000000021
 11
276.27779199999998
 21
13.326912000000021
  0
LINE
  8
_f-f_
  6
CONTINUOUS
 62
    7
 10
276.24486400000001
 20
13.283008000000024
 11
276.24486400000001
 21
12.975680000000011
  0
LINE
  8
_f-f_
  6
CONTINUOUS
 62
    7
 10
278.23151999999993
 20
13.283008000000024
 11
278.38518399999998
 21
13.195199999999971
  0
LINE
  8
_f-f_
  6
CONTINUOUS
 62
    7
 10
278.38518399999998
 20
13.195199999999971
 11
278.56079999999997
 21
13.107392000000061
  0
LINE
  8
_f-f_
  6
CONTINUOUS
 62
    7
 10
278.56079999999997
 20
13.107392000000061
 11
278.78031999999996
 21
13.019583999999952
  0
LINE
  8
_f-f_
  6
CONTINUOUS
 62
    7
 10
278.78031999999996
 20
13.019583999999952
 11
278.91203199999995
 21
12.975680000000011
  0
LINE
  8
_f-f_
  6
CONTINUOUS
 62
    7
 10
278.9339839999999
 20
12.536639999999977
 11
275.43263999999999
 21
12.536639999999977
  0
LINE
  8
_f-f_
  6
CONTINUOUS
 62
    7
 10
276.66195199999999
 20
12.141503999999998
 11
276.6290239999999
 21
12.0976
  0
LINE
  8
_f-f_
  6
CONTINUOUS
 62
    7
 10
276.6290239999999
 20
12.0976
 11
276.54121599999996
 21
11.921984000000009
  0
LINE
  8
_f-f_
  6
CONTINUOUS
 62
    7
 10
276.54121599999996
 20
11.921984000000009
 11
276.50828799999999
 21
11.878080000000011
  0
LINE
  8
_f-f_
  6
CONTINUOUS
 62
    7
 10
276.50828799999999
 20
11.878080000000011
 11
276.42048
 21
11.70246400000002
  0
LINE
  8
_f-f_
  6
CONTINUOUS
 62
    7
 10
276.42048
 20
11.70246400000002
 11
276.38755199999997
 21
11.658559999999994
  0
LINE
  8
_f-f_
  6
CONTINUOUS
 62
    7
 10
276.38755199999997
 20
11.658559999999994
 11
276.29974399999992
 21
11.482944000000003
  0
LINE
  8
_f-f_
  6
CONTINUOUS
 62
    7
 10
276.29974399999992
 20
11.482944000000003
 11
276.26681599999995
 21
11.439040000000034
  0
LINE
  8
_f-f_
  6
CONTINUOUS
 62
    7
 10
276.26681599999995
 20
11.439040000000034
 11
276.20096000000001
 21
11.307327999999984
  0
LINE
  8
_f-f_
  6
CONTINUOUS
 62
    7
 10
276.20096000000001
 20
11.307327999999984
 11
275.57532799999996
 21
11.263423999999986
  0
LINE
  8
_f-f_
  6
CONTINUOUS
 62
    7
 10
275.57532799999996
 20
11.263423999999986
 11
275.49849599999993
 21
11.219519999999989
  0
LINE
  8
_f-f_
  6
CONTINUOUS
 62
    7
 10
275.49849599999993
 20
11.219519999999989
 11
275.50947199999996
 21
11.175616000000019
  0
LINE
  8
_f-f_
  6
CONTINUOUS
 62
    7
 10
275.50947199999996
 20
11.175616000000019
 11
275.53142400000002
 21
11.131712000000022
  0
LINE
  8
_f-f_
  6
CONTINUOUS
 62
    7
 10
275.53142400000002
 20
11.131712000000022
 11
275.59727999999996
 21
10.868288000000035
  0
LINE
  8
_f-f_
  6
CONTINUOUS
 62
    7
 10
275.59727999999996
 20
10.868288000000035
 11
275.63020799999993
 21
10.824384000000038
  0
LINE
  8
_f-f_
  6
CONTINUOUS
 62
    7
 10
277.81443200000001
 20
12.009792000000004
 11
277.77052800000001
 21
12.009792000000004
  0
LINE
  8
_f-f_
  6
CONTINUOUS
 62
    7
 10
277.77052800000001
 20
12.009792000000004
 11
277.50710400000003
 21
11.834176000000014
  0
LINE
  8
_f-f_
  6
CONTINUOUS
 62
    7
 10
277.50710400000003
 20
11.834176000000014
 11
277.55100799999997
 21
11.790272000000016
  0
LINE
  8
_f-f_
  6
CONTINUOUS
 62
    7
 10
277.55100799999997
 20
11.790272000000016
 11
277.88028799999995
 21
11.52684800000003
  0
LINE
  8
_f-f_
  6
CONTINUOUS
 62
    7
 10
277.88028799999995
 20
11.52684800000003
 11
277.92419200000001
 21
11.482944000000003
  0
LINE
  8
_f-f_
  6
CONTINUOUS
 62
    7
 10
277.92419200000001
 20
11.482944000000003
 11
277.97907199999997
 21
11.439040000000034
  0
LINE
  8
_f-f_
  6
CONTINUOUS
 62
    7
 10
277.97907199999997
 20
11.439040000000034
 11
277.73759999999999
 21
11.395136000000008
  0
LINE
  8
_f-f_
  6
CONTINUOUS
 62
    7
 10
277.73759999999999
 20
11.395136000000008
 11
277.14489600000002
 21
11.35123200000001
  0
LINE
  8
_f-f_
  6
CONTINUOUS
 62
    7
 10
277.14489600000002
 20
11.35123200000001
 11
276.58511999999996
 21
11.35123200000001
  0
LINE
  8
_f-f_
  6
CONTINUOUS
 62
    7
 10
278.26444799999996
 20
11.131712000000022
 11
278.30835200000001
 21
11.087808000000024
  0
LINE
  8
_f-f_
  6
CONTINUOUS
 62
    7
 10
278.30835200000001
 20
11.087808000000024
 11
278.36323199999993
 21
11.043903999999998
  0
LINE
  8
_f-f_
  6
CONTINUOUS
 62
    7
 10
278.36323199999993
 20
11.043903999999998
 11
278.3961599999999
 21
11
  0
LINE
  8
_f-f_
  6
CONTINUOUS
 62
    7
 10
278.3961599999999
 20
11
 11
278.44006399999995
 21
10.956095999999974
  0
LINE
  8
_f-f_
  6
CONTINUOUS
 62
    7
 10
278.44006399999995
 20
10.956095999999974
 11
278.47299199999998
 21
10.912192000000005
  0
LINE
  8
_f-f_
  6
CONTINUOUS
 62
    7
 10
278.47299199999998
 20
10.912192000000005
 11
278.51689599999997
 21
10.868288000000035
  0
LINE
  8
_f-f_
  6
CONTINUOUS
 62
    7
 10
278.51689599999997
 20
10.868288000000035
 11
278.54982399999994
 21
10.824384000000038
  0
LINE
  8
_f-f_
  6
CONTINUOUS
 62
    7
 10
277.05708800000002
 20
14.644031999999967
 11
277.36441599999995
 21
14.600128000000012
  0
LINE
  8
_f-f_
  6
CONTINUOUS
 62
    7
 10
277.36441599999995
 20
14.600128000000012
 11
277.40832
 21
14.556224000000014
  0
LINE
  8
_f-f_
  6
CONTINUOUS
 62
    7
 10
277.40832
 20
14.556224000000014
 11
277.36441599999995
 21
14.512320000000003
  0
LINE
  8
_f-f_
  6
CONTINUOUS
 62
    7
 10
277.36441599999995
 20
14.512320000000003
 11
277.37539199999998
 21
14.468416000000005
  0
LINE
  8
_f-f_
  6
CONTINUOUS
 62
    7
 10
277.37539199999998
 20
14.468416000000005
 11
277.50710400000003
 21
14.292800000000028
  0
LINE
  8
_f-f_
  6
CONTINUOUS
 62
    7
 10
277.50710400000003
 20
14.292800000000028
 11
277.59491200000002
 21
14.204992000000018
  0
LINE
  8
_f-f_
  6
CONTINUOUS
 62
    7
 10
277.59491200000002
 20
14.204992000000018
 11
277.62783999999999
 21
14.161087999999992
  0
LINE
  8
_f-f_
  6
CONTINUOUS
 62
    7
 10
277.62783999999999
 20
14.161087999999992
 11
277.67174399999999
 21
14.117184000000023
  0
LINE
  8
_f-f_
  6
CONTINUOUS
 62
    7
 10
277.67174399999999
 20
14.117184000000023
 11
277.72662399999996
 21
14.073279999999997
  0
LINE
  8
_f-f_
  6
CONTINUOUS
 62
    7
 10
277.72662399999996
 20
14.073279999999997
 11
277.77052800000001
 21
14.029375999999999
  0
LINE
  8
_f-f_
  6
CONTINUOUS
 62
    7
 10
277.77052800000001
 20
14.029375999999999
 11
277.93516799999998
 21
13.897663999999992
  0
LINE
  8
_f-f_
  6
CONTINUOUS
 62
    7
 10
277.93516799999998
 20
13.897663999999992
 11
278.13273600000002
 21
13.765952000000013
  0
LINE
  8
_f-f_
  6
CONTINUOUS
 62
    7
 10
278.13273600000002
 20
13.765952000000013
 11
278.28639999999996
 21
13.678143999999975
  0
LINE
  8
_f-f_
  6
CONTINUOUS
 62
    7
 10
278.28639999999996
 20
13.678143999999975
 11
278.46201599999995
 21
13.590336000000008
  0
LINE
  8
_f-f_
  6
CONTINUOUS
 62
    7
 10
278.46201599999995
 20
13.590336000000008
 11
278.68153599999994
 21
13.502527999999984
  0
LINE
  8
_f-f_
  6
CONTINUOUS
 62
    7
 10
278.68153599999994
 20
13.502527999999984
 11
278.80227199999996
 21
13.458624000000043
  0
LINE
  8
_f-f_
  6
CONTINUOUS
 62
    7
 10
278.80227199999996
 20
13.458624000000043
 11
278.94495999999992
 21
13.414720000000017
  0
LINE
  8
_f-f_
  6
CONTINUOUS
 62
    7
 10
278.94495999999992
 20
13.414720000000017
 11
279.09862399999997
 21
13.370815999999991
  0
LINE
  8
_f-f_
  6
CONTINUOUS
 62
    7
 10
279.09862399999997
 20
13.370815999999991
 11
279.08764799999994
 21
13.326912000000021
  0
LINE
  8
_f-f_
  6
CONTINUOUS
 62
    7
 10
279.08764799999994
 20
13.326912000000021
 11
279.04374399999995
 21
13.239103999999998
  0
LINE
  8
_f-f_
  6
CONTINUOUS
 62
    7
 10
279.04374399999995
 20
13.239103999999998
 11
279.03276799999992
 21
13.195199999999971
  0
LINE
  8
_f-f_
  6
CONTINUOUS
 62
    7
 10
279.03276799999992
 20
13.195199999999971
 11
278.98886399999998
 21
13.107392000000061
  0
LINE
  8
_f-f_
  6
CONTINUOUS
 62
    7
 10
278.98886399999998
 20
13.107392000000061
 11
278.97788799999995
 21
13.063488000000007
  0
LINE
  8
_f-f_
  6
CONTINUOUS
 62
    7
 10
278.97788799999995
 20
13.063488000000007
 11
278.9339839999999
 21
12.975680000000011
  0
LINE
  8
_f-f_
  6
CONTINUOUS
 62
    7
 10
278.9339839999999
 20
12.975680000000011
 11
278.91203199999995
 21
12.975680000000011
  0
LINE
  8
_f-f_
  6
CONTINUOUS
 62
    7
 10
277.17782399999993
 20
14.292800000000028
 11
277.14489600000002
 21
14.292800000000028
  0
LINE
  8
_f-f_
  6
CONTINUOUS
 62
    7
 10
277.14489600000002
 20
14.292800000000028
 11
277.11196799999999
 21
14.248896000000016
  0
LINE
  8
_f-f_
  6
CONTINUOUS
 62
    7
 10
277.11196799999999
 20
14.248896000000016
 11
277.09001599999993
 21
14.204992000000018
  0
LINE
  8
_f-f_
  6
CONTINUOUS
 62
    7
 10
277.09001599999993
 20
14.204992000000018
 11
277.05708800000002
 21
14.161087999999992
  0
LINE
  8
_f-f_
  6
CONTINUOUS
 62
    7
 10
277.05708800000002
 20
14.161087999999992
 11
277.03513599999997
 21
14.117184000000023
  0
LINE
  8
_f-f_
  6
CONTINUOUS
 62
    7
 10
277.03513599999997
 20
14.117184000000023
 11
276.83756799999998
 21
13.853760000000037
  0
LINE
  8
_f-f_
  6
CONTINUOUS
 62
    7
 10
276.83756799999998
 20
13.853760000000037
 11
276.79366399999992
 21
13.809856000000011
  0
LINE
  8
_f-f_
  6
CONTINUOUS
 62
    7
 10
276.79366399999992
 20
13.809856000000011
 11
276.76073599999995
 21
13.765952000000013
  0
LINE
  8
_f-f_
  6
CONTINUOUS
 62
    7
 10
276.76073599999995
 20
13.765952000000013
 11
276.49731199999997
 21
13.502527999999984
  0
LINE
  8
_f-f_
  6
CONTINUOUS
 62
    7
 10
276.49731199999997
 20
13.502527999999984
 11
276.27779199999998
 21
13.326912000000021
  0
LINE
  8
_f-f_
  6
CONTINUOUS
 62
    7
 10
276.24486400000001
 20
13.283008000000024
 11
276.21193599999998
 21
13.283008000000024
  0
LINE
  8
_f-f_
  6
CONTINUOUS
 62
    7
 10
276.21193599999998
 20
13.283008000000024
 11
276.01436799999999
 21
13.151296000000031
  0
LINE
  8
_f-f_
  6
CONTINUOUS
 62
    7
 10
276.01436799999999
 20
13.151296000000031
 11
275.78387199999997
 21
13.019583999999952
  0
LINE
  8
_f-f_
  6
CONTINUOUS
 62
    7
 10
275.78387199999997
 20
13.019583999999952
 11
275.58630399999993
 21
12.931776000000013
  0
LINE
  8
_f-f_
  6
CONTINUOUS
 62
    7
 10
275.58630399999993
 20
12.931776000000013
 11
275.47654399999999
 21
12.887871999999987
  0
LINE
  8
_f-f_
  6
CONTINUOUS
 62
    7
 10
275.47654399999999
 20
12.887871999999987
 11
275.35580800000002
 21
12.887871999999987
  0
LINE
  8
_f-f_
  6
CONTINUOUS
 62
    7
 10
278.23151999999993
 20
13.283008000000024
 11
278.16566399999994
 21
13.283008000000024
  0
LINE
  8
_f-f_
  6
CONTINUOUS
 62
    7
 10
278.16566399999994
 20
13.283008000000024
 11
278.16566399999994
 21
12.975680000000011
  0
LINE
  8
_f-f_
  6
CONTINUOUS
 62
    7
 10
278.16566399999994
 20
12.975680000000011
 11
276.24486400000001
 21
12.975680000000011
  0
LINE
  8
_f-f_
  6
CONTINUOUS
 62
    7
 10
277.05708800000002
 20
12.141503999999998
 11
277.01318399999997
 21
12.053696000000031
  0
LINE
  8
_f-f_
  6
CONTINUOUS
 62
    7
 10
277.01318399999997
 20
12.053696000000031
 11
276.98025599999994
 21
12.009792000000004
  0
LINE
  8
_f-f_
  6
CONTINUOUS
 62
    7
 10
276.98025599999994
 20
12.009792000000004
 11
276.958304
 21
11.965888000000007
  0
LINE
  8
_f-f_
  6
CONTINUOUS
 62
    7
 10
276.958304
 20
11.965888000000007
 11
276.92537599999997
 21
11.921984000000009
  0
LINE
  8
_f-f_
  6
CONTINUOUS
 62
    7
 10
276.92537599999997
 20
11.921984000000009
 11
276.88147199999992
 21
11.834176000000014
  0
LINE
  8
_f-f_
  6
CONTINUOUS
 62
    7
 10
276.88147199999992
 20
11.834176000000014
 11
276.84854399999995
 21
11.790272000000016
  0
LINE
  8
_f-f_
  6
CONTINUOUS
 62
    7
 10
276.84854399999995
 20
11.790272000000016
 11
276.82659199999995
 21
11.746368000000018
  0
LINE
  8
_f-f_
  6
CONTINUOUS
 62
    7
 10
276.82659199999995
 20
11.746368000000018
 11
276.79366399999992
 21
11.70246400000002
  0
LINE
  8
_f-f_
  6
CONTINUOUS
 62
    7
 10
276.79366399999992
 20
11.70246400000002
 11
276.74975999999998
 21
11.614655999999997
  0
LINE
  8
_f-f_
  6
CONTINUOUS
 62
    7
 10
276.74975999999998
 20
11.614655999999997
 11
276.71683199999995
 21
11.570752000000027
  0
LINE
  8
_f-f_
  6
CONTINUOUS
 62
    7
 10
276.71683199999995
 20
11.570752000000027
 11
276.69488000000001
 21
11.52684800000003
  0
LINE
  8
_f-f_
  6
CONTINUOUS
 62
    7
 10
276.69488000000001
 20
11.52684800000003
 11
276.66195199999999
 21
11.482944000000003
  0
LINE
  8
_f-f_
  6
CONTINUOUS
 62
    7
 10
276.66195199999999
 20
11.482944000000003
 11
276.61804799999993
 21
11.395136000000008
  0
LINE
  8
_f-f_
  6
CONTINUOUS
 62
    7
 10
276.61804799999993
 20
11.395136000000008
 11
276.58511999999996
 21
11.35123200000001
  0
LINE
  8
_f-f_
  6
CONTINUOUS
 62
    7
 10
277.81443200000001
 20
12.009792000000004
 11
277.92419200000001
 21
11.921984000000009
  0
LINE
  8
_f-f_
  6
CONTINUOUS
 62
    7
 10
277.92419200000001
 20
11.921984000000009
 11
277.990048
 21
11.878080000000011
  0
LINE
  8
_f-f_
  6
CONTINUOUS
 62
    7
 10
277.990048
 20
11.878080000000011
 11
278.20956799999988
 21
11.70246400000002
  0
LINE
  8
_f-f_
  6
CONTINUOUS
 62
    7
 10
278.20956799999988
 20
11.70246400000002
 11
278.25347199999993
 21
11.658559999999994
  0
LINE
  8
_f-f_
  6
CONTINUOUS
 62
    7
 10
278.25347199999993
 20
11.658559999999994
 11
278.36323199999993
 21
11.570752000000027
  0
LINE
  8
_f-f_
  6
CONTINUOUS
 62
    7
 10
278.36323199999993
 20
11.570752000000027
 11
278.40713599999992
 21
11.52684800000003
  0
LINE
  8
_f-f_
  6
CONTINUOUS
 62
    7
 10
278.40713599999992
 20
11.52684800000003
 11
278.46201599999995
 21
11.482944000000003
  0
LINE
  8
_f-f_
  6
CONTINUOUS
 62
    7
 10
278.46201599999995
 20
11.482944000000003
 11
278.54982399999994
 21
11.395136000000008
  0
LINE
  8
_f-f_
  6
CONTINUOUS
 62
    7
 10
278.54982399999994
 20
11.395136000000008
 11
278.60470399999997
 21
11.35123200000001
  0
LINE
  8
_f-f_
  6
CONTINUOUS
 62
    7
 10
278.60470399999997
 20
11.35123200000001
 11
278.73641599999996
 21
11.219519999999989
  0
LINE
  8
_f-f_
  6
CONTINUOUS
 62
    7
 10
278.73641599999996
 20
11.219519999999989
 11
278.76934399999993
 21
11.175616000000019
  0
LINE
  8
_f-f_
  6
CONTINUOUS
 62
    7
 10
278.76934399999993
 20
11.175616000000019
 11
278.81324799999999
 21
11.131712000000022
  0
LINE
  8
_f-f_
  6
CONTINUOUS
 62
    7
 10
278.81324799999999
 20
11.131712000000022
 11
278.87910399999993
 21
11.043903999999998
  0
LINE
  8
_f-f_
  6
CONTINUOUS
 62
    7
 10
278.87910399999993
 20
11.043903999999998
 11
278.90105599999998
 21
11
  0
LINE
  8
_f-f_
  6
CONTINUOUS
 62
    7
 10
278.90105599999998
 20
11
 11
278.82422399999996
 21
10.956095999999974
  0
LINE
  8
_f-f_
  6
CONTINUOUS
 62
    7
 10
278.82422399999996
 20
10.956095999999974
 11
278.69251199999997
 21
10.868288000000035
  0
LINE
  8
_f-f_
  6
CONTINUOUS
 62
    7
 10
278.69251199999997
 20
10.868288000000035
 11
278.61567999999994
 21
10.824384000000038
  0
LINE
  8
_f-f_
  6
CONTINUOUS
 62
    7
 10
278.61567999999994
 20
10.824384000000038
 11
278.54982399999994
 21
10.824384000000038
  0
LINE
  8
_f-f_
  6
CONTINUOUS
 62
    7
 10
278.26444799999996
 20
11.131712000000022
 11
278.08883199999997
 21
11.131712000000022
  0
LINE
  8
_f-f_
  6
CONTINUOUS
 62
    7
 10
278.08883199999997
 20
11.131712000000022
 11
277.69369599999993
 21
11.087808000000024
  0
LINE
  8
_f-f_
  6
CONTINUOUS
 62
    7
 10
277.69369599999993
 20
11.087808000000024
 11
277.28758399999992
 21
11.043903999999998
  0
LINE
  8
_f-f_
  6
CONTINUOUS
 62
    7
 10
277.28758399999992
 20
11.043903999999998
 11
276.10217599999993
 21
10.912192000000005
  0
LINE
  8
_f-f_
  6
CONTINUOUS
 62
    7
 10
276.10217599999993
 20
10.912192000000005
 11
275.73996799999998
 21
10.868288000000035
  0
LINE
  8
_f-f_
  6
CONTINUOUS
 62
    7
 10
275.73996799999998
 20
10.868288000000035
 11
275.67411199999998
 21
10.824384000000038
  0
LINE
  8
_f-f_
  6
CONTINUOUS
 62
    7
 10
275.67411199999998
 20
10.824384000000038
 11
275.63020799999993
 21
10.824384000000038
  0
LINE
  8
_f-f_
  6
CONTINUOUS
 62
    7
 10
280.723072
 20
14.600128000000012
 11
280.33891199999999
 21
14.600128000000012
  0
LINE
  8
_f-f_
  6
CONTINUOUS
 62
    7
 10
280.82185599999991
 20
13.546432000000038
 11
280.79990399999997
 21
13.502527999999984
  0
LINE
  8
_f-f_
  6
CONTINUOUS
 62
    7
 10
280.79990399999997
 20
13.502527999999984
 11
280.76697599999994
 21
13.458624000000043
  0
LINE
  8
_f-f_
  6
CONTINUOUS
 62
    7
 10
280.76697599999994
 20
13.458624000000043
 11
280.74502399999994
 21
13.414720000000017
  0
LINE
  8
_f-f_
  6
CONTINUOUS
 62
    7
 10
280.74502399999994
 20
13.414720000000017
 11
280.67916799999995
 21
13.326912000000021
  0
LINE
  8
_f-f_
  6
CONTINUOUS
 62
    7
 10
280.67916799999995
 20
13.326912000000021
 11
280.65721599999995
 21
13.283008000000024
  0
LINE
  8
_f-f_
  6
CONTINUOUS
 62
    7
 10
280.65721599999995
 20
13.283008000000024
 11
280.59135999999995
 21
13.195199999999971
  0
LINE
  8
_f-f_
  6
CONTINUOUS
 62
    7
 10
280.59135999999995
 20
13.195199999999971
 11
280.54745600000001
 21
13.151296000000031
  0
LINE
  8
_f-f_
  6
CONTINUOUS
 62
    7
 10
280.54745600000001
 20
13.151296000000031
 11
280.48159999999996
 21
13.063488000000007
  0
LINE
  8
_f-f_
  6
CONTINUOUS
 62
    7
 10
280.48159999999996
 20
13.063488000000007
 11
280.43769599999996
 21
13.019583999999952
  0
LINE
  8
_f-f_
  6
CONTINUOUS
 62
    7
 10
280.43769599999996
 20
13.019583999999952
 11
280.40476799999999
 21
12.975680000000011
  0
LINE
  8
_f-f_
  6
CONTINUOUS
 62
    7
 10
280.40476799999999
 20
12.975680000000011
 11
280.22915199999994
 21
12.800064000000049
  0
LINE
  8
_f-f_
  6
CONTINUOUS
 62
    7
 10
280.22915199999994
 20
12.800064000000049
 11
280.17427199999997
 21
12.756160000000023
  0
LINE
  8
_f-f_
  6
CONTINUOUS
 62
    7
 10
280.17427199999997
 20
12.756160000000023
 11
280.13036799999998
 21
12.712256000000025
  0
LINE
  8
_f-f_
  6
CONTINUOUS
 62
    7
 10
280.13036799999998
 20
12.712256000000025
 11
280.02060799999992
 21
12.624447999999973
  0
LINE
  8
_f-f_
  6
CONTINUOUS
 62
    7
 10
280.02060799999992
 20
12.624447999999973
 11
279.95475199999993
 21
12.580544000000003
  0
LINE
  8
_f-f_
  6
CONTINUOUS
 62
    7
 10
279.95475199999993
 20
12.580544000000003
 11
279.89987199999996
 21
12.536639999999977
  0
LINE
  8
_f-f_
  6
CONTINUOUS
 62
    7
 10
279.89987199999996
 20
12.536639999999977
 11
279.70230399999997
 21
12.404927999999984
  0
LINE
  8
_f-f_
  6
CONTINUOUS
 62
    7
 10
279.70230399999997
 20
12.404927999999984
 11
279.62547199999995
 21
12.361024000000015
  0
LINE
  8
_f-f_
  6
CONTINUOUS
 62
    7
 10
279.62547199999995
 20
12.361024000000015
 11
279.55961599999989
 21
12.317120000000017
  0
LINE
  8
_f-f_
  6
CONTINUOUS
 62
    7
 10
279.55961599999989
 20
12.317120000000017
 11
279.60351999999995
 21
12.229311999999993
  0
LINE
  8
_f-f_
  6
CONTINUOUS
 62
    7
 10
279.60351999999995
 20
12.229311999999993
 11
279.61449599999997
 21
12.185407999999995
  0
LINE
  8
_f-f_
  6
CONTINUOUS
 62
    7
 10
279.61449599999997
 20
12.185407999999995
 11
279.70230399999997
 21
12.009792000000004
  0
LINE
  8
_f-f_
  6
CONTINUOUS
 62
    7
 10
282.59996799999999
 20
14.512320000000003
 11
282.17190399999993
 21
14.512320000000003
  0
LINE
  8
_f-f_
  6
CONTINUOUS
 62
    7
 10
282.17190399999993
 20
14.512320000000003
 11
282.17190399999993
 21
13.502527999999984
  0
LINE
  8
_f-f_
  6
CONTINUOUS
 62
    7
 10
282.17190399999993
 20
13.107392000000061
 11
282.17190399999993
 21
11.35123200000001
  0
LINE
  8
_f-f_
  6
CONTINUOUS
 62
    7
 10
281.11820799999992
 20
13.941568000000032
 11
281.08528000000001
 21
13.941568000000032
  0
LINE
  8
_f-f_
  6
CONTINUOUS
 62
    7
 10
281.08528000000001
 20
13.941568000000032
 11
281.06332799999996
 21
13.897663999999992
  0
LINE
  8
_f-f_
  6
CONTINUOUS
 62
    7
 10
281.06332799999996
 20
13.897663999999992
 11
280.69014399999992
 21
13.897663999999992
  0
LINE
  8
_f-f_
  6
CONTINUOUS
 62
    7
 10
280.33891199999999
 20
12.448831999999982
 11
280.33891199999999
 21
10.78048000000004
  0
LINE
  8
_f-f_
  6
CONTINUOUS
 62
    7
 10
280.69014399999992
 20
12.448831999999982
 11
280.76697599999994
 21
12.404927999999984
  0
LINE
  8
_f-f_
  6
CONTINUOUS
 62
    7
 10
280.76697599999994
 20
12.404927999999984
 11
281.03039999999999
 21
12.229311999999993
  0
LINE
  8
_f-f_
  6
CONTINUOUS
 62
    7
 10
281.03039999999999
 20
12.229311999999993
 11
281.14015999999992
 21
12.141503999999998
  0
LINE
  8
_f-f_
  6
CONTINUOUS
 62
    7
 10
281.14015999999992
 20
12.141503999999998
 11
281.20601599999998
 21
12.0976
  0
LINE
  8
_f-f_
  6
CONTINUOUS
 62
    7
 10
280.723072
 20
14.600128000000012
 11
280.67916799999995
 21
14.556224000000014
  0
LINE
  8
_f-f_
  6
CONTINUOUS
 62
    7
 10
280.67916799999995
 20
14.556224000000014
 11
280.66819199999998
 21
14.512320000000003
  0
LINE
  8
_f-f_
  6
CONTINUOUS
 62
    7
 10
280.66819199999998
 20
14.512320000000003
 11
280.66819199999998
 21
13.941568000000032
  0
LINE
  8
_f-f_
  6
CONTINUOUS
 62
    7
 10
280.66819199999998
 20
13.941568000000032
 11
280.69014399999992
 21
13.897663999999992
  0
LINE
  8
_f-f_
  6
CONTINUOUS
 62
    7
 10
282.59996799999999
 20
14.512320000000003
 11
282.62191999999993
 21
14.468416000000005
  0
LINE
  8
_f-f_
  6
CONTINUOUS
 62
    7
 10
282.62191999999993
 20
14.468416000000005
 11
282.57801599999993
 21
14.424512000000007
  0
LINE
  8
_f-f_
  6
CONTINUOUS
 62
    7
 10
282.57801599999993
 20
14.424512000000007
 11
282.55606399999994
 21
14.380608000000009
  0
LINE
  8
_f-f_
  6
CONTINUOUS
 62
    7
 10
282.55606399999994
 20
14.380608000000009
 11
282.55606399999994
 21
13.502527999999984
  0
LINE
  8
_f-f_
  6
CONTINUOUS
 62
    7
 10
282.55606399999994
 20
13.107392000000061
 11
282.55606399999994
 21
11.35123200000001
  0
LINE
  8
_f-f_
  6
CONTINUOUS
 62
    7
 10
283.5
 20
11
 11
281.16211199999998
 21
11
  0
LINE
  8
_f-f_
  6
CONTINUOUS
 62
    7
 10
281.11820799999992
 20
13.941568000000032
 11
281.33772799999997
 21
13.722048000000001
  0
LINE
  8
_f-f_
  6
CONTINUOUS
 62
    7
 10
281.33772799999997
 20
13.722048000000001
 11
281.29382399999997
 21
13.678143999999975
  0
LINE
  8
_f-f_
  6
CONTINUOUS
 62
    7
 10
281.29382399999997
 20
13.678143999999975
 11
281.22796799999992
 21
13.634240000000005
  0
LINE
  8
_f-f_
  6
CONTINUOUS
 62
    7
 10
281.22796799999992
 20
13.634240000000005
 11
281.16211199999998
 21
13.502527999999984
  0
LINE
  8
_f-f_
  6
CONTINUOUS
 62
    7
 10
281.16211199999998
 20
13.502527999999984
 11
281.12918399999995
 21
13.458624000000043
  0
LINE
  8
_f-f_
  6
CONTINUOUS
 62
    7
 10
281.12918399999995
 20
13.458624000000043
 11
281.08528000000001
 21
13.370815999999991
  0
LINE
  8
_f-f_
  6
CONTINUOUS
 62
    7
 10
281.08528000000001
 20
13.370815999999991
 11
281.05235199999998
 21
13.326912000000021
  0
LINE
  8
_f-f_
  6
CONTINUOUS
 62
    7
 10
281.05235199999998
 20
13.326912000000021
 11
281.03039999999999
 21
13.283008000000024
  0
LINE
  8
_f-f_
  6
CONTINUOUS
 62
    7
 10
281.03039999999999
 20
13.283008000000024
 11
280.93161599999996
 21
13.151296000000031
  0
LINE
  8
_f-f_
  6
CONTINUOUS
 62
    7
 10
280.93161599999996
 20
13.151296000000031
 11
280.90966400000002
 21
13.107392000000061
  0
LINE
  8
_f-f_
  6
CONTINUOUS
 62
    7
 10
280.90966400000002
 20
13.107392000000061
 11
280.74502399999994
 21
12.887871999999987
  0
LINE
  8
_f-f_
  6
CONTINUOUS
 62
    7
 10
280.74502399999994
 20
12.887871999999987
 11
280.70111999999995
 21
12.84396799999999
  0
LINE
  8
_f-f_
  6
CONTINUOUS
 62
    7
 10
280.70111999999995
 20
12.84396799999999
 11
280.66819199999998
 21
12.800064000000049
  0
LINE
  8
_f-f_
  6
CONTINUOUS
 62
    7
 10
280.66819199999998
 20
12.800064000000049
 11
280.75599999999997
 21
12.756160000000023
  0
LINE
  8
_f-f_
  6
CONTINUOUS
 62
    7
 10
280.75599999999997
 20
12.756160000000023
 11
280.87673599999994
 21
12.712256000000025
  0
LINE
  8
_f-f_
  6
CONTINUOUS
 62
    7
 10
280.87673599999994
 20
12.712256000000025
 11
281.07430399999998
 21
12.624447999999973
  0
LINE
  8
_f-f_
  6
CONTINUOUS
 62
    7
 10
281.07430399999998
 20
12.624447999999973
 11
281.16211199999998
 21
12.580544000000003
  0
LINE
  8
_f-f_
  6
CONTINUOUS
 62
    7
 10
281.16211199999998
 20
12.580544000000003
 11
281.31577599999991
 21
12.492735999999979
  0
LINE
  8
_f-f_
  6
CONTINUOUS
 62
    7
 10
281.31577599999991
 20
12.492735999999979
 11
281.38163199999997
 21
12.448831999999982
  0
LINE
  8
_f-f_
  6
CONTINUOUS
 62
    7
 10
281.38163199999997
 20
12.448831999999982
 11
281.40358399999991
 21
12.404927999999984
  0
LINE
  8
_f-f_
  6
CONTINUOUS
 62
    7
 10
281.40358399999991
 20
12.404927999999984
 11
281.24991999999997
 21
12.0976
  0
LINE
  8
_f-f_
  6
CONTINUOUS
 62
    7
 10
281.24991999999997
 20
12.0976
 11
281.20601599999998
 21
12.0976
  0
LINE
  8
_f-f_
  6
CONTINUOUS
 62
    7
 10
280.33891199999999
 20
12.448831999999982
 11
280.31695999999999
 21
12.448831999999982
  0
LINE
  8
_f-f_
  6
CONTINUOUS
 62
    7
 10
280.31695999999999
 20
12.448831999999982
 11
280.27305599999988
 21
12.404927999999984
  0
LINE
  8
_f-f_
  6
CONTINUOUS
 62
    7
 10
280.27305599999988
 20
12.404927999999984
 11
280.05353599999995
 21
12.229311999999993
  0
LINE
  8
_f-f_
  6
CONTINUOUS
 62
    7
 10
280.05353599999995
 20
12.229311999999993
 11
279.98767999999995
 21
12.185407999999995
  0
LINE
  8
_f-f_
  6
CONTINUOUS
 62
    7
 10
279.98767999999995
 20
12.185407999999995
 11
279.93279999999993
 21
12.141503999999998
  0
LINE
  8
_f-f_
  6
CONTINUOUS
 62
    7
 10
279.93279999999993
 20
12.141503999999998
 11
279.80108799999994
 21
12.053696000000031
  0
LINE
  8
_f-f_
  6
CONTINUOUS
 62
    7
 10
279.80108799999994
 20
12.053696000000031
 11
279.72425599999997
 21
12.009792000000004
  0
LINE
  8
_f-f_
  6
CONTINUOUS
 62
    7
 10
279.72425599999997
 20
12.009792000000004
 11
279.70230399999997
 21
12.009792000000004
  0
LINE
  8
_f-f_
  6
CONTINUOUS
 62
    7
 10
280.69014399999992
 20
12.448831999999982
 11
280.66819199999998
 21
12.448831999999982
  0
LINE
  8
_f-f_
  6
CONTINUOUS
 62
    7
 10
280.66819199999998
 20
12.448831999999982
 11
280.66819199999998
 21
10.78048000000004
  0
LINE
  8
_f-f_
  6
CONTINUOUS
 62
    7
 10
280.66819199999998
 20
10.78048000000004
 11
280.33891199999999
 21
10.78048000000004
  0
LINE
  8
_f-f_
  6
CONTINUOUS
 62
    7
 10
261.69803650015848
 20
10.818143377298185
 11
261.46786978015854
 21
11.320637828498263
  0
ARC
  8
_f-f_
  6
CONTINUOUS
 62
    7
 10
261.14397350815852
 20
13.801814490098195
 40
2.5022283551999998
 50
277.43740700000006
 51
318.25330200000008
  0
LINE
  8
_f-f_
  6
CONTINUOUS
 62
    7
 10
259.91794882015853
 20
11.278091559698225
 11
259.38451522015851
 21
10.85915849409821
  0
ARC
  8
_f-f_
  6
CONTINUOUS
 62
    7
 10
248.43833509135854
 20
2.5524020556982236
 40
13.741217431199997
 50
37.193868000000002
 51
44.067300000000003
  0
ARC
  8
_f-f_
  6
CONTINUOUS
 62
    7
 10
251.63328789295852
 20
5.1972563964982612
 40
9.6114510576000001
 50
45.985430000000001
 51
52.858862000000002
  0
LINE
  8
_f-f_
  6
CONTINUOUS
 62
    7
 10
257.43649474015854
 20
12.859030695698209
 11
257.84546050015854
 21
13.256932647698193
  0
ARC
  8
_f-f_
  6
CONTINUOUS
 62
    7
 10
259.60822146655852
 20
14.802502172498251
 40
1.5138771480000004
 50
335.50113199999998
 51
353.79681699999998
  0
ARC
  8
_f-f_
  6
CONTINUOUS
 62
    7
 10
255.5557247609585
 20
17.049016618898278
 40
6.1438791120000014
 50
318.37204700000001
 51
332.10656799999998
  0
ARC
  8
_f-f_
  6
CONTINUOUS
 62
    7
 10
253.24143214255852
 20
15.569703169298236
 40
3.3701116512000007
 50
327.63748900000002
 51
343.65418099999999
  0
ARC
  8
_f-f_
  6
CONTINUOUS
 62
    7
 10
253.40907764575854
 20
15.622958446898267
 40
3.2597962655999995
 50
295.64126099999999
 51
325.26891000000001
  0
LINE
  8
_f-f_
  6
CONTINUOUS
 62
    7
 10
254.81970658015848
 20
12.68418301569821
 11
254.54706274015854
 21
13.113498279698177
  0
LINE
  8
_f-f_
  6
CONTINUOUS
 62
    7
 10
253.63923778015851
 20
15.293364807698225
 11
253.08308386015847
 21
15.228364935698238
  0
LINE
  8
_f-f_
  6
CONTINUOUS
 62
    7
 10
253.74691234015856
 20
10.796371383698215
 11
254.30800546015854
 21
10.877532318098247
  0
LINE
  8
_f-f_
  6
CONTINUOUS
 62
    7
 10
251.82161218015855
 20
14.621238471698234
 11
251.82161218015855
 21
14.055798855698214
  0
LINE
  8
_f-f_
  6
CONTINUOUS
 62
    7
 10
265.43503522015851
 20
13.13197088769823
 11
265.43799874015849
 21
13.697410503698194
  0
LINE
  8
_f-f_
  6
CONTINUOUS
 62
    7
 10
265.43799874015849
 20
13.697410503698194
 11
261.28709506015849
 21
13.697410503698194
  0
LINE
  8
_f-f_
  6
CONTINUOUS
 62
    7
 10
261.28709506015849
 20
13.697410503698194
 11
261.28709506015849
 21
13.13197088769823
  0
LINE
  8
_f-f_
  6
CONTINUOUS
 62
    7
 10
261.62197282015848
 20
14.929049415698273
 11
261.62197282015848
 21
14.363609799698224
  0
LINE
  8
_f-f_
  6
CONTINUOUS
 62
    7
 10
261.62197282015848
 20
14.363609799698224
 11
264.40866946015854
 21
14.363609799698224
  0
LINE
  8
_f-f_
  6
CONTINUOUS
 62
    7
 10
261.11323522015851
 20
14.63892080769827
 11
256.72228642015853
 21
14.63892080769827
  0
LINE
  8
_f-f_
  6
CONTINUOUS
 62
    7
 10
256.72228642015853
 20
14.63892080769827
 11
256.72228642015853
 21
14.073678759698211
  0
LINE
  8
_f-f_
  6
CONTINUOUS
 62
    7
 10
248.28712066015856
 20
15.250196199698237
 11
247.73096674015852
 21
15.185295111698224
  0
LINE
  8
_f-f_
  6
CONTINUOUS
 62
    7
 10
248.17648258015853
 20
10.813381988498236
 11
248.73757570015857
 21
10.894552801298175
  0
LINE
  8
_f-f_
  6
CONTINUOUS
 62
    7
 10
240.27079906015857
 20
13.902288519698203
 11
240.87041794015852
 21
13.944370503698195
  0
ARC
  8
_f-f_
  6
CONTINUOUS
 62
    7
 10
236.74753516495866
 20
13.76305823409821
 40
4.1268670632000006
 50
321.70218699999998
 51
2.5180820000000264
  0
ARC
  8
_f-f_
  6
CONTINUOUS
 62
    7
 10
238.33115299375856
 20
13.078716433298212
 40
2.4997389984000002
 50
293.16671400000001
 51
311.462399
  0
LINE
  8
_f-f_
  6
CONTINUOUS
 62
    7
 10
239.31456994015855
 20
10.780546186898221
 11
238.93326370015848
 21
11.179910142098237
  0
ARC
  8
_f-f_
  6
CONTINUOUS
 62
    7
 10
237.93835982095854
 20
13.317551449298207
 40
2.3578267271999995
 50
294.95826699999998
 51
355.396568
  0
ARC
  8
_f-f_
  6
CONTINUOUS
 62
    7
 10
236.41950066655863
 20
13.426618863698252
 40
3.8805615072000004
 50
355.59126199999997
 51
7.040883000000008
  0
LINE
  8
_f-f_
  6
CONTINUOUS
 62
    7
 10
250.53149314015846
 20
12.585794151698195
 11
250.53346882015853
 21
13.151233767698216
  0
LINE
  8
_f-f_
  6
CONTINUOUS
 62
    7
 10
246.08917666015856
 20
13.151233767698216
 11
246.08917666015856
 21
12.585794151698195
  0
LINE
  8
_f-f_
  6
CONTINUOUS
 62
    7
 10
250.33491298015849
 20
14.089879335698242
 11
250.33787650015853
 21
14.65531895169822
  0
LINE
  8
_f-f_
  6
CONTINUOUS
 62
    7
 10
246.3025501001585
 20
14.65531895169822
 11
246.3025501001585
 21
14.089879335698242
  0
LINE
  8
_f-f_
  6
CONTINUOUS
 62
    7
 10
245.69107714015851
 20
12.768050631698202
 11
245.69305282015858
 21
13.333292679698218
  0
LINE
  8
_f-f_
  6
CONTINUOUS
 62
    7
 10
245.69305282015858
 20
13.333292679698218
 11
242.56061218015859
 21
13.333292679698218
  0
LINE
  8
_f-f_
  6
CONTINUOUS
 62
    7
 10
242.56061218015859
 20
13.333292679698218
 11
242.56061218015859
 21
12.768050631698202
  0
LINE
  8
_f-f_
  6
CONTINUOUS
 62
    7
 10
242.56061218015859
 20
12.768050631698202
 11
245.69107714015851
 21
12.768050631698202
  0
LINE
  8
_f-f_
  6
CONTINUOUS
 62
    7
 10
242.94685762015857
 20
15.086511111698243
 11
238.61320354015854
 21
15.086511111698243
  0
LINE
  8
_f-f_
  6
CONTINUOUS
 62
    7
 10
238.61320354015854
 20
15.086511111698243
 11
238.61320354015854
 21
14.526603399698274
  0
LINE
  8
_f-f_
  6
CONTINUOUS
 62
    7
 10
241.43249890015855
 20
12.940725063698153
 11
241.04921698015858
 21
13.386537255698215
  0
LINE
  8
_f-f_
  6
CONTINUOUS
 62
    7
 10
264.40866946015854
 20
14.363609799698224
 11
264.41163298015852
 21
14.929049415698273
  0
LINE
  8
_f-f_
  6
CONTINUOUS
 62
    7
 10
264.41163298015852
 20
14.929049415698273
 11
261.62197282015848
 21
14.929049415698273
  0
LINE
  8
_f-f_
  6
CONTINUOUS
 62
    7
 10
264.76923106015852
 20
15.129383367698281
 11
264.76923106015852
 21
14.298116007698198
  0
LINE
  8
_f-f_
  6
CONTINUOUS
 62
    7
 10
264.76923106015852
 20
14.298116007698198
 11
265.18906306015845
 21
14.298116007698198
  0
LINE
  8
_f-f_
  6
CONTINUOUS
 62
    7
 10
265.18906306015845
 20
14.298116007698198
 11
265.18906306015845
 21
15.129383367698281
  0
LINE
  8
_f-f_
  6
CONTINUOUS
 62
    7
 10
265.18906306015845
 20
15.129383367698281
 11
264.76923106015852
 21
15.129383367698281
  0
LINE
  8
_f-f_
  6
CONTINUOUS
 62
    7
 10
265.35403234015854
 20
15.129383367698281
 11
265.35403234015854
 21
14.298116007698198
  0
LINE
  8
_f-f_
  6
CONTINUOUS
 62
    7
 10
265.35403234015854
 20
14.298116007698198
 11
265.77386434015853
 21
14.298116007698198
  0
LINE
  8
_f-f_
  6
CONTINUOUS
 62
    7
 10
265.77386434015853
 20
14.298116007698198
 11
265.77386434015853
 21
15.129383367698281
  0
LINE
  8
_f-f_
  6
CONTINUOUS
 62
    7
 10
265.77386434015853
 20
15.129383367698281
 11
265.35403234015854
 21
15.129383367698281
  0
ARC
  8
_f-f_
  6
CONTINUOUS
 62
    7
 10
240.40335977935854
 20
15.112665822098251
 40
1.8430007399999995
 50
290.51408900000007
 51
341.45836900000006
  0
ARC
  8
_f-f_
  6
CONTINUOUS
 62
    7
 10
240.32372670415859
 20
15.330920014898268
 40
2.6348450520000002
 50
294.88580100000001
 51
354.697475
  0
LINE
  8
_f-f_
  6
CONTINUOUS
 62
    7
 10
250.33787650015853
 20
14.65531895169822
 11
248.34864168895854
 21
14.65531895169822
  0
LINE
  8
_f-f_
  6
CONTINUOUS
 62
    7
 10
247.78497359935855
 20
14.65531895169822
 11
246.3025501001585
 21
14.65531895169822
  0
LINE
  8
_f-f_
  6
CONTINUOUS
 62
    7
 10
246.3025501001585
 20
14.089879335698242
 11
247.84259348335851
 21
14.089879335698242
  0
LINE
  8
_f-f_
  6
CONTINUOUS
 62
    7
 10
248.40711852415853
 20
14.089879335698242
 11
250.33491298015849
 21
14.089879335698242
  0
LINE
  8
_f-f_
  6
CONTINUOUS
 62
    7
 10
250.53346882015853
 20
13.151233767698216
 11
248.50419273775856
 21
13.151233767698216
  0
LINE
  8
_f-f_
  6
CONTINUOUS
 62
    7
 10
247.93824603055856
 20
13.151233767698216
 11
246.08917666015856
 21
13.151233767698216
  0
LINE
  8
_f-f_
  6
CONTINUOUS
 62
    7
 10
246.08917666015856
 20
12.585794151698195
 11
247.99586591455852
 21
12.585794151698195
  0
LINE
  8
_f-f_
  6
CONTINUOUS
 62
    7
 10
248.5626695729585
 20
12.585794151698195
 11
250.53149314015846
 21
12.585794151698195
  0
LINE
  8
_f-f_
  6
CONTINUOUS
 62
    7
 10
248.34864168895854
 20
14.65531895169822
 11
248.28712066015856
 21
15.250196199698237
  0
LINE
  8
_f-f_
  6
CONTINUOUS
 62
    7
 10
247.73096674015852
 20
15.185295111698224
 11
247.78497359935855
 21
14.65531895169822
  0
LINE
  8
_f-f_
  6
CONTINUOUS
 62
    7
 10
247.84259348335851
 20
14.089879335698242
 11
247.93824603055856
 21
13.151233767698216
  0
LINE
  8
_f-f_
  6
CONTINUOUS
 62
    7
 10
247.99586591455852
 20
12.585794151698195
 11
248.17648258015853
 21
10.813381988498236
  0
LINE
  8
_f-f_
  6
CONTINUOUS
 62
    7
 10
248.73757570015857
 20
10.894552801298175
 11
248.5626695729585
 21
12.585794151698195
  0
LINE
  8
_f-f_
  6
CONTINUOUS
 62
    7
 10
248.50419273775856
 20
13.151233767698216
 11
248.40711852415853
 21
14.089879335698242
  0
LINE
  8
_f-f_
  6
CONTINUOUS
 62
    7
 10
256.47532642015847
 20
14.621238471698234
 11
253.74102975295853
 21
14.621238471698234
  0
LINE
  8
_f-f_
  6
CONTINUOUS
 62
    7
 10
253.1740194713586
 20
14.621238471698234
 11
251.82161218015855
 21
14.621238471698234
  0
LINE
  8
_f-f_
  6
CONTINUOUS
 62
    7
 10
251.82161218015855
 20
14.055798855698214
 11
253.25871193375849
 21
14.055798855698214
  0
LINE
  8
_f-f_
  6
CONTINUOUS
 62
    7
 10
253.08308386015847
 20
15.228364935698238
 11
253.1740194713586
 21
14.621238471698234
  0
LINE
  8
_f-f_
  6
CONTINUOUS
 62
    7
 10
253.25871193375849
 20
14.055798855698214
 11
253.74691234015856
 21
10.796371383698215
  0
LINE
  8
_f-f_
  6
CONTINUOUS
 62
    7
 10
254.30800546015854
 20
10.877532318098247
 11
253.82666395615848
 21
14.055798855698214
  0
LINE
  8
_f-f_
  6
CONTINUOUS
 62
    7
 10
253.74102975295853
 20
14.621238471698234
 11
253.63923778015851
 21
15.293364807698225
  0
ARC
  8
_f-f_
  6
CONTINUOUS
 62
    7
 10
253.30606651375854
 20
15.707678898098237
 40
2.8757339520000005
 50
295.56537500000002
 51
324.94094800000005
  0
LINE
  8
_f-f_
  6
CONTINUOUS
 62
    7
 10
253.82666395615848
 20
14.055798855698214
 11
255.66727330015857
 21
14.055798855698214
  0
ARC
  8
_f-f_
  6
CONTINUOUS
 62
    7
 10
255.50034562735851
 20
17.562717291698277
 40
6.535748654399999
 50
304.14080200000001
 51
315.32696499999997
  0
ARC
  8
_f-f_
  6
CONTINUOUS
 62
    7
 10
251.77672308415856
 20
5.0645516172982639
 40
10.241466597600002
 50
37.351568999999991
 51
43.801712000000002
  0
ARC
  8
_f-f_
  6
CONTINUOUS
 62
    7
 10
251.93372790415847
 20
4.8052798380982154
 40
10.3140201528
 50
48.700563000000002
 51
55.028115999999997
  0
ARC
  8
_f-f_
  6
CONTINUOUS
 62
    7
 10
257.08223226655855
 20
15.662920690898247
 40
3.5238129696000002
 50
298.08031299999999
 51
333.19209899999998
  0
LINE
  8
_f-f_
  6
CONTINUOUS
 62
    7
 10
256.72228642015853
 20
14.073678759698211
 11
260.22731890495857
 21
14.073678759698211
  0
ARC
  8
_f-f_
  6
CONTINUOUS
 62
    7
 10
261.53521000975854
 20
13.090698932498213
 40
2.2783813415999994
 50
274.09817199999998
 51
1.0379469999999982
  0
ARC
  8
_f-f_
  6
CONTINUOUS
 62
    7
 10
261.63552269215853
 20
12.913413757298173
 40
1.5799941024000002
 50
330.51444500000002
 51
7.9510959999999775
  0
LINE
  8
_f-f_
  6
CONTINUOUS
 62
    7
 10
261.28709506015849
 20
13.13197088769823
 11
263.20032710815855
 21
13.13197088769823
  0
LINE
  8
_f-f_
  6
CONTINUOUS
 62
    7
 10
263.8132176185585
 20
13.13197088769823
 11
265.43503522015851
 21
13.13197088769823
  0
LINE
  8
_f-f_
  6
CONTINUOUS
 62
    7
 10
238.61320354015854
 20
14.526603399698274
 11
242.15069562415852
 21
14.526603399698274
  0
LINE
  8
_f-f_
  6
CONTINUOUS
 62
    7
 10
269.23119999999994
 20
13.941568000000032
 11
270.02147199999996
 21
13.941568000000032
  0
LINE
  8
_f-f_
  6
CONTINUOUS
 62
    7
 10
269.23119999999994
 20
13.546432000000038
 11
270.02147199999996
 21
13.546432000000038
  0
LINE
  8
_f-f_
  6
CONTINUOUS
 62
    7
 10
270.02147199999996
 20
13.941568000000032
 11
270.02147199999996
 21
13.546432000000038
  0
LINE
  8
_f-f_
  6
CONTINUOUS
 62
    7
 10
267.06892800000003
 20
13.853760000000037
 11
266.48719999999992
 21
13.853760000000037
  0
LINE
  8
_f-f_
  6
CONTINUOUS
 62
    7
 10
266.48719999999992
 20
13.853760000000037
 11
266.48719999999992
 21
13.458624000000043
  0
LINE
  8
_f-f_
  6
CONTINUOUS
 62
    7
 10
267.04697599999997
 20
13.458624000000043
 11
266.48719999999992
 21
13.458624000000043
  0
LINE
  8
_f-f_
  6
CONTINUOUS
 62
    7
 10
267.38723200000004
 20
13.853760000000037
 11
267.87017599999996
 21
13.853760000000037
  0
LINE
  8
_f-f_
  6
CONTINUOUS
 62
    7
 10
267.87017599999996
 20
13.853760000000037
 11
267.87017599999996
 21
13.458624000000043
  0
LINE
  8
_f-f_
  6
CONTINUOUS
 62
    7
 10
267.38723200000004
 20
13.458624000000043
 11
267.87017599999996
 21
13.458624000000043
  0
LINE
  8
_f-f_
  6
CONTINUOUS
 62
    7
 10
268.9019199999999
 20
13.019583999999952
 11
267.89212799999996
 21
13.019583999999952
  0
LINE
  8
_f-f_
  6
CONTINUOUS
 62
    7
 10
267.89212799999996
 20
13.019583999999952
 11
267.89212799999996
 21
12.624447999999973
  0
LINE
  8
_f-f_
  6
CONTINUOUS
 62
    7
 10
268.87996799999996
 20
12.624447999999973
 11
267.89212799999996
 21
12.624447999999973
  0
LINE
  8
_f-f_
  6
CONTINUOUS
 62
    7
 10
269.23119999999994
 20
13.019583999999952
 11
270.306848
 21
13.019583999999952
  0
LINE
  8
_f-f_
  6
CONTINUOUS
 62
    7
 10
270.306848
 20
13.019583999999952
 11
270.306848
 21
12.624447999999973
  0
LINE
  8
_f-f_
  6
CONTINUOUS
 62
    7
 10
269.26412799999991
 20
12.624447999999973
 11
270.306848
 21
12.624447999999973
  0
LINE
  8
_f-f_
  6
CONTINUOUS
 62
    7
 10
273.07279999999992
 20
13.853760000000037
 11
270.97638399999994
 21
13.853760000000037
  0
LINE
  8
_f-f_
  6
CONTINUOUS
 62
    7
 10
270.97638399999994
 20
13.853760000000037
 11
270.97638399999994
 21
13.458624000000043
  0
LINE
  8
_f-f_
  6
CONTINUOUS
 62
    7
 10
273.083776
 20
13.458624000000043
 11
270.97638399999994
 21
13.458624000000043
  0
LINE
  8
_f-f_
  6
CONTINUOUS
 62
    7
 10
273.44598400000001
 20
13.853760000000037
 11
274.64236799999992
 21
13.853760000000037
  0
LINE
  8
_f-f_
  6
CONTINUOUS
 62
    7
 10
274.64236799999992
 20
13.853760000000037
 11
274.64236799999992
 21
13.458624000000043
  0
LINE
  8
_f-f_
  6
CONTINUOUS
 62
    7
 10
273.44598400000001
 20
13.458624000000043
 11
274.64236799999992
 21
13.458624000000043
  0
LINE
  8
_f-f_
  6
CONTINUOUS
 62
    7
 10
272.16179199999999
 20
12.536639999999977
 11
272.16179199999999
 21
12.522973737441333
  0
LINE
  8
_f-f_
  6
CONTINUOUS
 62
    7
 10
272.16179199999999
 20
12.522973737441333
 11
272.16179199999999
 21
11.658559999999994
  0
LINE
  8
_f-f_
  6
CONTINUOUS
 62
    7
 10
271.15199999999993
 20
12.84396799999999
 11
271.15199999999993
 21
12.536639999999977
  0
LINE
  8
_f-f_
  6
CONTINUOUS
 62
    7
 10
271.83251199999995
 20
12.536639999999977
 11
271.15199999999993
 21
12.536639999999977
  0
LINE
  8
_f-f_
  6
CONTINUOUS
 62
    7
 10
272.16179199999999
 20
12.522973737441333
 11
272.83132799999998
 21
12.522973737441333
  0
LINE
  8
_f-f_
  6
CONTINUOUS
 62
    7
 10
272.83132799999998
 20
12.84396799999999
 11
272.83132799999998
 21
12.522973737441333
  0
LINE
  8
_f-f_
  6
CONTINUOUS
 62
    7
 10
277.05708800000002
 20
12.141503999999998
 11
278.9339839999999
 21
12.141503999999998
  0
LINE
  8
_f-f_
  6
CONTINUOUS
 62
    7
 10
278.9339839999999
 20
12.536639999999977
 11
278.9339839999999
 21
12.141503999999998
  0
LINE
  8
_f-f_
  6
CONTINUOUS
 62
    7
 10
276.66195199999999
 20
12.141503999999998
 11
275.43263999999999
 21
12.141503999999998
  0
LINE
  8
_f-f_
  6
CONTINUOUS
 62
    7
 10
275.43263999999999
 20
12.536639999999977
 11
275.43263999999999
 21
12.141503999999998
  0
LINE
  8
_f-f_
  6
CONTINUOUS
 62
    7
 10
280.33891199999999
 20
14.600128000000012
 11
280.33891199999999
 21
13.897663999999992
  0
LINE
  8
_f-f_
  6
CONTINUOUS
 62
    7
 10
280.33891199999999
 20
13.897663999999992
 11
279.70230399999997
 21
13.897663999999992
  0
LINE
  8
_f-f_
  6
CONTINUOUS
 62
    7
 10
279.70230399999997
 20
13.897663999999992
 11
279.70230399999997
 21
13.546432000000038
  0
LINE
  8
_f-f_
  6
CONTINUOUS
 62
    7
 10
280.82185599999991
 20
13.546432000000038
 11
279.70230399999997
 21
13.546432000000038
  0
LINE
  8
_f-f_
  6
CONTINUOUS
 62
    7
 10
282.17190399999993
 20
13.502527999999984
 11
281.43651199999999
 21
13.502527999999984
  0
LINE
  8
_f-f_
  6
CONTINUOUS
 62
    7
 10
281.43651199999999
 20
13.502527999999984
 11
281.43651199999999
 21
13.107392000000061
  0
LINE
  8
_f-f_
  6
CONTINUOUS
 62
    7
 10
282.17190399999993
 20
13.107392000000061
 11
281.43651199999999
 21
13.107392000000061
  0
LINE
  8
_f-f_
  6
CONTINUOUS
 62
    7
 10
282.55606399999994
 20
13.107392000000061
 11
283.34633599999995
 21
13.107392000000061
  0
LINE
  8
_f-f_
  6
CONTINUOUS
 62
    7
 10
283.34633599999995
 20
13.502527999999984
 11
283.34633599999995
 21
13.107392000000061
  0
LINE
  8
_f-f_
  6
CONTINUOUS
 62
    7
 10
282.55606399999994
 20
13.502527999999984
 11
283.34633599999995
 21
13.502527999999984
  0
LINE
  8
_f-f_
  6
CONTINUOUS
 62
    7
 10
283.5
 20
11.35123200000001
 11
283.5
 21
11
  0
LINE
  8
_f-f_
  6
CONTINUOUS
 62
    7
 10
282.55606399999994
 20
11.35123200000001
 11
283.5
 21
11.35123200000001
  0
LINE
  8
_f-f_
  6
CONTINUOUS
 62
    7
 10
281.16211199999998
 20
11.35123200000001
 11
281.16211199999998
 21
11
  0
LINE
  8
_f-f_
  6
CONTINUOUS
 62
    7
 10
282.17190399999993
 20
11.35123200000001
 11
281.16211199999998
 21
11.35123200000001
  0
LINE
  8
_f-f_
  6
CONTINUOUS
 62
    7
 10
233.5
 20
17
 11
233.5
 21
27
  0
LINE
  8
_f-f_
  6
CONTINUOUS
 62
    7
 10
183.5
 20
17
 11
183.5
 21
27
  0
LINE
  8
_f-f_
  6
CONTINUOUS
 62
    7
 10
253.5
 20
17
 11
253.5
 21
27
  0
TEXT
  8
_e-e_
 62
    7
 10
165.5
 20
20
 40
4
 41
1
 50
0
  1
図面名称
  0
TEXT
  8
_e-e_
 62
    7
 10
237.5
 20
20
 40
4
 41
1
 50
0
  1
作成日
  0
LINE
  8
_f-f_
  6
CONTINUOUS
 62
    7
 10
163.5
 20
17
 11
163.5
 21
27
  0
LINE
  8
_f-f_
  6
CONTINUOUS
 62
    7
 10
283.5
 20
27
 11
188.61822686063675
 21
27
  0
LINE
  8
_f-f_
  6
CONTINUOUS
 62
    7
 10
188.61822686063675
 20
27
 11
163.5
 21
27
  0
LINE
  8
_f-f_
  6
CONTINUOUS
 62
    7
 10
248.5
 20
197
 11
248.5
 21
187
  0
TEXT
  8
_e-e_
 62
    7
 10
237
 20
190
 40
4
 41
1
 50
0
  1
縮尺
  0
LINE
  8
_f-f_
  6
CONTINUOUS
 62
    7
 10
233.5
 20
197
 11
233.5
 21
187
  0
LINE
  8
_f-f_
  6
CONTINUOUS
 62
    7
 10
233.5
 20
187
 11
283.5
 21
187
  0
TEXT
  8
_e-e_
 62
    7
 10
255
 20
190
 40
4
 41
1
 50
0
  1
Ａ４：１/５
  0
TEXT
  8
_e-e_
 62
    7
 10
188.5
 20
22.5
 40
4
 41
1
 50
0
  1
あご下納まり例
  0
TEXT
  8
_e-e_
 62
    7
 10
188.5
 20
17.5
 40
4
 41
1
 50
0
  1
（モルタル面取り）
  0
TEXT
  8
_e-e_
 62
    7
 10
258.5
 20
20
 40
4
 41
1
 50
0
  1
2020.03.12
  0
LINE
  8
_1-a_元図__躯体
  6
CONTINUOUS
 62
    7
 10
84.552631800924161
 20
125.17107105489954
 11
123.57368180092416
 21
164.19212105489953
  0
LINE
  8
_1-a_元図__躯体
  6
CONTINUOUS
 62
    7
 10
84.552631800924161
 20
68.60252105489954
 11
106.55263180092416
 21
90.60252105489954
  0
LINE
  8
_1-a_元図__躯体
  6
CONTINUOUS
 62
    7
 10
165.14798180092416
 20
31.695371054899539
 11
183.40578180092416
 21
49.953171054899542
  0
LINE
  8
_1-a_元図__躯体
  6
CONTINUOUS
 62
    7
 10
84.552631800924161
 20
166.02072105489952
 11
84.552631800924161
 21
31.695371054899539
  0
LINE
  8
_1-a_元図__躯体
  6
CONTINUOUS
 62
    7
 10
134.55263180092416
 20
160.67762105489953
 11
134.55263180092416
 21
140.75317105489955
  0
LINE
  8
_1-a_元図__躯体
  6
CONTINUOUS
 62
    7
 10
131.55263180092416
 20
137.75317105489955
 11
134.55263180092416
 21
140.75317105489955
  0
LINE
  8
_1-a_元図__躯体
  6
CONTINUOUS
 62
    7
 10
131.55593180092416
 20
163.81807105489955
 11
134.55263180092416
 21
160.67762105489953
  0
LINE
  8
_1-a_元図__躯体
  6
CONTINUOUS
 62
    7
 10
84.552631800924161
 20
166.02072105489952
 11
131.55593180092416
 21
163.81807105489955
  0
LINE
  8
_1-a_元図__躯体
  6
CONTINUOUS
 62
    7
 10
106.55263180092416
 20
137.75317105489955
 11
106.55263180092416
 21
49.953171054899542
  0
LINE
  8
_1-a_元図__躯体
  6
CONTINUOUS
 62
    7
 10
107.35263180092417
 20
67.553171054899551
 11
210.20643180092415
 21
67.553171054899551
  0
LINE
  8
_1-a_元図__躯体
  6
CONTINUOUS
 62
    7
 10
106.55263180092416
 20
49.953171054899542
 11
210.20643180092415
 21
49.953171054899542
  0
LINE
  8
_1-a_元図__躯体
  6
CONTINUOUS
 62
    7
 10
106.55263180092416
 20
137.75317105489955
 11
125.95263180092417
 21
137.75317105489955
  0
LINE
  8
_1-a_元図__躯体
  6
CONTINUOUS
 62
    7
 10
129.34063180092417
 20
137.75317105489955
 11
131.55263180092416
 21
137.75317105489955
  0
LINE
  8
_1-a_元図__躯体
  6
CONTINUOUS
 62
    7
 10
139.97163180092417
 20
50.753171054899539
 11
156.77163180092418
 21
67.553171054899551
  0
LINE
  8
_1-a_元図__躯体
  6
CONTINUOUS
 62
    7
 10
125.95263180092417
 20
137.75317105489955
 11
125.95263180092417
 21
67.553171054899551
  0
LINE
  8
_1-a_元図__躯体
  6
CONTINUOUS
 62
    7
 10
125.95263180092417
 20
121.76062105489954
 11
134.55263180092416
 21
140.75317105489955
  0
LINE
  8
_1-a_元図__躯体
  6
CONTINUOUS
 62
    7
 10
84.552631800924161
 20
126.30242105489954
 11
122.49298180092417
 21
164.24277105489955
  0
LINE
  8
_1-a_元図__躯体
  6
CONTINUOUS
 62
    7
 10
84.552631800924161
 20
124.03967105489954
 11
124.65443180092417
 21
164.14147105489954
  0
LINE
  8
_1-a_元図__躯体
  6
CONTINUOUS
 62
    7
 10
84.552631800924161
 20
67.471171054899543
 11
106.55263180092416
 21
89.471171054899543
  0
LINE
  8
_1-a_元図__躯体
  6
CONTINUOUS
 62
    7
 10
141.10298180092417
 20
50.753171054899539
 11
157.90298180092418
 21
67.553171054899551
  0
LINE
  8
_1-a_元図__躯体
  6
CONTINUOUS
 62
    7
 10
138.84023180092416
 20
50.753171054899539
 11
155.64023180092417
 21
67.553171054899551
  0
LINE
  8
_1-a_元図__躯体
  6
CONTINUOUS
 62
    7
 10
164.01658180092417
 20
31.695371054899539
 11
182.27443180092416
 21
49.953171054899542
  0
LINE
  8
_1-a_元図__躯体
  6
CONTINUOUS
 62
    7
 10
166.27933180092418
 20
31.695371054899539
 11
184.53718180092417
 21
49.953171054899542
  0
LINE
  8
_1-a_元図__躯体
  6
CONTINUOUS
 62
    7
 10
126.79963180092417
 20
140.29417105489955
 11
129.34063180092417
 21
140.29417105489955
  0
LINE
  8
_1-a_元図__躯体
  6
CONTINUOUS
 62
    7
 10
129.34063180092417
 20
140.29417105489955
 11
129.34063180092417
 21
137.75317105489955
  0
LINE
  8
_1-a_元図__躯体
  6
CONTINUOUS
 62
    7
 10
126.79963180092417
 20
140.29417105489955
 11
125.95263180092417
 21
137.75317105489955
  0
LINE
  8
_1-a_元図__躯体
  6
CONTINUOUS
 62
    7
 10
84.552631800924161
 20
69.733871054899538
 11
105.98693180092417
 21
91.168221054899547
  0
ARC
  8
_1-4_リベットル__フ
  6
CONTINUOUS
 62
    6
 10
136.66588180092407
 20
68.653171054899545
 40
0.4
 50
225.00000000000006
 51
270.00000000000006
  0
ARC
  8
_1-4_リベットル__フ
  6
CONTINUOUS
 62
    6
 10
136.66588180092407
 20
68.653171054899545
 40
0.4
 50
225.00000000000006
 51
270.00000000000006
  0
LINE
  8
_1-4_リベットル__フ
  6
CONTINUOUS
 62
    6
 10
134.6526318009241
 20
160.71772105489953
 11
134.6526318009241
 21
140.73157105489955
  0
LINE
  8
_1-4_リベットル__フ
  6
CONTINUOUS
 62
    6
 10
134.95263180092411
 20
160.83787105489955
 11
134.95263180092411
 21
140.66682105489954
  0
LINE
  8
_1-4_リベットル__フ
  6
CONTINUOUS
 62
    6
 10
131.60063180092408
 20
163.91607105489956
 11
134.6526318009241
 21
160.71772105489953
  0
LINE
  8
_1-4_リベットル__フ
  6
CONTINUOUS
 62
    6
 10
131.73468180092408
 20
164.21012105489956
 11
134.95263180092411
 21
160.83787105489955
  0
LINE
  8
_1-4_リベットル__フ
  6
CONTINUOUS
 62
    6
 10
84.552631800924075
 20
166.62137105489956
 11
97.284531800924071
 21
166.02472105489954
  0
LINE
  8
_1-4_リベットル__フ
  6
CONTINUOUS
 62
    6
 10
84.566681800924073
 20
166.92102105489954
 11
97.371381800924098
 21
166.32097105489953
  0
LINE
  8
_1-4_リベットル__フ
  6
CONTINUOUS
 62
    6
 10
98.228081800924087
 20
165.47997105489955
 11
131.60063180092408
 21
163.91607105489956
  0
LINE
  8
_1-4_リベットル__フ
  6
CONTINUOUS
 62
    6
 10
98.314981800924102
 20
165.77622105489957
 11
131.73468180092408
 21
164.21012105489956
  0
LINE
  8
_1-4_リベットル__フ
  6
CONTINUOUS
 62
    6
 10
126.35263180092409
 20
121.67427105489955
 11
126.35263180092409
 21
69.553171054899551
  0
LINE
  8
_1-4_リベットル__フ
  6
CONTINUOUS
 62
    6
 10
136.01733180092407
 20
68.736021054899538
 11
136.38303180092407
 21
68.370321054899549
  0
LINE
  8
_1-4_リベットル__フ
  6
CONTINUOUS
 62
    6
 10
135.69308180092406
 20
68.553171054899551
 11
135.6526318009241
 21
68.553171054899551
  0
LINE
  8
_1-4_リベットル__フ
  6
CONTINUOUS
 62
    6
 10
135.8344818009241
 20
68.494571054899538
 11
136.25873180092407
 21
68.070321054899551
  0
LINE
  8
_1-4_リベットル__フ
  6
CONTINUOUS
 62
    6
 10
126.35263180092409
 20
68.553171054899551
 11
126.35263180092409
 21
68.853171054899548
  0
LINE
  8
_1-4_リベットル__フ
  6
CONTINUOUS
 62
    6
 10
135.25263180092412
 20
69.153171054899545
 11
135.25263180092412
 21
68.853171054899548
  0
LINE
  8
_1-4_リベットル__フ
  6
CONTINUOUS
 62
    6
 10
126.75263180092406
 20
69.153171054899545
 11
135.25263180092412
 21
69.153171054899545
  0
LINE
  8
_1-4_リベットル__フ
  6
CONTINUOUS
 62
    6
 10
136.66588180092407
 20
68.253171054899539
 11
210.20643180092412
 21
68.253171054899539
  0
LINE
  8
_1-4_リベットル__フ
  6
CONTINUOUS
 62
    6
 10
136.54158180092412
 20
67.953171054899542
 11
210.20643180092412
 21
67.953171054899542
  0
LINE
  8
_1-4_リベットル__フ
  6
CONTINUOUS
 62
    6
 10
126.05263180092408
 20
121.73907105489954
 11
126.05263180092408
 21
69.553171054899551
  0
LINE
  8
_1-4_リベットル__フ
  6
CONTINUOUS
 62
    6
 10
135.69308180092406
 20
68.553171054899551
 11
126.35263180092409
 21
68.553171054899551
  0
LINE
  8
_1-4_リベットル__フ
  6
CONTINUOUS
 62
    6
 10
135.73448180092407
 20
68.853171054899548
 11
126.35263180092409
 21
68.853171054899548
  0
LINE
  8
_1-4_リベットル__フ
  6
CONTINUOUS
 62
    6
 10
126.75263180092406
 20
68.853171054899548
 11
135.25263180092412
 21
68.853171054899548
  0
LINE
  8
_1-4_リベットル__フ
  6
CONTINUOUS
 62
    6
 10
84.552631800924075
 20
166.62137105489956
 11
84.566681800924073
 21
166.92102105489954
  0
LINE
  8
_1-4_リベットル__フ
  6
CONTINUOUS
 62
    6
 10
126.05263180092408
 20
121.73907105489954
 11
134.6526318009241
 21
140.73157105489955
  0
LINE
  8
_1-4_リベットル__フ
  6
CONTINUOUS
 62
    6
 10
126.35263180092409
 20
121.67427105489955
 11
134.95263180092411
 21
140.66682105489954
  0
LINE
  8
_1-4_リベットル__フ
  6
CONTINUOUS
 62
    6
 10
97.371381800924098
 20
166.32097105489953
 11
98.314981800924102
 21
165.77622105489957
  0
LINE
  8
_1-4_リベットル__フ
  6
CONTINUOUS
 62
    6
 10
97.284531800924071
 20
166.02472105489954
 11
98.228081800924087
 21
165.47997105489955
  0
ARC
  8
_1-4_リベットル__フ
  6
CONTINUOUS
 62
    6
 10
135.73448180092407
 20
68.453171054899542
 40
0.4
 50
45.000000000000014
 51
90.000000000000028
  0
ARC
  8
_1-4_リベットル__フ
  6
CONTINUOUS
 62
    6
 10
136.54158180092412
 20
68.353171054899548
 40
0.4
 50
225.00000000000006
 51
270.00000000000006
  0
ARC
  8
_1-4_リベットル__フ
  6
CONTINUOUS
 62
    6
 10
135.69308180092406
 20
68.353171054899548
 40
0.2
 50
45.000000000000014
 51
90.000000000000028
  0
ARC
  8
_1-4_リベットル__フ
  6
CONTINUOUS
 62
    6
 10
126.75263180092406
 20
69.553171054899551
 40
0.4
 50
180.00000000000006
 51
270.00000000000006
  0
ARC
  8
_1-4_リベットル__フ
  6
CONTINUOUS
 62
    6
 10
126.75263180092406
 20
69.553171054899551
 40
0.7
 50
180.00000000000006
 51
270.00000000000006
  0
LINE
  8
_1-c_アンカ__類②
  6
CONTINUOUS
 62
    4
 10
92.805631800924118
 20
163.85202105489952
 11
92.72353180092415
 21
164.23627105489953
  0
LINE
  8
_1-c_アンカ__類②
  6
CONTINUOUS
 62
    4
 10
94.078081800924167
 20
164.17277105489956
 11
93.960381800924154
 21
163.79787105489953
  0
LINE
  8
_1-c_アンカ__類②
  6
CONTINUOUS
 62
    4
 10
94.024981800924138
 20
165.17637105489956
 11
92.870231800924159
 21
165.23047105489957
  0
LINE
  8
_1-c_アンカ__類②
  6
CONTINUOUS
 62
    4
 10
94.014681800924166
 20
164.95662105489953
 11
92.85993180092413
 21
165.01072105489953
  0
LINE
  8
_1-c_アンカ__類②
  6
CONTINUOUS
 62
    4
 10
92.747231800924112
 20
159.22967105489954
 11
92.599231800924144
 21
159.91737105489955
  0
LINE
  8
_1-c_アンカ__類②
  6
CONTINUOUS
 62
    4
 10
93.586281800924155
 20
159.19037105489957
 11
92.747231800924112
 21
159.22967105489954
  0
LINE
  8
_1-c_アンカ__類②
  6
CONTINUOUS
 62
    4
 10
93.586281800924155
 20
159.19037105489957
 11
93.797931800924118
 21
159.86117105489956
  0
LINE
  8
_1-c_アンカ__類②
  6
CONTINUOUS
 62
    4
 10
93.822281800924145
 20
160.38062105489956
 11
93.839131800924122
 21
160.74022105489956
  0
LINE
  8
_1-c_アンカ__類②
  6
CONTINUOUS
 62
    4
 10
92.623581800924114
 20
160.43677105489957
 11
92.640431800924148
 21
160.79637105489957
  0
LINE
  8
_1-c_アンカ__類②
  6
CONTINUOUS
 62
    4
 10
93.802131800924144
 20
160.27142105489952
 11
93.592381800924159
 21
160.28127105489955
  0
LINE
  8
_1-c_アンカ__類②
  6
CONTINUOUS
 62
    4
 10
92.843181800924128
 20
160.31637105489955
 11
92.633431800924143
 21
160.32622105489952
  0
LINE
  8
_1-c_アンカ__類②
  6
CONTINUOUS
 62
    4
 10
93.79743180092413
 20
160.17152105489953
 11
93.587681800924145
 21
160.18137105489956
  0
LINE
  8
_1-c_アンカ__類②
  6
CONTINUOUS
 62
    4
 10
93.792781800924161
 20
160.07167105489953
 11
93.582981800924131
 21
160.08147105489957
  0
LINE
  8
_1-c_アンカ__類②
  6
CONTINUOUS
 62
    4
 10
92.833831800924145
 20
160.11657105489957
 11
92.624031800924115
 21
160.12642105489954
  0
LINE
  8
_1-c_アンカ__類②
  6
CONTINUOUS
 62
    4
 10
93.788081800924147
 20
159.97177105489953
 11
93.578331800924161
 21
159.98157105489952
  0
LINE
  8
_1-c_アンカ__類②
  6
CONTINUOUS
 62
    4
 10
92.829131800924131
 20
160.01672105489956
 11
92.619381800924145
 21
160.02652105489955
  0
LINE
  8
_1-c_アンカ__類②
  6
CONTINUOUS
 62
    4
 10
92.823981800924116
 20
159.90682105489952
 11
92.848331800924143
 21
160.42627105489953
  0
LINE
  8
_1-c_アンカ__類②
  6
CONTINUOUS
 62
    4
 10
93.573181800924147
 20
159.87172105489952
 11
93.597531800924116
 21
160.39112105489954
  0
LINE
  8
_1-c_アンカ__類②
  6
CONTINUOUS
 62
    4
 10
92.838531800924159
 20
160.21647105489956
 11
92.628731800924129
 21
160.22632105489953
  0
LINE
  8
_1-c_アンカ__類②
  6
CONTINUOUS
 62
    4
 10
93.797781800924156
 20
159.86117105489956
 11
93.573181800924147
 21
159.87172105489952
  0
LINE
  8
_1-c_アンカ__類②
  6
CONTINUOUS
 62
    4
 10
92.823981800924116
 20
159.90682105489952
 11
92.599231800924144
 21
159.91737105489955
  0
LINE
  8
_1-c_アンカ__類②
  6
CONTINUOUS
 62
    4
 10
93.822281800924145
 20
160.38062105489956
 11
93.597531800924116
 21
160.39112105489954
  0
LINE
  8
_1-c_アンカ__類②
  6
CONTINUOUS
 62
    4
 10
92.848331800924143
 20
160.42627105489953
 11
92.623581800924114
 21
160.43677105489957
  0
LINE
  8
_1-c_アンカ__類②
  6
CONTINUOUS
 62
    4
 10
92.86518180092412
 20
160.78587105489953
 11
92.640431800924148
 21
160.79637105489957
  0
LINE
  8
_1-c_アンカ__類②
  6
CONTINUOUS
 62
    4
 10
93.192981800924144
 20
159.76942105489957
 11
93.488931800924149
 21
160.11897105489953
  0
LINE
  8
_1-c_アンカ__類②
  6
CONTINUOUS
 62
    4
 10
93.197631800924114
 20
159.86927105489957
 11
93.496581800924162
 21
160.22237105489955
  0
LINE
  8
_1-c_アンカ__類②
  6
CONTINUOUS
 62
    4
 10
93.192981800924144
 20
159.76942105489957
 11
92.930981800924144
 21
160.14512105489956
  0
LINE
  8
_1-c_アンカ__類②
  6
CONTINUOUS
 62
    4
 10
93.197631800924114
 20
159.86927105489957
 11
92.933031800924141
 21
160.24877105489952
  0
LINE
  8
_1-c_アンカ__類②
  6
CONTINUOUS
 62
    4
 10
93.514181800924121
 20
160.21547105489952
 11
93.512481800924149
 21
160.17892105489955
  0
LINE
  8
_1-c_アンカ__類②
  6
CONTINUOUS
 62
    4
 10
92.91488180092415
 20
160.24352105489953
 11
92.913131800924134
 21
160.20697105489955
  0
LINE
  8
_1-c_アンカ__類②
  6
CONTINUOUS
 62
    4
 10
93.171431800924154
 20
159.30992105489952
 11
93.467381800924159
 21
159.65947105489954
  0
LINE
  8
_1-c_アンカ__類②
  6
CONTINUOUS
 62
    4
 10
93.176131800924111
 20
159.40977105489952
 11
93.475031800924114
 21
159.76287105489956
  0
LINE
  8
_1-c_アンカ__類②
  6
CONTINUOUS
 62
    4
 10
93.492681800924117
 20
159.75597105489953
 11
93.490931800924159
 21
159.71942105489956
  0
LINE
  8
_1-c_アンカ__類②
  6
CONTINUOUS
 62
    4
 10
93.176131800924111
 20
159.40977105489952
 11
92.911531800924138
 21
159.78927105489953
  0
LINE
  8
_1-c_アンカ__類②
  6
CONTINUOUS
 62
    4
 10
92.893331800924159
 20
159.78402105489954
 11
92.891631800924131
 21
159.74747105489956
  0
LINE
  8
_1-c_アンカ__類②
  6
CONTINUOUS
 62
    4
 10
93.171431800924154
 20
159.30992105489952
 11
92.909481800924141
 21
159.68562105489957
  0
LINE
  8
_1-c_アンカ__類②
  6
CONTINUOUS
 62
    4
 10
92.86518180092412
 20
160.78587105489953
 11
92.86578180092414
 21
161.54667105489955
  0
LINE
  8
_1-c_アンカ__類②
  6
CONTINUOUS
 62
    4
 10
93.61438180092415
 20
160.75077105489953
 11
93.684881800924131
 21
161.50827105489952
  0
LINE
  8
_1-c_アンカ__類②
  6
CONTINUOUS
 62
    4
 10
93.915581800924144
 20
161.83782105489956
 11
93.700831800924163
 21
161.84792105489953
  0
LINE
  8
_1-c_アンカ__類②
  6
CONTINUOUS
 62
    4
 10
92.881731800924115
 20
161.88627105489957
 11
92.666931800924147
 21
161.89637105489953
  0
LINE
  8
_1-c_アンカ__類②
  6
CONTINUOUS
 62
    4
 10
93.891931800924169
 20
161.49857105489957
 11
93.684881800924131
 21
161.50827105489952
  0
LINE
  8
_1-c_アンカ__類②
  6
CONTINUOUS
 62
    4
 10
92.86578180092414
 20
161.54667105489955
 11
92.658781800924146
 21
161.55637105489956
  0
LINE
  8
_1-c_アンカ__類②
  6
CONTINUOUS
 62
    4
 10
92.658781800924146
 20
161.55637105489956
 11
92.666931800924147
 21
161.89637105489953
  0
LINE
  8
_1-c_アンカ__類②
  6
CONTINUOUS
 62
    4
 10
93.891931800924169
 20
161.49857105489957
 11
93.915581800924144
 21
161.83782105489956
  0
LINE
  8
_1-c_アンカ__類②
  6
CONTINUOUS
 62
    4
 10
92.865731800924152
 20
161.48657105489957
 11
92.660381800924142
 21
161.49622105489954
  0
LINE
  8
_1-c_アンカ__類②
  6
CONTINUOUS
 62
    4
 10
93.839131800924122
 20
160.74022105489956
 11
93.61438180092415
 21
160.75077105489953
  0
LINE
  8
_1-c_アンカ__類②
  6
CONTINUOUS
 62
    4
 10
93.884781800924145
 20
161.43882105489956
 11
93.67768180092412
 21
161.44857105489956
  0
LINE
  8
_1-c_アンカ__類②
  6
CONTINUOUS
 62
    4
 10
92.649181800924168
 20
159.91502105489957
 11
92.673531800924138
 21
160.43442105489953
  0
LINE
  8
_1-c_アンカ__類②
  6
CONTINUOUS
 62
    4
 10
93.747981800924151
 20
159.86352105489954
 11
93.772331800924121
 21
160.38297105489954
  0
LINE
  8
_1-c_アンカ__類②
  6
CONTINUOUS
 62
    4
 10
92.690381800924115
 20
160.79402105489953
 11
92.690981800924135
 21
161.55487105489954
  0
LINE
  8
_1-c_アンカ__類②
  6
CONTINUOUS
 62
    4
 10
92.684431800924131
 20
162.69642105489953
 11
92.700331800924118
 21
163.03602105489955
  0
LINE
  8
_1-c_アンカ__類②
  6
CONTINUOUS
 62
    4
 10
93.973031800924161
 20
162.63602105489957
 11
93.988931800924149
 21
162.97567105489952
  0
LINE
  8
_1-c_アンカ__類②
  6
CONTINUOUS
 62
    4
 10
92.881731800924115
 20
161.88627105489957
 11
92.899181800924168
 21
162.68632105489957
  0
LINE
  8
_1-c_アンカ__類②
  6
CONTINUOUS
 62
    4
 10
93.700831800924163
 20
161.84792105489953
 11
93.758231800924136
 21
162.64607105489955
  0
LINE
  8
_1-c_アンカ__類②
  6
CONTINUOUS
 62
    4
 10
93.973031800924161
 20
162.63602105489957
 11
93.758231800924136
 21
162.64607105489955
  0
LINE
  8
_1-c_アンカ__類②
  6
CONTINUOUS
 62
    4
 10
92.899181800924168
 20
162.68632105489957
 11
92.684431800924131
 21
162.69642105489953
  0
LINE
  8
_1-c_アンカ__類②
  6
CONTINUOUS
 62
    4
 10
92.866181800924153
 20
160.90592105489952
 11
92.643731800924115
 21
160.91637105489957
  0
LINE
  8
_1-c_アンカ__類②
  6
CONTINUOUS
 62
    4
 10
92.867231800924117
 20
161.02602105489956
 11
92.647181800924159
 21
161.03632105489953
  0
LINE
  8
_1-c_アンカ__類②
  6
CONTINUOUS
 62
    4
 10
92.86823180092415
 20
161.14612105489954
 11
92.650631800924145
 21
161.15632105489954
  0
LINE
  8
_1-c_アンカ__類②
  6
CONTINUOUS
 62
    4
 10
92.869231800924126
 20
161.26617105489953
 11
92.654081800924132
 21
161.27627105489955
  0
LINE
  8
_1-c_アンカ__類②
  6
CONTINUOUS
 62
    4
 10
92.865681800924165
 20
161.38647105489952
 11
92.657531800924119
 21
161.39622105489957
  0
LINE
  8
_1-c_アンカ__類②
  6
CONTINUOUS
 62
    4
 10
93.877831800924127
 20
161.33907105489953
 11
93.670031800924164
 21
161.34877105489954
  0
LINE
  8
_1-c_アンカ__類②
  6
CONTINUOUS
 62
    4
 10
93.86948180092412
 20
161.21932105489952
 11
93.655231800924128
 21
161.22937105489956
  0
LINE
  8
_1-c_アンカ__類②
  6
CONTINUOUS
 62
    4
 10
93.86113180092417
 20
161.09957105489957
 11
93.64503180092413
 21
161.10972105489952
  0
LINE
  8
_1-c_アンカ__類②
  6
CONTINUOUS
 62
    4
 10
93.852781800924163
 20
160.97982105489956
 11
93.634781800924145
 21
160.99007105489954
  0
LINE
  8
_1-c_アンカ__類②
  6
CONTINUOUS
 62
    4
 10
93.844481800924143
 20
160.86007105489955
 11
93.624581800924148
 21
160.87042105489957
  0
LINE
  8
_1-c_アンカ__類②
  6
CONTINUOUS
 62
    4
 10
93.789181800924155
 20
160.74257105489954
 11
93.841981800924145
 21
161.50092105489955
  0
LINE
  8
_1-c_アンカ__類②
  6
CONTINUOUS
 62
    4
 10
92.699181800924123
 20
161.89482105489952
 11
92.716681800924164
 21
162.69492105489957
  0
LINE
  8
_1-c_アンカ__類②
  6
CONTINUOUS
 62
    4
 10
93.883331800924168
 20
161.83937105489957
 11
93.940781800924128
 21
162.63752105489954
  0
LINE
  8
_1-c_アンカ__類②
  6
CONTINUOUS
 62
    4
 10
93.922481800924118
 20
161.95762105489956
 11
93.709431800924165
 21
161.96762105489955
  0
LINE
  8
_1-c_アンカ__類②
  6
CONTINUOUS
 62
    4
 10
93.931131800924163
 20
162.07737105489957
 11
93.721231800924159
 21
162.08722105489954
  0
LINE
  8
_1-c_アンカ__類②
  6
CONTINUOUS
 62
    4
 10
93.939731800924108
 20
162.19712105489953
 11
93.726681800924155
 21
162.20707105489953
  0
LINE
  8
_1-c_アンカ__類②
  6
CONTINUOUS
 62
    4
 10
93.948331800924109
 20
162.31682105489955
 11
93.735281800924156
 21
162.32682105489954
  0
LINE
  8
_1-c_アンカ__類②
  6
CONTINUOUS
 62
    4
 10
93.956981800924154
 20
162.43657105489956
 11
93.743881800924157
 21
162.44652105489956
  0
LINE
  8
_1-c_アンカ__類②
  6
CONTINUOUS
 62
    4
 10
93.965581800924156
 20
162.55627105489953
 11
93.752481800924159
 21
162.56627105489952
  0
LINE
  8
_1-c_アンカ__類②
  6
CONTINUOUS
 62
    4
 10
92.884331800924144
 20
162.00627105489957
 11
92.671281800924135
 21
162.01627105489956
  0
LINE
  8
_1-c_アンカ__類②
  6
CONTINUOUS
 62
    4
 10
92.886981800924161
 20
162.12632105489956
 11
92.673881800924107
 21
162.13627105489957
  0
LINE
  8
_1-c_アンカ__類②
  6
CONTINUOUS
 62
    4
 10
92.889581800924134
 20
162.24632105489957
 11
92.676531800924124
 21
162.25632105489956
  0
LINE
  8
_1-c_アンカ__類②
  6
CONTINUOUS
 62
    4
 10
92.892181800924163
 20
162.36632105489957
 11
92.679131800924154
 21
162.37632105489956
  0
LINE
  8
_1-c_アンカ__類②
  6
CONTINUOUS
 62
    4
 10
92.894831800924123
 20
162.48632105489952
 11
92.681731800924126
 21
162.49632105489957
  0
LINE
  8
_1-c_アンカ__類②
  6
CONTINUOUS
 62
    4
 10
92.897431800924153
 20
162.60632105489952
 11
92.684381800924143
 21
162.61632105489957
  0
LINE
  8
_1-c_アンカ__類②
  6
CONTINUOUS
 62
    4
 10
92.802831800924139
 20
163.79207105489957
 11
92.870231800924159
 21
165.23047105489957
  0
LINE
  8
_1-c_アンカ__類②
  6
CONTINUOUS
 62
    4
 10
93.957581800924117
 20
163.73797105489956
 11
94.024981800924138
 21
165.17637105489956
  0
LINE
  8
_1-c_アンカ__類②
  6
CONTINUOUS
 62
    4
 10
92.732581800924152
 20
163.03452105489953
 11
92.835081800924115
 21
163.79057105489954
  0
LINE
  8
_1-c_アンカ__類②
  6
CONTINUOUS
 62
    4
 10
93.956681800924116
 20
162.97717105489954
 11
93.925331800924141
 21
163.73947105489952
  0
LINE
  8
_1-c_アンカ__類②
  6
CONTINUOUS
 62
    4
 10
93.957581800924117
 20
163.73797105489956
 11
93.779781800924127
 21
163.74627105489952
  0
LINE
  8
_1-c_アンカ__類②
  6
CONTINUOUS
 62
    4
 10
92.980631800924129
 20
163.78372105489956
 11
92.802831800924139
 21
163.79207105489957
  0
LINE
  8
_1-c_アンカ__類②
  6
CONTINUOUS
 62
    4
 10
93.003131800924109
 20
164.26322105489953
 11
92.825331800924118
 21
164.27152105489955
  0
LINE
  8
_1-c_アンカ__類②
  6
CONTINUOUS
 62
    4
 10
93.007781800924135
 20
164.36312105489952
 11
92.829981800924145
 21
164.37142105489954
  0
LINE
  8
_1-c_アンカ__類②
  6
CONTINUOUS
 62
    4
 10
93.012481800924149
 20
164.46297105489953
 11
92.834681800924159
 21
164.47132105489953
  0
LINE
  8
_1-c_アンカ__類②
  6
CONTINUOUS
 62
    4
 10
93.017181800924163
 20
164.56287105489952
 11
92.839331800924128
 21
164.57122105489952
  0
LINE
  8
_1-c_アンカ__類②
  6
CONTINUOUS
 62
    4
 10
93.021831800924133
 20
164.66277105489957
 11
92.844031800924142
 21
164.67112105489957
  0
LINE
  8
_1-c_アンカ__類②
  6
CONTINUOUS
 62
    4
 10
93.031981800924143
 20
164.76242105489956
 11
92.848731800924156
 21
164.77097105489952
  0
LINE
  8
_1-c_アンカ__類②
  6
CONTINUOUS
 62
    4
 10
93.031181800924116
 20
164.86257105489955
 11
92.853381800924126
 21
164.87087105489957
  0
LINE
  8
_1-c_アンカ__類②
  6
CONTINUOUS
 62
    4
 10
92.980631800924129
 20
163.78372105489956
 11
93.037731800924121
 21
165.00242105489957
  0
LINE
  8
_1-c_アンカ__類②
  6
CONTINUOUS
 62
    4
 10
93.98003180092411
 20
164.21742105489955
 11
93.802231800924119
 21
164.22577105489955
  0
LINE
  8
_1-c_アンカ__類②
  6
CONTINUOUS
 62
    4
 10
93.984731800924123
 20
164.31732105489954
 11
93.806931800924133
 21
164.32567105489954
  0
LINE
  8
_1-c_アンカ__類②
  6
CONTINUOUS
 62
    4
 10
93.98938180092415
 20
164.41722105489953
 11
93.811581800924159
 21
164.42552105489955
  0
LINE
  8
_1-c_アンカ__類②
  6
CONTINUOUS
 62
    4
 10
93.994081800924107
 20
164.51712105489952
 11
93.816281800924116
 21
164.52542105489954
  0
LINE
  8
_1-c_アンカ__類②
  6
CONTINUOUS
 62
    4
 10
93.998781800924121
 20
164.61697105489952
 11
93.82098180092413
 21
164.62532105489953
  0
LINE
  8
_1-c_アンカ__類②
  6
CONTINUOUS
 62
    4
 10
94.003431800924147
 20
164.71687105489957
 11
93.825631800924157
 21
164.72522105489952
  0
LINE
  8
_1-c_アンカ__類②
  6
CONTINUOUS
 62
    4
 10
94.008131800924161
 20
164.81677105489956
 11
93.830331800924171
 21
164.82512105489957
  0
LINE
  8
_1-c_アンカ__類②
  6
CONTINUOUS
 62
    4
 10
93.779781800924127
 20
163.74627105489952
 11
93.836881800924118
 21
164.96497105489954
  0
LINE
  8
_1-c_アンカ__類②
  6
CONTINUOUS
 62
    4
 10
93.974431800924151
 20
164.09757105489956
 11
93.79663180092416
 21
164.10587105489952
  0
LINE
  8
_1-c_アンカ__類②
  6
CONTINUOUS
 62
    4
 10
92.997481800924163
 20
164.14332105489956
 11
92.819681800924116
 21
164.15167105489957
  0
LINE
  8
_1-c_アンカ__類②
  6
CONTINUOUS
 62
    4
 10
93.95753180092413
 20
163.69792105489955
 11
93.778081800924156
 21
163.70632105489955
  0
LINE
  8
_1-c_アンカ__類②
  6
CONTINUOUS
 62
    4
 10
92.899181800924168
 20
162.68632105489957
 11
92.916981800924134
 21
163.02757105489957
  0
LINE
  8
_1-c_アンカ__類②
  6
CONTINUOUS
 62
    4
 10
93.758231800924136
 20
162.64607105489955
 11
93.772331800924121
 21
162.98512105489954
  0
LINE
  8
_1-c_アンカ__類②
  6
CONTINUOUS
 62
    4
 10
92.916881800924159
 20
163.02587105489954
 11
92.980631800924129
 21
163.78372105489956
  0
LINE
  8
_1-c_アンカ__類②
  6
CONTINUOUS
 62
    4
 10
93.772331800924121
 20
162.98512105489954
 11
93.779781800924127
 21
163.74627105489952
  0
LINE
  8
_1-c_アンカ__類②
  6
CONTINUOUS
 62
    4
 10
92.926981800924125
 20
163.14557105489956
 11
92.718231800924116
 21
163.15532105489956
  0
LINE
  8
_1-c_アンカ__類②
  6
CONTINUOUS
 62
    4
 10
92.93703180092416
 20
163.26522105489954
 11
92.734381800924155
 21
163.27472105489954
  0
LINE
  8
_1-c_アンカ__類②
  6
CONTINUOUS
 62
    4
 10
92.947081800924138
 20
163.38487105489952
 11
92.750581800924124
 21
163.39407105489954
  0
LINE
  8
_1-c_アンカ__類②
  6
CONTINUOUS
 62
    4
 10
92.957181800924161
 20
163.50452105489956
 11
92.76678180092415
 21
163.51347105489953
  0
LINE
  8
_1-c_アンカ__類②
  6
CONTINUOUS
 62
    4
 10
92.967231800924139
 20
163.62417105489953
 11
92.782931800924132
 21
163.63282105489952
  0
LINE
  8
_1-c_アンカ__類②
  6
CONTINUOUS
 62
    4
 10
92.977281800924118
 20
163.74387105489956
 11
92.799131800924158
 21
163.75222105489956
  0
LINE
  8
_1-c_アンカ__類②
  6
CONTINUOUS
 62
    4
 10
93.962481800924138
 20
163.57757105489952
 11
93.778231800924118
 21
163.58617105489952
  0
LINE
  8
_1-c_アンカ__類②
  6
CONTINUOUS
 62
    4
 10
93.967431800924146
 20
163.45717105489956
 11
93.777031800924135
 21
163.46612105489953
  0
LINE
  8
_1-c_アンカ__類②
  6
CONTINUOUS
 62
    4
 10
93.972381800924154
 20
163.33682105489953
 11
93.775881800924139
 21
163.34602105489955
  0
LINE
  8
_1-c_アンカ__類②
  6
CONTINUOUS
 62
    4
 10
93.977331800924162
 20
163.21647105489956
 11
93.774681800924157
 21
163.22597105489956
  0
LINE
  8
_1-c_アンカ__類②
  6
CONTINUOUS
 62
    4
 10
93.982281800924113
 20
163.09607105489954
 11
93.773531800924161
 21
163.10587105489952
  0
LINE
  8
_1-c_アンカ__類②
  6
CONTINUOUS
 62
    4
 10
92.916881800924159
 20
163.02587105489954
 11
92.700331800924118
 21
163.03602105489955
  0
LINE
  8
_1-c_アンカ__類②
  6
CONTINUOUS
 62
    4
 10
93.988931800924149
 20
162.97567105489952
 11
93.772331800924121
 21
162.98582105489953
  0
LINE
  8
_1-c_アンカ__類②
  6
CONTINUOUS
 62
    4
 10
93.12453180092416
 20
164.07732105489953
 11
93.13303180092413
 21
164.25812105489956
  0
LINE
  8
_1-c_アンカ__類②
  6
CONTINUOUS
 62
    4
 10
93.111381800924107
 20
163.79667105489955
 11
93.119881800924134
 21
163.97742105489954
  0
LINE
  8
_1-c_アンカ__類②
  6
CONTINUOUS
 62
    4
 10
93.064631800924133
 20
164.08012105489956
 11
93.073081800924115
 21
164.26092105489954
  0
LINE
  8
_1-c_アンカ__類②
  6
CONTINUOUS
 62
    4
 10
93.051481800924137
 20
163.79947105489953
 11
93.059931800924119
 21
163.98022105489952
  0
LINE
  8
_1-c_アンカ__類②
  6
CONTINUOUS
 62
    4
 10
93.234181800924148
 20
160.00772105489955
 11
93.174231800924133
 21
160.01052105489953
  0
LINE
  8
_1-c_アンカ__類②
  6
CONTINUOUS
 62
    4
 10
93.234181800924148
 20
160.00772105489955
 11
93.235781800924144
 21
160.04242105489953
  0
LINE
  8
_1-c_アンカ__類②
  6
CONTINUOUS
 62
    4
 10
93.174231800924133
 20
160.01052105489953
 11
93.175881800924117
 21
160.04527105489956
  0
LINE
  8
_1-c_アンカ__類②
  6
CONTINUOUS
 62
    4
 10
93.129281800924161
 20
162.22407105489953
 11
93.530231800924128
 21
162.45717105489956
  0
LINE
  8
_1-c_アンカ__類②
  6
CONTINUOUS
 62
    4
 10
93.008431800924143
 20
161.59907105489953
 11
93.030031800924121
 21
162.06052105489954
  0
LINE
  8
_1-c_アンカ__類②
  6
CONTINUOUS
 62
    4
 10
93.099131800924113
 20
162.27592105489953
 11
93.500081800924136
 21
162.50902105489956
  0
LINE
  8
_1-c_アンカ__類②
  6
CONTINUOUS
 62
    4
 10
92.948481800924128
 20
161.60187105489956
 11
92.970081800924163
 21
162.06332105489952
  0
LINE
  8
_1-c_アンカ__類②
  6
CONTINUOUS
 62
    4
 10
93.659231800924147
 20
162.66977105489957
 11
93.680881800924169
 21
163.13122105489953
  0
LINE
  8
_1-c_アンカ__類②
  6
CONTINUOUS
 62
    4
 10
93.194931800924167
 20
163.62457105489955
 11
93.572281800924145
 21
163.35497105489952
  0
LINE
  8
_1-c_アンカ__類②
  6
CONTINUOUS
 62
    4
 10
93.599331800924119
 20
162.67257105489955
 11
93.620931800924154
 21
163.13402105489956
  0
LINE
  8
_1-c_アンカ__類②
  6
CONTINUOUS
 62
    4
 10
93.160031800924116
 20
163.57572105489953
 11
93.537431800924139
 21
163.30612105489956
  0
LINE
  8
_1-c_アンカ__類②
  6
CONTINUOUS
 62
    4
 10
93.202131800924121
 20
164.47352105489955
 11
93.603031800924157
 21
164.70662105489953
  0
LINE
  8
_1-c_アンカ__類②
  6
CONTINUOUS
 62
    4
 10
93.232281800924113
 20
164.42162105489956
 11
93.633181800924149
 21
164.65477105489953
  0
LINE
  8
_1-c_アンカ__類②
  6
CONTINUOUS
 62
    4
 10
93.762231800924155
 20
164.86737105489954
 11
93.766931800924169
 21
164.96822105489957
  0
LINE
  8
_1-c_アンカ__類②
  6
CONTINUOUS
 62
    4
 10
93.70228180092414
 20
164.87017105489957
 11
93.707031800924142
 21
164.97102105489955
  0
LINE
  8
_1-c_アンカ__類②
  6
CONTINUOUS
 62
    4
 10
93.12453180092416
 20
164.07732105489953
 11
93.064631800924133
 21
164.08012105489956
  0
LINE
  8
_1-c_アンカ__類②
  6
CONTINUOUS
 62
    4
 10
93.119881800924134
 20
163.97742105489954
 11
93.059931800924119
 21
163.98022105489952
  0
LINE
  8
_1-c_アンカ__類②
  6
CONTINUOUS
 62
    4
 10
93.091931800924158
 20
161.42697105489952
 11
93.430581800924131
 21
161.18507105489954
  0
LINE
  8
_1-c_アンカ__類②
  6
CONTINUOUS
 62
    4
 10
93.515081800924122
 20
160.44822105489953
 11
93.539131800924167
 21
160.96132105489954
  0
LINE
  8
_1-c_アンカ__類②
  6
CONTINUOUS
 62
    4
 10
93.335031800924128
 20
160.20597105489952
 11
93.38608180092416
 21
160.23567105489957
  0
LINE
  8
_1-c_アンカ__類②
  6
CONTINUOUS
 62
    4
 10
93.304881800924136
 20
160.25787105489957
 11
93.355931800924111
 21
160.28752105489957
  0
LINE
  8
_1-c_アンカ__類②
  6
CONTINUOUS
 62
    4
 10
93.057081800924152
 20
161.37812105489957
 11
93.395681800924137
 21
161.13622105489952
  0
LINE
  8
_1-c_アンカ__類②
  6
CONTINUOUS
 62
    4
 10
93.455181800924152
 20
160.45107105489956
 11
93.479181800924152
 21
160.96412105489952
  0
LINE
  8
_1-c_アンカ__類②
  6
CONTINUOUS
 62
    4
 10
92.727931800924125
 20
165.54752105489956
 11
92.732131800924151
 21
165.63742105489956
  0
LINE
  8
_1-c_アンカ__類②
  6
CONTINUOUS
 62
    4
 10
94.200531800924125
 20
165.56857105489956
 11
92.732131800924151
 21
165.63742105489956
  0
LINE
  8
_1-c_アンカ__類②
  6
CONTINUOUS
 62
    4
 10
94.196331800924156
 20
165.47867105489956
 11
94.200531800924125
 21
165.56857105489956
  0
LINE
  8
_1-c_アンカ__類②
  6
CONTINUOUS
 62
    4
 10
94.196331800924156
 20
165.47867105489956
 11
92.727931800924125
 21
165.54752105489956
  0
LINE
  8
_1-c_アンカ__類②
  6
CONTINUOUS
 62
    4
 10
92.876781800924164
 20
165.37032105489953
 11
92.727931800924125
 21
165.54752105489956
  0
LINE
  8
_1-c_アンカ__類②
  6
CONTINUOUS
 62
    4
 10
94.031531800924142
 20
165.31622105489953
 11
92.876781800924164
 21
165.37032105489953
  0
LINE
  8
_1-c_アンカ__類②
  6
CONTINUOUS
 62
    4
 10
94.031531800924142
 20
165.31622105489953
 11
94.196331800924156
 21
165.47867105489956
  0
LINE
  8
_1-c_アンカ__類②
  6
CONTINUOUS
 62
    4
 10
93.504131800924142
 20
165.34092105489952
 11
93.449481800924161
 21
165.24337105489957
  0
LINE
  8
_1-c_アンカ__類②
  6
CONTINUOUS
 62
    4
 10
93.449481800924161
 20
165.24337105489957
 11
93.404231800924151
 21
165.34562105489954
  0
LINE
  8
_1-c_アンカ__類②
  6
CONTINUOUS
 62
    4
 10
92.72353180092415
 20
164.23627105489953
 11
92.772231800924146
 21
165.27512105489956
  0
LINE
  8
_1-c_アンカ__類②
  6
CONTINUOUS
 62
    4
 10
92.896781800924146
 20
165.36942105489953
 11
92.772231800924146
 21
165.27512105489956
  0
LINE
  8
_1-c_アンカ__類②
  6
CONTINUOUS
 62
    4
 10
94.126731800924119
 20
165.21167105489957
 11
94.011531800924161
 21
165.31717105489952
  0
LINE
  8
_1-c_アンカ__類②
  6
CONTINUOUS
 62
    4
 10
94.078081800924167
 20
164.17277105489956
 11
94.126731800924119
 21
165.21167105489957
  0
LINE
  8
_1-c_アンカ__類②
  6
CONTINUOUS
 62
    4
 10
93.397681800924147
 20
165.20577105489957
 11
93.449481800924161
 21
165.24337105489957
  0
LINE
  8
_1-c_アンカ__類②
  6
CONTINUOUS
 62
    4
 10
93.497581800924138
 20
165.20107105489956
 11
93.449481800924161
 21
165.24337105489957
  0
LINE
  8
_1-c_アンカ__類②
  6
CONTINUOUS
 62
    4
 10
93.397681800924147
 20
165.20577105489957
 11
93.404231800924151
 21
165.34562105489954
  0
LINE
  8
_1-c_アンカ__類②
  6
CONTINUOUS
 62
    4
 10
93.497581800924138
 20
165.20107105489956
 11
93.504131800924142
 21
165.34092105489952
  0
LINE
  8
_1-c_アンカ__類②
  6
CONTINUOUS
 62
    4
 10
92.890231800924141
 20
165.22957105489957
 11
92.896781800924146
 21
165.36942105489953
  0
LINE
  8
_1-c_アンカ__類②
  6
CONTINUOUS
 62
    4
 10
94.004981800924156
 20
165.17732105489955
 11
94.011531800924161
 21
165.31717105489952
  0
LINE
  8
_1-c_アンカ__類②
  6
CONTINUOUS
 62
    4
 10
130.37468180092412
 20
66.073171054899561
 11
130.27468180092416
 21
66.453171054899556
  0
LINE
  8
_1-c_アンカ__類②
  6
CONTINUOUS
 62
    4
 10
131.63068180092415
 20
66.453171054899556
 11
131.53068180092413
 21
66.073171054899561
  0
LINE
  8
_1-c_アンカ__類②
  6
CONTINUOUS
 62
    4
 10
131.53068180092413
 20
67.453171054899556
 11
130.37468180092412
 21
67.453171054899556
  0
LINE
  8
_1-c_アンカ__類②
  6
CONTINUOUS
 62
    4
 10
131.53068180092413
 20
67.233171054899529
 11
130.37468180092412
 21
67.233171054899529
  0
LINE
  8
_1-c_アンカ__類②
  6
CONTINUOUS
 62
    4
 10
130.53268180092414
 20
61.453171054899556
 11
130.35268180092413
 21
62.133171054899506
  0
LINE
  8
_1-c_アンカ__類②
  6
CONTINUOUS
 62
    4
 10
131.37268180092411
 20
61.453171054899556
 11
130.53268180092414
 21
61.453171054899556
  0
LINE
  8
_1-c_アンカ__類②
  6
CONTINUOUS
 62
    4
 10
131.37268180092411
 20
61.453171054899556
 11
131.55268180092412
 21
62.133171054899506
  0
LINE
  8
_1-c_アンカ__類②
  6
CONTINUOUS
 62
    4
 10
131.55268180092412
 20
62.653171054899545
 11
131.55268180092412
 21
63.013171054899558
  0
LINE
  8
_1-c_アンカ__類②
  6
CONTINUOUS
 62
    4
 10
130.35268180092413
 20
62.653171054899545
 11
130.35268180092413
 21
63.013171054899558
  0
LINE
  8
_1-c_アンカ__類②
  6
CONTINUOUS
 62
    4
 10
131.53768180092413
 20
62.543171054899531
 11
131.32768180092415
 21
62.543171054899531
  0
LINE
  8
_1-c_アンカ__類②
  6
CONTINUOUS
 62
    4
 10
130.57768180092415
 20
62.543171054899531
 11
130.36768180092412
 21
62.543171054899531
  0
LINE
  8
_1-c_アンカ__類②
  6
CONTINUOUS
 62
    4
 10
131.53768180092413
 20
62.443171054899565
 11
131.32768180092415
 21
62.443171054899565
  0
LINE
  8
_1-c_アンカ__類②
  6
CONTINUOUS
 62
    4
 10
131.53768180092413
 20
62.343171054899543
 11
131.32768180092415
 21
62.343171054899543
  0
LINE
  8
_1-c_アンカ__類②
  6
CONTINUOUS
 62
    4
 10
130.57768180092415
 20
62.343171054899543
 11
130.36768180092412
 21
62.343171054899543
  0
LINE
  8
_1-c_アンカ__類②
  6
CONTINUOUS
 62
    4
 10
131.53768180092413
 20
62.24317105489952
 11
131.32768180092415
 21
62.24317105489952
  0
LINE
  8
_1-c_アンカ__類②
  6
CONTINUOUS
 62
    4
 10
130.57768180092415
 20
62.24317105489952
 11
130.36768180092412
 21
62.24317105489952
  0
LINE
  8
_1-c_アンカ__類②
  6
CONTINUOUS
 62
    4
 10
130.57768180092415
 20
62.133171054899506
 11
130.57768180092415
 21
62.653171054899545
  0
LINE
  8
_1-c_アンカ__類②
  6
CONTINUOUS
 62
    4
 10
131.32768180092415
 20
62.133171054899506
 11
131.32768180092415
 21
62.653171054899545
  0
LINE
  8
_1-c_アンカ__類②
  6
CONTINUOUS
 62
    4
 10
130.57768180092415
 20
62.443171054899565
 11
130.36768180092412
 21
62.443171054899565
  0
LINE
  8
_1-c_アンカ__類②
  6
CONTINUOUS
 62
    4
 10
131.55248180092411
 20
62.133171054899506
 11
131.32768180092415
 21
62.133171054899506
  0
LINE
  8
_1-c_アンカ__類②
  6
CONTINUOUS
 62
    4
 10
130.57768180092415
 20
62.133171054899506
 11
130.35268180092413
 21
62.133171054899506
  0
LINE
  8
_1-c_アンカ__類②
  6
CONTINUOUS
 62
    4
 10
131.55268180092412
 20
62.653171054899545
 11
131.32768180092415
 21
62.653171054899545
  0
LINE
  8
_1-c_アンカ__類②
  6
CONTINUOUS
 62
    4
 10
130.57768180092415
 20
62.653171054899545
 11
130.35268180092413
 21
62.653171054899545
  0
LINE
  8
_1-c_アンカ__類②
  6
CONTINUOUS
 62
    4
 10
130.57768180092415
 20
63.013171054899558
 11
130.35268180092413
 21
63.013171054899558
  0
LINE
  8
_1-c_アンカ__類②
  6
CONTINUOUS
 62
    4
 10
130.95268180092415
 20
62.013171054899558
 11
131.23193180092414
 21
62.376221054899545
  0
LINE
  8
_1-c_アンカ__類②
  6
CONTINUOUS
 62
    4
 10
130.95268180092415
 20
62.113171054899524
 11
131.23473180092412
 21
62.479871054899561
  0
LINE
  8
_1-c_アンカ__類②
  6
CONTINUOUS
 62
    4
 10
130.95268180092415
 20
62.013171054899558
 11
130.67343180092416
 21
62.376221054899545
  0
LINE
  8
_1-c_アンカ__類②
  6
CONTINUOUS
 62
    4
 10
130.95268180092415
 20
62.113171054899524
 11
130.67058180092414
 21
62.479871054899561
  0
LINE
  8
_1-c_アンカ__類②
  6
CONTINUOUS
 62
    4
 10
131.25268180092411
 20
62.473771054899558
 11
131.25268180092411
 21
62.437171054899537
  0
LINE
  8
_1-c_アンカ__類②
  6
CONTINUOUS
 62
    4
 10
130.65268180092414
 20
62.473771054899558
 11
130.65268180092414
 21
62.437171054899537
  0
LINE
  8
_1-c_アンカ__類②
  6
CONTINUOUS
 62
    4
 10
130.95268180092415
 20
61.553171054899522
 11
131.23193180092414
 21
61.916221054899509
  0
LINE
  8
_1-c_アンカ__類②
  6
CONTINUOUS
 62
    4
 10
130.95268180092415
 20
61.653171054899545
 11
131.23473180092412
 21
62.019871054899525
  0
LINE
  8
_1-c_アンカ__類②
  6
CONTINUOUS
 62
    4
 10
131.25268180092411
 20
62.013771054899522
 11
131.25268180092411
 21
61.977171054899557
  0
LINE
  8
_1-c_アンカ__類②
  6
CONTINUOUS
 62
    4
 10
130.95268180092415
 20
61.653171054899545
 11
130.67058180092414
 21
62.019871054899525
  0
LINE
  8
_1-c_アンカ__類②
  6
CONTINUOUS
 62
    4
 10
130.65268180092414
 20
62.013771054899522
 11
130.65268180092414
 21
61.977171054899557
  0
LINE
  8
_1-c_アンカ__類②
  6
CONTINUOUS
 62
    4
 10
130.95268180092415
 20
61.553171054899522
 11
130.67343180092416
 21
61.916221054899509
  0
LINE
  8
_1-c_アンカ__類②
  6
CONTINUOUS
 62
    4
 10
130.57768180092415
 20
63.013171054899558
 11
130.54268180092413
 21
63.773171054899549
  0
LINE
  8
_1-c_アンカ__類②
  6
CONTINUOUS
 62
    4
 10
131.32768180092415
 20
63.013171054899558
 11
131.36268180092412
 21
63.773171054899549
  0
LINE
  8
_1-c_アンカ__類②
  6
CONTINUOUS
 62
    4
 10
131.57768180092415
 20
64.113171054899524
 11
131.36268180092412
 21
64.113171054899524
  0
LINE
  8
_1-c_アンカ__類②
  6
CONTINUOUS
 62
    4
 10
130.54268180092413
 20
64.113171054899524
 11
130.32768180092415
 21
64.113171054899524
  0
LINE
  8
_1-c_アンカ__類②
  6
CONTINUOUS
 62
    4
 10
131.56993180092417
 20
63.773171054899549
 11
131.36268180092412
 21
63.773171054899549
  0
LINE
  8
_1-c_アンカ__類②
  6
CONTINUOUS
 62
    4
 10
130.54268180092413
 20
63.773171054899549
 11
130.33538180092415
 21
63.773171054899549
  0
LINE
  8
_1-c_アンカ__類②
  6
CONTINUOUS
 62
    4
 10
130.33538180092415
 20
63.773171054899549
 11
130.32768180092415
 21
64.113171054899524
  0
LINE
  8
_1-c_アンカ__類②
  6
CONTINUOUS
 62
    4
 10
131.56993180092417
 20
63.773171054899549
 11
131.57768180092415
 21
64.113171054899524
  0
LINE
  8
_1-c_アンカ__類②
  6
CONTINUOUS
 62
    4
 10
130.54543180092412
 20
63.713171054899547
 11
130.33988180092416
 21
63.713171054899547
  0
LINE
  8
_1-c_アンカ__類②
  6
CONTINUOUS
 62
    4
 10
131.55268180092412
 20
63.013171054899558
 11
131.32768180092415
 21
63.013171054899558
  0
LINE
  8
_1-c_アンカ__類②
  6
CONTINUOUS
 62
    4
 10
131.56558180092412
 20
63.713171054899547
 11
131.35828180092415
 21
63.713171054899547
  0
LINE
  8
_1-c_アンカ__類②
  6
CONTINUOUS
 62
    4
 10
130.40268180092414
 20
62.133171054899506
 11
130.40268180092414
 21
62.653171054899545
  0
LINE
  8
_1-c_アンカ__類②
  6
CONTINUOUS
 62
    4
 10
131.50268180092411
 20
62.133171054899506
 11
131.50268180092411
 21
62.653171054899545
  0
LINE
  8
_1-c_アンカ__類②
  6
CONTINUOUS
 62
    4
 10
130.40268180092414
 20
63.013171054899558
 11
130.36768180092412
 21
63.773171054899549
  0
LINE
  8
_1-c_アンカ__類②
  6
CONTINUOUS
 62
    4
 10
130.30768180092412
 20
64.913171054899536
 11
130.30768180092412
 21
65.253171054899511
  0
LINE
  8
_1-c_アンカ__類②
  6
CONTINUOUS
 62
    4
 10
131.59768180092414
 20
64.913171054899536
 11
131.59768180092414
 21
65.253171054899511
  0
LINE
  8
_1-c_アンカ__類②
  6
CONTINUOUS
 62
    4
 10
130.54268180092413
 20
64.113171054899524
 11
130.52268180092415
 21
64.913171054899536
  0
LINE
  8
_1-c_アンカ__類②
  6
CONTINUOUS
 62
    4
 10
131.36268180092412
 20
64.113171054899524
 11
131.38268180092416
 21
64.913171054899536
  0
LINE
  8
_1-c_アンカ__類②
  6
CONTINUOUS
 62
    4
 10
131.59768180092414
 20
64.913171054899536
 11
131.38268180092416
 21
64.913171054899536
  0
LINE
  8
_1-c_アンカ__類②
  6
CONTINUOUS
 62
    4
 10
130.52268180092415
 20
64.913171054899536
 11
130.30768180092412
 21
64.913171054899536
  0
LINE
  8
_1-c_アンカ__類②
  6
CONTINUOUS
 62
    4
 10
130.57308180092411
 20
63.133171054899506
 11
130.35033180092415
 21
63.133171054899506
  0
LINE
  8
_1-c_アンカ__類②
  6
CONTINUOUS
 62
    4
 10
130.56848180092413
 20
63.253171054899511
 11
130.34818180092412
 21
63.253171054899511
  0
LINE
  8
_1-c_アンカ__類②
  6
CONTINUOUS
 62
    4
 10
130.56388180092415
 20
63.373171054899515
 11
130.34598180092416
 21
63.373171054899515
  0
LINE
  8
_1-c_アンカ__類②
  6
CONTINUOUS
 62
    4
 10
130.55923180092412
 20
63.49317105489952
 11
130.34383180092414
 21
63.49317105489952
  0
LINE
  8
_1-c_アンカ__類②
  6
CONTINUOUS
 62
    4
 10
130.55003180092416
 20
63.613171054899524
 11
130.34168180092416
 21
63.613171054899524
  0
LINE
  8
_1-c_アンカ__類②
  6
CONTINUOUS
 62
    4
 10
131.56333180092412
 20
63.613171054899524
 11
131.35528180092416
 21
63.613171054899524
  0
LINE
  8
_1-c_アンカ__類②
  6
CONTINUOUS
 62
    4
 10
131.56058180092413
 20
63.49317105489952
 11
131.34608180092414
 21
63.49317105489952
  0
LINE
  8
_1-c_アンカ__類②
  6
CONTINUOUS
 62
    4
 10
131.55783180092413
 20
63.373171054899515
 11
131.34148180092416
 21
63.373171054899515
  0
LINE
  8
_1-c_アンカ__類②
  6
CONTINUOUS
 62
    4
 10
131.55513180092413
 20
63.253171054899511
 11
131.33688180092412
 21
63.253171054899511
  0
LINE
  8
_1-c_アンカ__類②
  6
CONTINUOUS
 62
    4
 10
131.55238180092414
 20
63.133171054899506
 11
131.33228180092414
 21
63.133171054899506
  0
LINE
  8
_1-c_アンカ__類②
  6
CONTINUOUS
 62
    4
 10
131.50268180092411
 20
63.013171054899558
 11
131.51993180092416
 21
63.773171054899549
  0
LINE
  8
_1-c_アンカ__類②
  6
CONTINUOUS
 62
    4
 10
130.35993180092413
 20
64.113171054899524
 11
130.33993180092415
 21
64.913171054899536
  0
LINE
  8
_1-c_アンカ__類②
  6
CONTINUOUS
 62
    4
 10
131.54538180092413
 20
64.113171054899524
 11
131.56538180092411
 21
64.913171054899536
  0
LINE
  8
_1-c_アンカ__類②
  6
CONTINUOUS
 62
    4
 10
131.57898180092417
 20
64.233171054899529
 11
131.36568180092416
 21
64.233171054899529
  0
LINE
  8
_1-c_アンカ__類②
  6
CONTINUOUS
 62
    4
 10
131.58198180092415
 20
64.353171054899533
 11
131.37188180092414
 21
64.353171054899533
  0
LINE
  8
_1-c_アンカ__類②
  6
CONTINUOUS
 62
    4
 10
131.58498180092414
 20
64.473171054899538
 11
131.37168180092414
 21
64.473171054899538
  0
LINE
  8
_1-c_アンカ__類②
  6
CONTINUOUS
 62
    4
 10
131.58798180092413
 20
64.593171054899543
 11
131.37468180092412
 21
64.593171054899543
  0
LINE
  8
_1-c_アンカ__類②
  6
CONTINUOUS
 62
    4
 10
131.59098180092411
 20
64.713171054899547
 11
131.37768180092411
 21
64.713171054899547
  0
LINE
  8
_1-c_アンカ__類②
  6
CONTINUOUS
 62
    4
 10
131.59398180092415
 20
64.833171054899552
 11
131.38068180092415
 21
64.833171054899552
  0
LINE
  8
_1-c_アンカ__類②
  6
CONTINUOUS
 62
    4
 10
130.53968180092414
 20
64.233171054899529
 11
130.32638180092414
 21
64.233171054899529
  0
LINE
  8
_1-c_アンカ__類②
  6
CONTINUOUS
 62
    4
 10
130.53668180092416
 20
64.353171054899533
 11
130.32338180092415
 21
64.353171054899533
  0
LINE
  8
_1-c_アンカ__類②
  6
CONTINUOUS
 62
    4
 10
130.53368180092411
 20
64.473171054899538
 11
130.32038180092417
 21
64.473171054899538
  0
LINE
  8
_1-c_アンカ__類②
  6
CONTINUOUS
 62
    4
 10
130.53068180092413
 20
64.593171054899543
 11
130.31738180092412
 21
64.593171054899543
  0
LINE
  8
_1-c_アンカ__類②
  6
CONTINUOUS
 62
    4
 10
130.52768180092414
 20
64.713171054899547
 11
130.31438180092414
 21
64.713171054899547
  0
LINE
  8
_1-c_アンカ__類②
  6
CONTINUOUS
 62
    4
 10
130.52468180092416
 20
64.833171054899552
 11
130.31138180092415
 21
64.833171054899552
  0
LINE
  8
_1-c_アンカ__類②
  6
CONTINUOUS
 62
    4
 10
130.37468180092412
 20
66.013171054899558
 11
130.37468180092412
 21
67.453171054899556
  0
LINE
  8
_1-c_アンカ__類②
  6
CONTINUOUS
 62
    4
 10
131.53068180092413
 20
66.013171054899558
 11
131.53068180092413
 21
67.453171054899556
  0
LINE
  8
_1-c_アンカ__類②
  6
CONTINUOUS
 62
    4
 10
130.33993180092415
 20
65.253171054899511
 11
130.40693180092416
 21
66.013171054899558
  0
LINE
  8
_1-c_アンカ__類②
  6
CONTINUOUS
 62
    4
 10
131.56538180092411
 20
65.253171054899511
 11
131.49838180092416
 21
66.013171054899558
  0
LINE
  8
_1-c_アンカ__類②
  6
CONTINUOUS
 62
    4
 10
131.53068180092413
 20
66.013171054899558
 11
131.35268180092413
 21
66.013171054899558
  0
LINE
  8
_1-c_アンカ__類②
  6
CONTINUOUS
 62
    4
 10
130.55268180092412
 20
66.013171054899558
 11
130.37468180092412
 21
66.013171054899558
  0
LINE
  8
_1-c_アンカ__類②
  6
CONTINUOUS
 62
    4
 10
130.55268180092412
 20
66.49317105489952
 11
130.37468180092412
 21
66.49317105489952
  0
LINE
  8
_1-c_アンカ__類②
  6
CONTINUOUS
 62
    4
 10
130.55268180092412
 20
66.593171054899543
 11
130.37468180092412
 21
66.593171054899543
  0
LINE
  8
_1-c_アンカ__類②
  6
CONTINUOUS
 62
    4
 10
130.55268180092412
 20
66.693171054899565
 11
130.37468180092412
 21
66.693171054899565
  0
LINE
  8
_1-c_アンカ__類②
  6
CONTINUOUS
 62
    4
 10
130.55268180092412
 20
66.793171054899531
 11
130.37468180092412
 21
66.793171054899531
  0
LINE
  8
_1-c_アンカ__類②
  6
CONTINUOUS
 62
    4
 10
130.55268180092412
 20
66.893171054899554
 11
130.37468180092412
 21
66.893171054899554
  0
LINE
  8
_1-c_アンカ__類②
  6
CONTINUOUS
 62
    4
 10
130.55813180092412
 20
66.99317105489952
 11
130.37468180092412
 21
66.99317105489952
  0
LINE
  8
_1-c_アンカ__類②
  6
CONTINUOUS
 62
    4
 10
130.55268180092412
 20
67.093171054899543
 11
130.37468180092412
 21
67.093171054899543
  0
LINE
  8
_1-c_アンカ__類②
  6
CONTINUOUS
 62
    4
 10
130.55268180092412
 20
66.013171054899558
 11
130.55268180092412
 21
67.233171054899529
  0
LINE
  8
_1-c_アンカ__類②
  6
CONTINUOUS
 62
    4
 10
131.53068180092413
 20
66.49317105489952
 11
131.35268180092413
 21
66.49317105489952
  0
LINE
  8
_1-c_アンカ__類②
  6
CONTINUOUS
 62
    4
 10
131.53068180092413
 20
66.593171054899543
 11
131.35268180092413
 21
66.593171054899543
  0
LINE
  8
_1-c_アンカ__類②
  6
CONTINUOUS
 62
    4
 10
131.53068180092413
 20
66.693171054899565
 11
131.35268180092413
 21
66.693171054899565
  0
LINE
  8
_1-c_アンカ__類②
  6
CONTINUOUS
 62
    4
 10
131.53068180092413
 20
66.793171054899531
 11
131.35268180092413
 21
66.793171054899531
  0
LINE
  8
_1-c_アンカ__類②
  6
CONTINUOUS
 62
    4
 10
131.53068180092413
 20
66.893171054899554
 11
131.35268180092413
 21
66.893171054899554
  0
LINE
  8
_1-c_アンカ__類②
  6
CONTINUOUS
 62
    4
 10
131.53068180092413
 20
66.99317105489952
 11
131.35268180092413
 21
66.99317105489952
  0
LINE
  8
_1-c_アンカ__類②
  6
CONTINUOUS
 62
    4
 10
131.53068180092413
 20
67.093171054899543
 11
131.35268180092413
 21
67.093171054899543
  0
LINE
  8
_1-c_アンカ__類②
  6
CONTINUOUS
 62
    4
 10
131.35268180092413
 20
66.013171054899558
 11
131.35268180092413
 21
67.233171054899529
  0
LINE
  8
_1-c_アンカ__類②
  6
CONTINUOUS
 62
    4
 10
131.53068180092413
 20
66.373171054899515
 11
131.35268180092413
 21
66.373171054899515
  0
LINE
  8
_1-c_アンカ__類②
  6
CONTINUOUS
 62
    4
 10
130.55268180092412
 20
66.373171054899515
 11
130.37468180092412
 21
66.373171054899515
  0
LINE
  8
_1-c_アンカ__類②
  6
CONTINUOUS
 62
    4
 10
131.53248180092413
 20
65.973171054899538
 11
131.35288180092414
 21
65.973171054899538
  0
LINE
  8
_1-c_アンカ__類②
  6
CONTINUOUS
 62
    4
 10
130.52268180092415
 20
64.913171054899536
 11
130.52448180092415
 21
65.254871054899539
  0
LINE
  8
_1-c_アンカ__類②
  6
CONTINUOUS
 62
    4
 10
131.38268180092416
 20
64.913171054899536
 11
131.38088180092416
 21
65.252471054899573
  0
LINE
  8
_1-c_アンカ__類②
  6
CONTINUOUS
 62
    4
 10
130.52448180092415
 20
65.253171054899511
 11
130.55268180092412
 21
66.013171054899558
  0
LINE
  8
_1-c_アンカ__類②
  6
CONTINUOUS
 62
    4
 10
131.38088180092416
 20
65.252471054899573
 11
131.35268180092413
 21
66.013171054899558
  0
LINE
  8
_1-c_アンカ__類②
  6
CONTINUOUS
 62
    4
 10
130.52893180092411
 20
65.373171054899515
 11
130.31993180092417
 21
65.373171054899515
  0
LINE
  8
_1-c_アンカ__類②
  6
CONTINUOUS
 62
    4
 10
130.53338180092413
 20
65.49317105489952
 11
130.33053180092412
 21
65.49317105489952
  0
LINE
  8
_1-c_アンカ__類②
  6
CONTINUOUS
 62
    4
 10
130.53783180092415
 20
65.613171054899524
 11
130.34113180092413
 21
65.613171054899524
  0
LINE
  8
_1-c_アンカ__類②
  6
CONTINUOUS
 62
    4
 10
130.54228180092412
 20
65.733171054899529
 11
130.35168180092415
 21
65.733171054899529
  0
LINE
  8
_1-c_アンカ__類②
  6
CONTINUOUS
 62
    4
 10
130.54673180092414
 20
65.853171054899533
 11
130.36228180092411
 21
65.853171054899533
  0
LINE
  8
_1-c_アンカ__類②
  6
CONTINUOUS
 62
    4
 10
130.55118180092416
 20
65.973171054899538
 11
130.37283180092413
 21
65.973171054899538
  0
LINE
  8
_1-c_アンカ__類②
  6
CONTINUOUS
 62
    4
 10
131.54308180092414
 20
65.853171054899533
 11
131.35863180092412
 21
65.853171054899533
  0
LINE
  8
_1-c_アンカ__類②
  6
CONTINUOUS
 62
    4
 10
131.55368180092415
 20
65.733171054899529
 11
131.36308180092414
 21
65.733171054899529
  0
LINE
  8
_1-c_アンカ__類②
  6
CONTINUOUS
 62
    4
 10
131.56423180092412
 20
65.613171054899524
 11
131.36753180092416
 21
65.613171054899524
  0
LINE
  8
_1-c_アンカ__類②
  6
CONTINUOUS
 62
    4
 10
131.57483180092413
 20
65.49317105489952
 11
131.37198180092412
 21
65.49317105489952
  0
LINE
  8
_1-c_アンカ__類②
  6
CONTINUOUS
 62
    4
 10
131.58538180092415
 20
65.373171054899515
 11
131.37643180092414
 21
65.373171054899515
  0
LINE
  8
_1-c_アンカ__類②
  6
CONTINUOUS
 62
    4
 10
130.52448180092415
 20
65.253171054899511
 11
130.30768180092412
 21
65.253171054899511
  0
LINE
  8
_1-c_アンカ__類②
  6
CONTINUOUS
 62
    4
 10
131.59768180092414
 20
65.253171054899511
 11
131.38088180092416
 21
65.253171054899511
  0
LINE
  8
_1-c_アンカ__類②
  6
CONTINUOUS
 62
    4
 10
130.68268180092412
 20
66.31317105489957
 11
130.68268180092412
 21
66.494171054899553
  0
LINE
  8
_1-c_アンカ__類②
  6
CONTINUOUS
 62
    4
 10
130.68268180092412
 20
66.032171054899507
 11
130.68268180092412
 21
66.213171054899547
  0
LINE
  8
_1-c_アンカ__類②
  6
CONTINUOUS
 62
    4
 10
130.62268180092411
 20
66.31317105489957
 11
130.62268180092411
 21
66.494171054899553
  0
LINE
  8
_1-c_アンカ__類②
  6
CONTINUOUS
 62
    4
 10
130.62268180092411
 20
66.032171054899507
 11
130.62268180092411
 21
66.213171054899547
  0
LINE
  8
_1-c_アンカ__類②
  6
CONTINUOUS
 62
    4
 10
130.98268180092413
 20
62.253171054899511
 11
130.92268180092412
 21
62.253171054899511
  0
LINE
  8
_1-c_アンカ__類②
  6
CONTINUOUS
 62
    4
 10
130.98268180092413
 20
62.253171054899511
 11
130.98268180092413
 21
62.287921054899542
  0
LINE
  8
_1-c_アンカ__類②
  6
CONTINUOUS
 62
    4
 10
130.92268180092412
 20
62.253171054899511
 11
130.92268180092412
 21
62.287921054899542
  0
LINE
  8
_1-c_アンカ__類②
  6
CONTINUOUS
 62
    4
 10
130.77418180092417
 20
64.462171054899571
 11
131.16373180092415
 21
64.71377105489951
  0
LINE
  8
_1-c_アンカ__類②
  6
CONTINUOUS
 62
    4
 10
130.68268180092412
 20
63.832171054899518
 11
130.68268180092412
 21
64.294171054899564
  0
LINE
  8
_1-c_アンカ__類②
  6
CONTINUOUS
 62
    4
 10
130.74163180092415
 20
64.512571054899539
 11
131.13118180092414
 21
64.764171054899535
  0
LINE
  8
_1-c_アンカ__類②
  6
CONTINUOUS
 62
    4
 10
130.62268180092411
 20
63.832171054899518
 11
130.62268180092411
 21
64.294171054899564
  0
LINE
  8
_1-c_アンカ__類②
  6
CONTINUOUS
 62
    4
 10
131.28268180092414
 20
64.932171054899541
 11
131.28268180092414
 21
65.39417105489953
  0
LINE
  8
_1-c_アンカ__類②
  6
CONTINUOUS
 62
    4
 10
130.77418180092417
 20
65.864171054899558
 11
131.16373180092415
 21
65.612571054899561
  0
LINE
  8
_1-c_アンカ__類②
  6
CONTINUOUS
 62
    4
 10
131.22268180092414
 20
64.932171054899541
 11
131.22268180092414
 21
65.39417105489953
  0
LINE
  8
_1-c_アンカ__類②
  6
CONTINUOUS
 62
    4
 10
130.74163180092415
 20
65.813771054899533
 11
131.13118180092414
 21
65.562171054899537
  0
LINE
  8
_1-c_アンカ__類②
  6
CONTINUOUS
 62
    4
 10
130.74163180092415
 20
66.712571054899527
 11
131.13118180092414
 21
66.964171054899523
  0
LINE
  8
_1-c_アンカ__類②
  6
CONTINUOUS
 62
    4
 10
130.77418180092417
 20
66.662171054899503
 11
131.16373180092415
 21
66.913771054899556
  0
LINE
  8
_1-c_アンカ__類②
  6
CONTINUOUS
 62
    4
 10
131.28268180092414
 20
67.13217105489953
 11
131.28268180092414
 21
67.233171054899529
  0
LINE
  8
_1-c_アンカ__類②
  6
CONTINUOUS
 62
    4
 10
131.22268180092414
 20
67.13217105489953
 11
131.22268180092414
 21
67.233171054899529
  0
LINE
  8
_1-c_アンカ__類②
  6
CONTINUOUS
 62
    4
 10
130.68268180092412
 20
66.31317105489957
 11
130.62268180092411
 21
66.31317105489957
  0
LINE
  8
_1-c_アンカ__類②
  6
CONTINUOUS
 62
    4
 10
130.68268180092412
 20
66.213171054899547
 11
130.62268180092411
 21
66.213171054899547
  0
LINE
  8
_1-c_アンカ__類②
  6
CONTINUOUS
 62
    4
 10
130.77418180092417
 20
63.664171054899569
 11
131.12373180092413
 21
63.438421054899507
  0
LINE
  8
_1-c_アンカ__類②
  6
CONTINUOUS
 62
    4
 10
131.24268180092412
 20
62.706371054899549
 11
131.24268180092412
 21
63.219971054899545
  0
LINE
  8
_1-c_アンカ__類②
  6
CONTINUOUS
 62
    4
 10
131.07418180092412
 20
62.455921054899548
 11
131.12373180092413
 21
62.487971054899518
  0
LINE
  8
_1-c_アンカ__類②
  6
CONTINUOUS
 62
    4
 10
131.04163180092416
 20
62.506321054899516
 11
131.09118180092412
 21
62.538371054899542
  0
LINE
  8
_1-c_アンカ__類②
  6
CONTINUOUS
 62
    4
 10
130.74163180092415
 20
63.613771054899544
 11
131.09118180092412
 21
63.387971054899552
  0
LINE
  8
_1-c_アンカ__類②
  6
CONTINUOUS
 62
    4
 10
131.18268180092412
 20
62.706371054899549
 11
131.18268180092412
 21
63.219971054899545
  0
LINE
  8
_1-c_アンカ__類②
  6
CONTINUOUS
 62
    4
 10
130.21768180092414
 20
67.763171054899558
 11
130.21768180092414
 21
67.853171054899533
  0
LINE
  8
_1-c_アンカ__類②
  6
CONTINUOUS
 62
    4
 10
131.68768180092417
 20
67.853171054899533
 11
130.21768180092414
 21
67.853171054899533
  0
LINE
  8
_1-c_アンカ__類②
  6
CONTINUOUS
 62
    4
 10
131.68768180092417
 20
67.763171054899558
 11
131.68768180092417
 21
67.853171054899533
  0
LINE
  8
_1-c_アンカ__類②
  6
CONTINUOUS
 62
    4
 10
131.68768180092417
 20
67.763171054899558
 11
130.21768180092414
 21
67.763171054899558
  0
LINE
  8
_1-c_アンカ__類②
  6
CONTINUOUS
 62
    4
 10
130.37468180092412
 20
67.593171054899543
 11
130.21768180092414
 21
67.763171054899558
  0
LINE
  8
_1-c_アンカ__類②
  6
CONTINUOUS
 62
    4
 10
131.53068180092413
 20
67.593171054899543
 11
130.37468180092412
 21
67.593171054899543
  0
LINE
  8
_1-c_アンカ__類②
  6
CONTINUOUS
 62
    4
 10
131.53068180092413
 20
67.593171054899543
 11
131.68768180092417
 21
67.763171054899558
  0
LINE
  8
_1-c_アンカ__類②
  6
CONTINUOUS
 62
    4
 10
131.00268180092417
 20
67.593171054899543
 11
130.95268180092415
 21
67.49317105489952
  0
LINE
  8
_1-c_アンカ__類②
  6
CONTINUOUS
 62
    4
 10
130.95268180092415
 20
67.49317105489952
 11
130.90268180092414
 21
67.593171054899543
  0
LINE
  8
_1-c_アンカ__類②
  6
CONTINUOUS
 62
    4
 10
130.27468180092416
 20
66.453171054899556
 11
130.27468180092416
 21
67.49317105489952
  0
LINE
  8
_1-c_アンカ__類②
  6
CONTINUOUS
 62
    4
 10
130.39468180092416
 20
67.593171054899543
 11
130.27468180092416
 21
67.49317105489952
  0
LINE
  8
_1-c_アンカ__類②
  6
CONTINUOUS
 62
    4
 10
131.63068180092415
 20
67.49317105489952
 11
131.51068180092415
 21
67.593171054899543
  0
LINE
  8
_1-c_アンカ__類②
  6
CONTINUOUS
 62
    4
 10
131.63068180092415
 20
66.453171054899556
 11
131.63068180092415
 21
67.49317105489952
  0
LINE
  8
_1-c_アンカ__類②
  6
CONTINUOUS
 62
    4
 10
130.90268180092414
 20
67.453171054899556
 11
130.95268180092415
 21
67.49317105489952
  0
LINE
  8
_1-c_アンカ__類②
  6
CONTINUOUS
 62
    4
 10
131.00268180092417
 20
67.453171054899556
 11
130.95268180092415
 21
67.49317105489952
  0
LINE
  8
_1-c_アンカ__類②
  6
CONTINUOUS
 62
    4
 10
130.90268180092414
 20
67.453171054899556
 11
130.90268180092414
 21
67.593171054899543
  0
LINE
  8
_1-c_アンカ__類②
  6
CONTINUOUS
 62
    4
 10
131.00268180092417
 20
67.453171054899556
 11
131.00268180092417
 21
67.593171054899543
  0
LINE
  8
_1-c_アンカ__類②
  6
CONTINUOUS
 62
    4
 10
130.39468180092416
 20
67.453171054899556
 11
130.39468180092416
 21
67.593171054899543
  0
LINE
  8
_1-c_アンカ__類②
  6
CONTINUOUS
 62
    4
 10
131.51068180092415
 20
67.453171054899556
 11
131.51068180092415
 21
67.593171054899543
  0
ARC
  8
_1-c_アンカ__類②
  6
CONTINUOUS
 62
    4
 10
93.412581800924158
 20
160.18357105489952
 40
0.1
 50
319.74801332285648
 51
357.31701332285644
  0
ARC
  8
_1-c_アンカ__類②
  6
CONTINUOUS
 62
    4
 10
93.504231800924117
 20
160.21592105489952
 40
0.01
 50
357.31701332285644
 51
139.74801332285654
  0
ARC
  8
_1-c_アンカ__類②
  6
CONTINUOUS
 62
    4
 10
93.013031800924125
 20
160.20232105489953
 40
0.1
 50
177.31701332285641
 51
214.88601332285637
  0
ARC
  8
_1-c_アンカ__類②
  6
CONTINUOUS
 62
    4
 10
92.924831800924153
 20
160.24307105489953
 40
0.01
 50
34.886013322856407
 51
177.31701332285641
  0
ARC
  8
_1-c_アンカ__類②
  6
CONTINUOUS
 62
    4
 10
93.391081800924155
 20
159.72407105489953
 40
0.1
 50
319.74801332285648
 51
357.31701332285644
  0
ARC
  8
_1-c_アンカ__類②
  6
CONTINUOUS
 62
    4
 10
93.482681800924126
 20
159.75642105489953
 40
0.01
 50
357.31701332285644
 51
139.74801332285654
  0
ARC
  8
_1-c_アンカ__類②
  6
CONTINUOUS
 62
    4
 10
92.90333180092415
 20
159.78357105489954
 40
0.01
 50
34.886013322856407
 51
177.31701332285641
  0
ARC
  8
_1-c_アンカ__類②
  6
CONTINUOUS
 62
    4
 10
92.991481800924134
 20
159.74282105489954
 40
0.1
 50
177.31701332285641
 51
214.88601332285637
  0
ARC
  8
_1-c_アンカ__類②
  6
CONTINUOUS
 62
    4
 10
93.435581800924126
 20
160.03307105489955
 40
0.26
 50
120.1750133228564
 51
177.31701332285641
  0
ARC
  8
_1-c_アンカ__類②
  6
CONTINUOUS
 62
    4
 10
93.435581800924126
 20
160.03307105489955
 40
0.2
 50
120.1750133228564
 51
177.31701332285641
  0
ARC
  8
_1-c_アンカ__類②
  6
CONTINUOUS
 62
    4
 10
93.22983180092416
 20
162.05117105489956
 40
0.2
 50
120.1750133228564
 51
177.31701332285641
  0
ARC
  8
_1-c_アンカ__類②
  6
CONTINUOUS
 62
    4
 10
93.22983180092416
 20
162.05117105489956
 40
0.26
 50
120.1750133228564
 51
177.31701332285641
  0
ARC
  8
_1-c_アンカ__類②
  6
CONTINUOUS
 62
    4
 10
93.208181800924137
 20
161.58972105489954
 40
0.2
 50
177.31701332285641
 51
234.45901332285649
  0
ARC
  8
_1-c_アンカ__類②
  6
CONTINUOUS
 62
    4
 10
93.208181800924137
 20
161.58972105489954
 40
0.26
 50
177.31701332285641
 51
234.45901332285649
  0
ARC
  8
_1-c_アンカ__類②
  6
CONTINUOUS
 62
    4
 10
93.399531800924137
 20
162.68192105489953
 40
0.26
 50
300.17501332285639
 51
357.31701332285644
  0
ARC
  8
_1-c_アンカ__類②
  6
CONTINUOUS
 62
    4
 10
93.421131800924115
 20
163.14337105489955
 40
0.26
 50
357.31701332285644
 51
54.459013322856471
  0
ARC
  8
_1-c_アンカ__類②
  6
CONTINUOUS
 62
    4
 10
93.421131800924115
 20
163.14337105489955
 40
0.2
 50
357.31701332285644
 51
54.459013322856528
  0
ARC
  8
_1-c_アンカ__類②
  6
CONTINUOUS
 62
    4
 10
93.399531800924137
 20
162.68192105489953
 40
0.2
 50
300.17501332285639
 51
357.31701332285644
  0
ARC
  8
_1-c_アンカ__類②
  6
CONTINUOUS
 62
    4
 10
93.311181800924146
 20
163.78727105489952
 40
0.2
 50
177.31701332285641
 51
234.45901332285649
  0
ARC
  8
_1-c_アンカ__類②
  6
CONTINUOUS
 62
    4
 10
93.311181800924146
 20
163.78727105489952
 40
0.26
 50
177.31701332285641
 51
234.45901332285649
  0
ARC
  8
_1-c_アンカ__類②
  6
CONTINUOUS
 62
    4
 10
93.332781800924124
 20
164.24872105489953
 40
0.26
 50
120.1750133228564
 51
177.31701332285641
  0
ARC
  8
_1-c_アンカ__類②
  6
CONTINUOUS
 62
    4
 10
93.502531800924146
 20
164.87952105489956
 40
0.26
 50
300.17501332285639
 51
357.31701332285644
  0
ARC
  8
_1-c_アンカ__類②
  6
CONTINUOUS
 62
    4
 10
93.332781800924124
 20
164.24872105489953
 40
0.2
 50
120.1750133228564
 51
177.31701332285641
  0
ARC
  8
_1-c_アンカ__類②
  6
CONTINUOUS
 62
    4
 10
93.502531800924146
 20
164.87952105489956
 40
0.2
 50
300.17501332285639
 51
357.31701332285644
  0
ARC
  8
_1-c_アンカ__類②
  6
CONTINUOUS
 62
    4
 10
93.279431800924158
 20
160.97347105489956
 40
0.26
 50
357.31701332285644
 51
54.459013322856471
  0
ARC
  8
_1-c_アンカ__類②
  6
CONTINUOUS
 62
    4
 10
93.255381800924113
 20
160.46042105489954
 40
0.26
 50
300.17501332285639
 51
357.31701332285644
  0
ARC
  8
_1-c_アンカ__類②
  6
CONTINUOUS
 62
    4
 10
93.255381800924113
 20
160.46042105489954
 40
0.2
 50
300.17501332285639
 51
357.31701332285644
  0
ARC
  8
_1-c_アンカ__類②
  6
CONTINUOUS
 62
    4
 10
93.279431800924158
 20
160.97347105489956
 40
0.2
 50
357.31701332285644
 51
54.459013322856528
  0
ARC
  8
_1-c_アンカ__類②
  6
CONTINUOUS
 62
    4
 10
131.15268180092414
 20
62.437171054899537
 40
0.1
 50
322.43100000000004
 51
0.0000000000000572
  0
ARC
  8
_1-c_アンカ__類②
  6
CONTINUOUS
 62
    4
 10
131.24268180092412
 20
62.473771054899558
 40
0.01
 50
0
 51
142.43100000000004
  0
ARC
  8
_1-c_アンカ__類②
  6
CONTINUOUS
 62
    4
 10
130.75268180092417
 20
62.437171054899537
 40
0.1
 50
180.00000000000006
 51
217.56900000000005
  0
ARC
  8
_1-c_アンカ__類②
  6
CONTINUOUS
 62
    4
 10
130.66268180092413
 20
62.473771054899558
 40
0.01
 50
37.56900000000001
 51
180.00000000000003
  0
ARC
  8
_1-c_アンカ__類②
  6
CONTINUOUS
 62
    4
 10
131.15268180092414
 20
61.977171054899557
 40
0.1
 50
322.43100000000004
 51
0.0000000000000572
  0
ARC
  8
_1-c_アンカ__類②
  6
CONTINUOUS
 62
    4
 10
131.24268180092412
 20
62.013771054899522
 40
0.01
 50
0
 51
142.43100000000004
  0
ARC
  8
_1-c_アンカ__類②
  6
CONTINUOUS
 62
    4
 10
130.66268180092413
 20
62.013771054899522
 40
0.01
 50
37.56900000000001
 51
180.00000000000003
  0
ARC
  8
_1-c_アンカ__類②
  6
CONTINUOUS
 62
    4
 10
130.75268180092417
 20
61.977171054899557
 40
0.1
 50
180.00000000000006
 51
217.56900000000005
  0
ARC
  8
_1-c_アンカ__類②
  6
CONTINUOUS
 62
    4
 10
131.18268180092412
 20
62.287921054899542
 40
0.26
 50
122.85800000000002
 51
180.00000000000003
  0
ARC
  8
_1-c_アンカ__類②
  6
CONTINUOUS
 62
    4
 10
131.18268180092412
 20
62.287921054899542
 40
0.2
 50
122.85800000000002
 51
180.00000000000003
  0
ARC
  8
_1-c_アンカ__類②
  6
CONTINUOUS
 62
    4
 10
130.88268180092416
 20
64.294171054899564
 40
0.2
 50
122.85800000000002
 51
180.00000000000003
  0
ARC
  8
_1-c_アンカ__類②
  6
CONTINUOUS
 62
    4
 10
130.88268180092416
 20
64.294171054899564
 40
0.26
 50
122.85800000000002
 51
180.00000000000003
  0
ARC
  8
_1-c_アンカ__類②
  6
CONTINUOUS
 62
    4
 10
130.88268180092416
 20
63.832171054899518
 40
0.2
 50
180.00000000000006
 51
237.14200000000005
  0
ARC
  8
_1-c_アンカ__類②
  6
CONTINUOUS
 62
    4
 10
130.88268180092416
 20
63.832171054899518
 40
0.26
 50
180.00000000000006
 51
237.14200000000005
  0
ARC
  8
_1-c_アンカ__類②
  6
CONTINUOUS
 62
    4
 10
131.02268180092415
 20
64.932171054899541
 40
0.26
 50
302.85800000000006
 51
0.0000000000000826
  0
ARC
  8
_1-c_アンカ__類②
  6
CONTINUOUS
 62
    4
 10
131.02268180092415
 20
65.39417105489953
 40
0.26
 50
0
 51
57.142000000000017
  0
ARC
  8
_1-c_アンカ__類②
  6
CONTINUOUS
 62
    4
 10
131.02268180092415
 20
65.39417105489953
 40
0.2
 50
0.0000000000001017
 51
57.14200000000011
  0
ARC
  8
_1-c_アンカ__類②
  6
CONTINUOUS
 62
    4
 10
131.02268180092415
 20
64.932171054899541
 40
0.2
 50
302.85800000000006
 51
0.0000000000000826
  0
ARC
  8
_1-c_アンカ__類②
  6
CONTINUOUS
 62
    4
 10
130.88268180092416
 20
66.032171054899507
 40
0.2
 50
180.00000000000006
 51
237.14200000000005
  0
ARC
  8
_1-c_アンカ__類②
  6
CONTINUOUS
 62
    4
 10
130.88268180092416
 20
66.032171054899507
 40
0.26
 50
180.00000000000006
 51
237.14200000000005
  0
ARC
  8
_1-c_アンカ__類②
  6
CONTINUOUS
 62
    4
 10
130.88268180092416
 20
66.494171054899553
 40
0.26
 50
122.85800000000002
 51
180.00000000000003
  0
ARC
  8
_1-c_アンカ__類②
  6
CONTINUOUS
 62
    4
 10
131.02268180092415
 20
67.13217105489953
 40
0.26
 50
302.85800000000006
 51
0.0000000000000826
  0
ARC
  8
_1-c_アンカ__類②
  6
CONTINUOUS
 62
    4
 10
130.88268180092416
 20
66.494171054899553
 40
0.2
 50
122.85800000000002
 51
180.00000000000003
  0
ARC
  8
_1-c_アンカ__類②
  6
CONTINUOUS
 62
    4
 10
131.02268180092415
 20
67.13217105489953
 40
0.2
 50
302.85800000000006
 51
0.0000000000000826
  0
ARC
  8
_1-c_アンカ__類②
  6
CONTINUOUS
 62
    4
 10
130.98268180092413
 20
63.219971054899545
 40
0.26
 50
0
 51
57.142000000000017
  0
ARC
  8
_1-c_アンカ__類②
  6
CONTINUOUS
 62
    4
 10
130.98268180092413
 20
62.706371054899549
 40
0.26
 50
302.85800000000006
 51
0.0000000000000826
  0
ARC
  8
_1-c_アンカ__類②
  6
CONTINUOUS
 62
    4
 10
130.98268180092413
 20
62.706371054899549
 40
0.2
 50
302.85800000000006
 51
0.0000000000000826
  0
ARC
  8
_1-c_アンカ__類②
  6
CONTINUOUS
 62
    4
 10
130.98268180092413
 20
63.219971054899545
 40
0.2
 50
0.0000000000001017
 51
57.14200000000011
  0
LINE
  8
_1-2_ハッチング
  6
CONTINUOUS
 62
    4
 10
84.654131800924176
 20
166.10062105489959
 11
84.553381800924171
 21
166.21122105489957
  0
LINE
  8
_1-2_ハッチング
  6
CONTINUOUS
 62
    4
 10
84.891931800924169
 20
166.02507105489957
 11
84.640631800924183
 21
166.30107105489958
  0
LINE
  8
_1-2_ハッチング
  6
CONTINUOUS
 62
    4
 10
85.086081800924177
 20
165.99752105489955
 11
84.771631800924183
 21
166.34287105489955
  0
LINE
  8
_1-2_ハッチング
  6
CONTINUOUS
 62
    4
 10
85.262631800924169
 20
165.98927105489958
 11
84.920181800924183
 21
166.36537105489958
  0
LINE
  8
_1-2_ハッチング
  6
CONTINUOUS
 62
    4
 10
85.426031800924164
 20
165.99547105489955
 11
85.081931800924167
 21
166.37342105489955
  0
LINE
  8
_1-2_ハッチング
  6
CONTINUOUS
 62
    4
 10
85.576381800924167
 20
166.01602105489957
 11
85.256731800924172
 21
166.36712105489954
  0
LINE
  8
_1-2_ハッチング
  6
CONTINUOUS
 62
    4
 10
85.710131800924174
 20
166.05477105489956
 11
85.448081800924172
 21
166.34257105489957
  0
LINE
  8
_1-2_ハッチング
  6
CONTINUOUS
 62
    4
 10
85.808431800924183
 20
166.13247105489955
 11
85.674881800924169
 21
166.27917105489956
  0
LINE
  8
_1-2_ハッチング
  6
CONTINUOUS
 62
    4
 10
84.344231800924177
 20
167.09817105489958
 11
84.051131800924168
 21
166.64487105489957
  0
ARC
  8
_1-2_ハッチング
  6
CONTINUOUS
 62
    4
 10
135.65368180092418
 20
69.069621054899542
 40
0.2367499999999999
 50
216.13300000000004
 51
246.11400000000003
  0
ARC
  8
_1-2_ハッチング
  6
CONTINUOUS
 62
    4
 10
135.11293180092417
 20
69.160321054899569
 40
0.2311999999999999
 50
19.679000000000002
 51
181.77000000000007
  0
ARC
  8
_1-2_ハッチング
  6
CONTINUOUS
 62
    4
 10
135.87798180092418
 20
69.29007105489957
 40
0.5497499999999999
 50
185.41400000000004
 51
220.90800000000004
  0
ARC
  8
_1-2_ハッチング
  6
CONTINUOUS
 62
    4
 10
84.573681800924177
 20
166.77052105489958
 40
0.4
 50
19.341000000000005
 51
125.00200000000004
  0
LINE
  8
_1-2_ハッチング
  6
CONTINUOUS
 62
    4
 10
85.812740768197088
 20
166.15181213190894
 11
85.812740768197088
 21
166.15181213190894
  0
LINE
  8
_1-2_ハッチング
  6
CONTINUOUS
 62
    4
 10
85.812740768197088
 20
166.15181213190894
 11
85.804718777866029
 21
166.18522381919564
  0
LINE
  8
_1-2_ハッチング
  6
CONTINUOUS
 62
    4
 10
85.804718777866029
 20
166.18522381919564
 11
85.777807143329383
 21
166.21851692296408
  0
LINE
  8
_1-2_ハッチング
  6
CONTINUOUS
 62
    4
 10
85.777807143329383
 20
166.21851692296408
 11
85.732823560984585
 21
166.25067984910342
  0
LINE
  8
_1-2_ハッチング
  6
CONTINUOUS
 62
    4
 10
85.732823560984585
 20
166.25067984910342
 11
85.671134834218421
 21
166.2807353433781
  0
LINE
  8
_1-2_ハッチング
  6
CONTINUOUS
 62
    4
 10
85.671134834218421
 20
166.2807353433781
 11
85.594615343777662
 21
166.30777018480342
  0
LINE
  8
_1-2_ハッチング
  6
CONTINUOUS
 62
    4
 10
85.594615343777662
 20
166.30777018480342
 11
85.505590095658619
 21
166.33096293340296
  0
LINE
  8
_1-2_ハッチング
  6
CONTINUOUS
 62
    4
 10
85.505590095658619
 20
166.33096293340296
 11
85.40676407697643
 21
166.34960888924664
  0
LINE
  8
_1-2_ハッチング
  6
CONTINUOUS
 62
    4
 10
85.40676407697643
 20
166.34960888924664
 11
85.301140066300405
 21
166.3631415044014
  0
LINE
  8
_1-2_ハッチング
  6
CONTINUOUS
 62
    4
 10
85.301140066300405
 20
166.3631415044014
 11
85.191927395746575
 21
166.37114959720367
  0
LINE
  8
_1-2_ハッチング
  6
CONTINUOUS
 62
    4
 10
85.191927395746575
 20
166.37114959720367
 11
85.082444437045467
 21
166.37338984580589
  0
LINE
  8
_1-2_ハッチング
  6
CONTINUOUS
 62
    4
 10
85.082444437045467
 20
166.37338984580589
 11
84.976017774496142
 21
166.3697941813879
  0
LINE
  8
_1-2_ハッチング
  6
CONTINUOUS
 62
    4
 10
84.976017774496142
 20
166.3697941813879
 11
84.875881128385686
 21
166.36047185639359
  0
LINE
  8
_1-2_ハッチング
  6
CONTINUOUS
 62
    4
 10
84.875881128385686
 20
166.36047185639359
 11
84.78507710003457
 21
166.34570612495057
  0
LINE
  8
_1-2_ハッチング
  6
CONTINUOUS
 62
    4
 10
84.78507710003457
 20
166.34570612495057
 11
84.706364723895192
 21
166.32594563633688
  0
LINE
  8
_1-2_ハッチング
  6
CONTINUOUS
 62
    4
 10
84.706364723895192
 20
166.32594563633688
 11
84.642135635686159
 21
166.30179080299982
  0
LINE
  8
_1-2_ハッチング
  6
CONTINUOUS
 62
    4
 10
84.642135635686159
 20
166.30179080299982
 11
84.594341403751216
 21
166.27397555732736
  0
LINE
  8
_1-2_ハッチング
  6
CONTINUOUS
 62
    4
 10
84.594341403751216
 20
166.27397555732736
 11
84.564434231642664
 21
166.24334505148406
  0
LINE
  8
_1-2_ハッチング
  6
CONTINUOUS
 62
    4
 10
84.564434231642664
 20
166.24334505148406
 11
84.553322833651251
 21
166.2108299778902
  0
LINE
  8
_1-2_ハッチング
  6
CONTINUOUS
 62
    4
 10
84.553322833651251
 20
166.2108299778902
 11
84.56134482398231
 21
166.1774182906035
  0
LINE
  8
_1-2_ハッチング
  6
CONTINUOUS
 62
    4
 10
84.56134482398231
 20
166.1774182906035
 11
84.588256458518956
 21
166.14412518683505
  0
LINE
  8
_1-2_ハッチング
  6
CONTINUOUS
 62
    4
 10
84.588256458518956
 20
166.14412518683505
 11
84.633240040863754
 21
166.11196226069572
  0
LINE
  8
_1-2_ハッチング
  6
CONTINUOUS
 62
    4
 10
84.633240040863754
 20
166.11196226069572
 11
84.694928767629918
 21
166.08190676642104
  0
LINE
  8
_1-2_ハッチング
  6
CONTINUOUS
 62
    4
 10
84.694928767629918
 20
166.08190676642104
 11
84.771448258070677
 21
166.05487192499572
  0
LINE
  8
_1-2_ハッチング
  6
CONTINUOUS
 62
    4
 10
84.771448258070677
 20
166.05487192499572
 11
84.86047350618972
 21
166.03167917639618
  0
LINE
  8
_1-2_ハッチング
  6
CONTINUOUS
 62
    4
 10
84.86047350618972
 20
166.03167917639618
 11
84.959299524871909
 21
166.0130332205525
  0
LINE
  8
_1-2_ハッチング
  6
CONTINUOUS
 62
    4
 10
84.959299524871909
 20
166.0130332205525
 11
85.064923535547933
 21
165.99950060539774
  0
LINE
  8
_1-2_ハッチング
  6
CONTINUOUS
 62
    4
 10
85.064923535547933
 20
165.99950060539774
 11
85.174136206101764
 21
165.99149251259547
  0
LINE
  8
_1-2_ハッチング
  6
CONTINUOUS
 62
    4
 10
85.174136206101764
 20
165.99149251259547
 11
85.283619164802872
 21
165.98925226399325
  0
LINE
  8
_1-2_ハッチング
  6
CONTINUOUS
 62
    4
 10
85.283619164802872
 20
165.98925226399325
 11
85.390045827352196
 21
165.99284792841124
  0
LINE
  8
_1-2_ハッチング
  6
CONTINUOUS
 62
    4
 10
85.390045827352196
 20
165.99284792841124
 11
85.490182473462653
 21
166.00217025340555
  0
LINE
  8
_1-2_ハッチング
  6
CONTINUOUS
 62
    4
 10
85.490182473462653
 20
166.00217025340555
 11
85.580986501813769
 21
166.01693598484857
  0
LINE
  8
_1-2_ハッチング
  6
CONTINUOUS
 62
    4
 10
85.580986501813769
 20
166.01693598484857
 11
85.659698877953147
 21
166.03669647346226
  0
LINE
  8
_1-2_ハッチング
  6
CONTINUOUS
 62
    4
 10
85.659698877953147
 20
166.03669647346226
 11
85.723927966162179
 21
166.06085130679932
  0
LINE
  8
_1-2_ハッチング
  6
CONTINUOUS
 62
    4
 10
85.723927966162179
 20
166.06085130679932
 11
85.771722198097123
 21
166.08866655247178
  0
LINE
  8
_1-2_ハッチング
  6
CONTINUOUS
 62
    4
 10
85.771722198097123
 20
166.08866655247178
 11
85.801629370205674
 21
166.11929705831508
  0
LINE
  8
_1-2_ハッチング
  6
CONTINUOUS
 62
    4
 10
85.801629370205674
 20
166.11929705831508
 11
85.812740768197088
 21
166.15181213190894
  0
LINE
  8
_1-2_ハッチング
  6
CONTINUOUS
 62
    4
 10
85.812740768197088
 20
166.15181213190894
 11
85.812740768197088
 21
166.15181213190894
  0
LINE
  8
_1-b_その他
  6
CONTINUOUS
 62
    5
 10
89.875731800924171
 20
165.88762105489957
 11
89.963281800924193
 21
165.96737105489956
  0
LINE
  8
_1-b_その他
  6
CONTINUOUS
 62
    5
 10
89.930731800924178
 20
165.76867105489958
 11
90.139881800924201
 21
165.95907105489957
  0
LINE
  8
_1-b_その他
  6
CONTINUOUS
 62
    5
 10
90.107331800924158
 20
165.76042105489955
 11
90.316481800924208
 21
165.95082105489956
  0
LINE
  8
_1-b_その他
  6
CONTINUOUS
 62
    5
 10
90.283931800924165
 20
165.75212105489956
 11
90.493031800924172
 21
165.94252105489957
  0
LINE
  8
_1-b_その他
  6
CONTINUOUS
 62
    5
 10
90.460481800924214
 20
165.74387105489956
 11
90.669631800924179
 21
165.93427105489957
  0
LINE
  8
_1-b_その他
  6
CONTINUOUS
 62
    5
 10
90.637081800924165
 20
165.73557105489957
 11
90.846231800924159
 21
165.92602105489956
  0
LINE
  8
_1-b_その他
  6
CONTINUOUS
 62
    5
 10
90.813681800924172
 20
165.72732105489956
 11
91.022781800924179
 21
165.91772105489957
  0
LINE
  8
_1-b_その他
  6
CONTINUOUS
 62
    5
 10
90.990231800924164
 20
165.71902105489957
 11
91.199381800924186
 21
165.90947105489957
  0
LINE
  8
_1-b_その他
  6
CONTINUOUS
 62
    5
 10
91.166831800924172
 20
165.71077105489957
 11
91.375981800924166
 21
165.90117105489958
  0
LINE
  8
_1-b_その他
  6
CONTINUOUS
 62
    5
 10
91.343431800924179
 20
165.70247105489958
 11
91.552531800924186
 21
165.89292105489957
  0
LINE
  8
_1-b_その他
  6
CONTINUOUS
 62
    5
 10
91.519981800924171
 20
165.69422105489957
 11
91.729131800924193
 21
165.88462105489958
  0
LINE
  8
_1-b_その他
  6
CONTINUOUS
 62
    5
 10
91.696581800924179
 20
165.68592105489955
 11
91.905731800924201
 21
165.87637105489958
  0
LINE
  8
_1-b_その他
  6
CONTINUOUS
 62
    5
 10
91.873181800924158
 20
165.67767105489958
 11
92.082281800924164
 21
165.86807105489956
  0
LINE
  8
_1-b_その他
  6
CONTINUOUS
 62
    5
 10
92.049731800924206
 20
165.66937105489956
 11
92.258881800924172
 21
165.85982105489956
  0
LINE
  8
_1-b_その他
  6
CONTINUOUS
 62
    5
 10
92.226331800924214
 20
165.66112105489958
 11
92.43548180092418
 21
165.85152105489956
  0
LINE
  8
_1-b_その他
  6
CONTINUOUS
 62
    5
 10
92.402931800924165
 20
165.65282105489956
 11
92.569281800924188
 21
165.80432105489956
  0
LINE
  8
_1-b_その他
  6
CONTINUOUS
 62
    5
 10
92.579481800924157
 20
165.64457105489959
 11
92.664731800924216
 21
165.72217105489958
  0
LINE
  8
_1-b_その他
  6
CONTINUOUS
 62
    5
 10
92.756081800924164
 20
165.63627105489957
 11
92.760231800924174
 21
165.64002105489956
  0
LINE
  8
_1-b_その他
  6
CONTINUOUS
 62
    5
 10
94.176581800924168
 20
165.56972105489956
 11
94.172831800924172
 21
165.57382105489955
  0
LINE
  8
_1-b_その他
  6
CONTINUOUS
 62
    5
 10
94.353181800924176
 20
165.56142105489957
 11
94.275581800924158
 21
165.64667105489957
  0
LINE
  8
_1-b_その他
  6
CONTINUOUS
 62
    5
 10
94.529781800924184
 20
165.55317105489956
 11
94.378281800924185
 21
165.71952105489956
  0
LINE
  8
_1-b_その他
  6
CONTINUOUS
 62
    5
 10
94.706331800924175
 20
165.54487105489957
 11
94.515931800924164
 21
165.75402105489957
  0
LINE
  8
_1-b_その他
  6
CONTINUOUS
 62
    5
 10
94.882931800924183
 20
165.53662105489957
 11
94.692531800924172
 21
165.74577105489956
  0
LINE
  8
_1-b_その他
  6
CONTINUOUS
 62
    5
 10
95.059531800924162
 20
165.52832105489958
 11
94.869081800924192
 21
165.73747105489957
  0
LINE
  8
_1-b_その他
  6
CONTINUOUS
 62
    5
 10
95.236081800924183
 20
165.52007105489957
 11
95.0456818009242
 21
165.72922105489957
  0
LINE
  8
_1-b_その他
  6
CONTINUOUS
 62
    5
 10
95.41268180092419
 20
165.51177105489955
 11
95.222281800924208
 21
165.72092105489958
  0
LINE
  8
_1-b_その他
  6
CONTINUOUS
 62
    5
 10
95.589281800924169
 20
165.50352105489958
 11
95.398831800924171
 21
165.71267105489957
  0
LINE
  8
_1-b_その他
  6
CONTINUOUS
 62
    5
 10
95.765831800924161
 20
165.49522105489956
 11
95.575431800924179
 21
165.70437105489958
  0
LINE
  8
_1-b_その他
  6
CONTINUOUS
 62
    5
 10
95.867381800924193
 20
165.56937105489956
 11
95.752031800924158
 21
165.69612105489958
  0
LINE
  8
_1-b_その他
  6
CONTINUOUS
 62
    5
 10
95.873081800924183
 20
165.69042105489956
 11
95.863681800924212
 21
165.49067105489956
  0
LINE
  8
_1-b_その他
  6
CONTINUOUS
 62
    5
 10
89.870281800924175
 20
165.77152105489958
 11
89.879631800924187
 21
165.97127105489957
  0
LINE
  8
_1-b_その他
  6
CONTINUOUS
 62
    5
 10
92.518931800924207
 20
165.84762105489958
 11
89.879631800924187
 21
165.97127105489957
  0
LINE
  8
_1-b_その他
  6
CONTINUOUS
 62
    5
 10
94.432481800924194
 20
165.75792105489955
 11
95.873081800924183
 21
165.69042105489956
  0
LINE
  8
_1-b_その他
  6
CONTINUOUS
 62
    5
 10
95.863681800924212
 20
165.49067105489956
 11
94.167581800924182
 21
165.57012105489957
  0
LINE
  8
_1-b_その他
  6
CONTINUOUS
 62
    5
 10
89.870281800924175
 20
165.77152105489958
 11
92.765081800924179
 21
165.63587105489955
  0
LINE
  8
_1-5_ＦＬ鋼板__ディスク
  6
CONTINUOUS
 62
    5
 10
129.59158180092419
 20
68.333171054899537
 11
126.25273180092415
 21
68.333171054899537
  0
LINE
  8
_1-5_ＦＬ鋼板__ディスク
  6
CONTINUOUS
 62
    5
 10
126.25273180092415
 20
67.953171054899542
 11
127.55273180092416
 21
68.113171054899524
  0
LINE
  8
_1-5_ＦＬ鋼板__ディスク
  6
CONTINUOUS
 62
    5
 10
126.25273180092415
 20
68.553171054899551
 11
135.65248180092414
 21
68.553171054899551
  0
LINE
  8
_1-5_ＦＬ鋼板__ディスク
  6
CONTINUOUS
 62
    5
 10
135.65248180092414
 20
67.953171054899542
 11
134.35248180092418
 21
68.113171054899524
  0
LINE
  8
_1-5_ＦＬ鋼板__ディスク
  6
CONTINUOUS
 62
    5
 10
134.37933180092415
 20
68.33152105489954
 11
134.35248180092418
 21
68.113171054899524
  0
LINE
  8
_1-5_ＦＬ鋼板__ディスク
  6
CONTINUOUS
 62
    5
 10
135.66163180092417
 20
68.173721054899531
 11
134.37933180092415
 21
68.33152105489954
  0
LINE
  8
_1-5_ＦＬ鋼板__ディスク
  6
CONTINUOUS
 62
    5
 10
132.31388180092415
 20
68.333171054899537
 11
135.65248180092414
 21
68.333171054899537
  0
LINE
  8
_1-5_ＦＬ鋼板__ディスク
  6
CONTINUOUS
 62
    5
 10
130.35063180092413
 20
67.853171054899533
 11
129.59158180092419
 21
68.333171054899537
  0
LINE
  8
_1-5_ＦＬ鋼板__ディスク
  6
CONTINUOUS
 62
    5
 10
130.35063180092413
 20
68.10722105489954
 11
130.35063180092413
 21
67.853171054899533
  0
LINE
  8
_1-5_ＦＬ鋼板__ディスク
  6
CONTINUOUS
 62
    5
 10
130.35063180092413
 20
68.10722105489954
 11
129.65053180092417
 21
68.553171054899551
  0
LINE
  8
_1-5_ＦＬ鋼板__ディスク
  6
CONTINUOUS
 62
    5
 10
131.55473180092417
 20
67.853171054899533
 11
132.31388180092415
 21
68.333171054899537
  0
LINE
  8
_1-5_ＦＬ鋼板__ディスク
  6
CONTINUOUS
 62
    5
 10
131.55473180092417
 20
68.10722105489954
 11
131.55473180092417
 21
67.853171054899533
  0
LINE
  8
_1-5_ＦＬ鋼板__ディスク
  6
CONTINUOUS
 62
    5
 10
131.55473180092417
 20
68.10722105489954
 11
132.25493180092417
 21
68.553171054899551
  0
LINE
  8
_1-5_ＦＬ鋼板__ディスク
  6
CONTINUOUS
 62
    5
 10
94.179481800924179
 20
165.82387105489954
 11
94.167581800924154
 21
165.57012105489954
  0
LINE
  8
_1-5_ＦＬ鋼板__ディスク
  6
CONTINUOUS
 62
    5
 10
94.179481800924179
 20
165.82387105489954
 11
94.622181800924182
 21
166.14947105489955
  0
LINE
  8
_1-5_ＦＬ鋼板__ディスク
  6
CONTINUOUS
 62
    5
 10
94.167581800924154
 20
165.57012105489954
 11
94.670781800924146
 21
165.92697105489952
  0
LINE
  8
_1-5_ＦＬ鋼板__ディスク
  6
CONTINUOUS
 62
    5
 10
97.162281800924177
 20
165.42982105489955
 11
95.871181800924148
 21
165.65047105489953
  0
LINE
  8
_1-5_ＦＬ鋼板__ディスク
  6
CONTINUOUS
 62
    5
 10
95.908281800924158
 20
165.86732105489955
 11
95.871181800924148
 21
165.65047105489953
  0
LINE
  8
_1-5_ＦＬ鋼板__ディスク
  6
CONTINUOUS
 62
    5
 10
94.670781800924146
 20
165.92697105489952
 11
97.180081800924142
 21
165.80937105489954
  0
LINE
  8
_1-5_ＦＬ鋼板__ディスク
  6
CONTINUOUS
 62
    5
 10
83.084081800924139
 20
157.68032105489954
 11
83.50538180092417
 21
166.67042105489952
  0
LINE
  8
_1-5_ＦＬ鋼板__ディスク
  6
CONTINUOUS
 62
    5
 10
83.714831800924173
 20
166.44037105489954
 11
92.297381800924143
 21
166.03817105489955
  0
LINE
  8
_1-5_ＦＬ鋼板__ディスク
  6
CONTINUOUS
 62
    5
 10
83.084081800924139
 20
157.68032105489954
 11
84.562981800924149
 21
159.02677105489954
  0
LINE
  8
_1-5_ＦＬ鋼板__ディスク
  6
CONTINUOUS
 62
    5
 10
83.328731800924174
 20
158.20057105489954
 11
83.714831800924173
 21
166.44037105489954
  0
LINE
  8
_1-5_ＦＬ鋼板__ディスク
  6
CONTINUOUS
 62
    5
 10
97.181781800924171
 20
165.64967105489956
 11
95.908281800924158
 21
165.86732105489955
  0
LINE
  8
_1-5_ＦＬ鋼板__ディスク
  6
CONTINUOUS
 62
    5
 10
83.50538180092417
 20
166.67042105489952
 11
97.190381800924172
 21
166.02912105489955
  0
LINE
  8
_1-5_ＦＬ鋼板__ディスク
  6
CONTINUOUS
 62
    5
 10
92.776981800924148
 20
165.88962105489955
 11
92.765081800924179
 21
165.63587105489955
  0
LINE
  8
_1-5_ＦＬ鋼板__ディスク
  6
CONTINUOUS
 62
    5
 10
92.776981800924148
 20
165.88962105489955
 11
92.366581800924166
 21
166.25517105489956
  0
LINE
  8
_1-5_ＦＬ鋼板__ディスク
  6
CONTINUOUS
 62
    5
 10
92.765081800924179
 20
165.63587105489955
 11
92.297381800924143
 21
166.03817105489955
  0
LINE
  8
_1-5_ＦＬ鋼板__ディスク
  6
CONTINUOUS
 62
    5
 10
126.24358180092418
 20
68.173721054899531
 11
127.52588180092414
 21
68.33152105489954
  0
LINE
  8
_1-5_ＦＬ鋼板__ディスク
  6
CONTINUOUS
 62
    5
 10
127.52588180092414
 20
68.33152105489954
 11
127.55273180092416
 21
68.113171054899524
  0
LINE
  8
_1-5_ＦＬ鋼板__ディスク
  6
CONTINUOUS
 62
    5
 10
83.328731800924174
 20
158.20057105489954
 11
84.414831800924162
 21
159.18942105489953
  0
LINE
  8
_1-5_ＦＬ鋼板__ディスク
  6
CONTINUOUS
 62
    5
 10
84.414831800924162
 20
159.18942105489953
 11
84.562981800924149
 21
159.02677105489954
  0
ARC
  8
_1-5_ＦＬ鋼板__ディスク
  6
CONTINUOUS
 62
    5
 10
126.25273180092415
 20
68.253171054899539
 40
0.08
 50
90.000000000000028
 51
263.40600000000006
  0
ARC
  8
_1-5_ＦＬ鋼板__ディスク
  6
CONTINUOUS
 62
    5
 10
126.25273180092415
 20
68.253171054899539
 40
0.3
 50
90.000000000000028
 51
270.00000000000011
  0
ARC
  8
_1-5_ＦＬ鋼板__ディスク
  6
CONTINUOUS
 62
    5
 10
135.65248180092414
 20
68.253171054899539
 40
0.3
 50
270.00000000000006
 51
90.000000000000099
  0
ARC
  8
_1-5_ＦＬ鋼板__ディスク
  6
CONTINUOUS
 62
    5
 10
135.65248180092414
 20
68.253171054899539
 40
0.08
 50
276.59400000000005
 51
90.000000000000071
  0
ARC
  8
_1-5_ＦＬ鋼板__ディスク
  6
CONTINUOUS
 62
    5
 10
97.176331800924174
 20
165.72947105489953
 40
0.3
 50
267.31700000000006
 51
87.317000000000107
  0
ARC
  8
_1-5_ＦＬ鋼板__ディスク
  6
CONTINUOUS
 62
    5
 10
97.176331800924174
 20
165.72947105489953
 40
0.08
 50
273.91100000000006
 51
87.317000000000078
  0
LINE
  8
_1-6_アンカ__類
  6
CONTINUOUS
 62
    4
 10
93.039231800924199
 20
165.60157105489952
 11
92.588481800924171
 21
166.09662105489952
  0
LINE
  8
_1-6_アンカ__類
  6
CONTINUOUS
 62
    4
 10
93.891431800924181
 20
165.56162105489955
 11
94.386531800924189
 21
166.01237105489952
  0
LINE
  8
_1-6_アンカ__類
  6
CONTINUOUS
 62
    4
 10
93.83018180092418
 20
165.50587105489956
 11
93.094981800924188
 21
165.54032105489955
  0
LINE
  8
_1-6_アンカ__類
  6
CONTINUOUS
 62
    4
 10
92.595431800924189
 20
166.24447105489952
 11
92.588481800924171
 21
166.09662105489952
  0
LINE
  8
_1-6_アンカ__類
  6
CONTINUOUS
 62
    4
 10
94.393431800924191
 20
166.16022105489952
 11
94.386531800924189
 21
166.01237105489952
  0
LINE
  8
_1-6_アンカ__類
  6
CONTINUOUS
 62
    4
 10
94.386531800924189
 20
166.01237105489952
 11
92.588481800924171
 21
166.09662105489952
  0
LINE
  8
_1-6_アンカ__類
  6
CONTINUOUS
 62
    4
 10
94.393431800924191
 20
166.16022105489952
 11
92.595431800924189
 21
166.24447105489952
  0
LINE
  8
_1-6_アンカ__類
  6
CONTINUOUS
 62
    4
 10
93.815231800924181
 20
165.18622105489953
 11
93.080031800924189
 21
165.22067105489953
  0
LINE
  8
_1-6_アンカ__類
  6
CONTINUOUS
 62
    4
 10
93.400981800924171
 20
158.75772105489955
 11
92.858731800924176
 21
158.60062105489953
  0
LINE
  8
_1-6_アンカ__類
  6
CONTINUOUS
 62
    4
 10
92.858731800924176
 20
158.60062105489953
 11
92.968181800924185
 21
158.52272105489953
  0
LINE
  8
_1-6_アンカ__類
  6
CONTINUOUS
 62
    4
 10
93.471781800924191
 20
158.68857105489951
 11
92.858731800924176
 21
158.60062105489953
  0
LINE
  8
_1-6_アンカ__類
  6
CONTINUOUS
 62
    4
 10
92.968181800924185
 20
158.52272105489953
 11
93.471781800924191
 21
158.68857105489951
  0
LINE
  8
_1-6_アンカ__類
  6
CONTINUOUS
 62
    4
 10
93.471781800924191
 20
158.68857105489951
 11
93.400981800924171
 21
158.75772105489955
  0
LINE
  8
_1-6_アンカ__類
  6
CONTINUOUS
 62
    4
 10
93.48043180092418
 20
159.13537105489951
 11
92.736181800924186
 21
158.93557105489953
  0
LINE
  8
_1-6_アンカ__類
  6
CONTINUOUS
 62
    4
 10
92.87728180092418
 20
158.86367105489956
 11
93.623331800924177
 21
159.06287105489952
  0
LINE
  8
_1-6_アンカ__類
  6
CONTINUOUS
 62
    4
 10
93.623331800924177
 20
159.06287105489952
 11
92.736181800924186
 21
158.93557105489953
  0
LINE
  8
_1-6_アンカ__類
  6
CONTINUOUS
 62
    4
 10
92.736181800924186
 20
158.93557105489953
 11
92.87728180092418
 21
158.86367105489956
  0
LINE
  8
_1-6_アンカ__類
  6
CONTINUOUS
 62
    4
 10
93.623331800924177
 20
159.06287105489952
 11
93.48043180092418
 21
159.13537105489951
  0
LINE
  8
_1-6_アンカ__類
  6
CONTINUOUS
 62
    4
 10
92.705831800924187
 20
159.30767105489952
 11
92.84803180092419
 21
159.23522105489951
  0
LINE
  8
_1-6_アンカ__類
  6
CONTINUOUS
 62
    4
 10
92.84803180092419
 20
159.23522105489951
 11
93.643931800924179
 21
159.44227105489955
  0
LINE
  8
_1-6_アンカ__類
  6
CONTINUOUS
 62
    4
 10
92.865731800924181
 20
159.61477105489951
 11
92.853181800924176
 21
159.34607105489954
  0
LINE
  8
_1-6_アンカ__類
  6
CONTINUOUS
 62
    4
 10
93.495781800924192
 20
159.40377105489955
 11
93.486681800924174
 21
159.2096710548995
  0
LINE
  8
_1-6_アンカ__類
  6
CONTINUOUS
 62
    4
 10
93.513581800924186
 20
159.78332105489955
 11
93.500981800924194
 21
159.51482105489953
  0
LINE
  8
_1-6_アンカ__類
  6
CONTINUOUS
 62
    4
 10
93.643931800924179
 20
159.44227105489955
 11
92.705831800924187
 21
159.30767105489952
  0
LINE
  8
_1-6_アンカ__類
  6
CONTINUOUS
 62
    4
 10
93.500981800924194
 20
159.51482105489953
 11
92.705831800924187
 21
159.30767105489952
  0
LINE
  8
_1-6_アンカ__類
  6
CONTINUOUS
 62
    4
 10
93.643931800924179
 20
159.44227105489955
 11
93.500981800924194
 21
159.51482105489953
  0
LINE
  8
_1-6_アンカ__類
  6
CONTINUOUS
 62
    4
 10
92.883531800924175
 20
159.99432105489956
 11
92.870931800924183
 21
159.72567105489952
  0
LINE
  8
_1-6_アンカ__類
  6
CONTINUOUS
 62
    4
 10
93.53138180092418
 20
160.16292105489953
 11
93.518781800924188
 21
159.89437105489952
  0
LINE
  8
_1-6_アンカ__類
  6
CONTINUOUS
 62
    4
 10
93.661731800924173
 20
159.82187105489953
 11
92.723631800924181
 21
159.68727105489955
  0
LINE
  8
_1-6_アンカ__類
  6
CONTINUOUS
 62
    4
 10
93.518781800924188
 20
159.89437105489952
 11
92.723631800924181
 21
159.68727105489955
  0
LINE
  8
_1-6_アンカ__類
  6
CONTINUOUS
 62
    4
 10
93.661731800924173
 20
159.82187105489953
 11
93.518781800924188
 21
159.89437105489952
  0
LINE
  8
_1-6_アンカ__類
  6
CONTINUOUS
 62
    4
 10
92.723631800924181
 20
159.68727105489955
 11
92.865731800924181
 21
159.61477105489951
  0
LINE
  8
_1-6_アンカ__類
  6
CONTINUOUS
 62
    4
 10
92.865731800924181
 20
159.61477105489951
 11
93.661731800924173
 21
159.82187105489953
  0
LINE
  8
_1-6_アンカ__類
  6
CONTINUOUS
 62
    4
 10
92.901331800924197
 20
160.37392105489954
 11
92.888731800924177
 21
160.10522105489952
  0
LINE
  8
_1-6_アンカ__類
  6
CONTINUOUS
 62
    4
 10
93.549181800924174
 20
160.54247105489952
 11
93.536581800924182
 21
160.2739710548995
  0
LINE
  8
_1-6_アンカ__類
  6
CONTINUOUS
 62
    4
 10
92.919131800924191
 20
160.75407105489955
 11
92.906531800924199
 21
160.48482105489956
  0
LINE
  8
_1-6_アンカ__類
  6
CONTINUOUS
 62
    4
 10
93.566931800924181
 20
160.9220710548995
 11
93.554381800924176
 21
160.65352105489956
  0
LINE
  8
_1-6_アンカ__類
  6
CONTINUOUS
 62
    4
 10
92.936881800924198
 20
161.13307105489952
 11
92.924331800924165
 21
160.86437105489955
  0
LINE
  8
_1-6_アンカ__類
  6
CONTINUOUS
 62
    4
 10
93.584731800924175
 20
161.30162105489956
 11
93.572131800924183
 21
161.03312105489954
  0
LINE
  8
_1-6_アンカ__類
  6
CONTINUOUS
 62
    4
 10
92.954681800924192
 20
161.51262105489951
 11
92.942081800924171
 21
161.24392105489954
  0
LINE
  8
_1-6_アンカ__類
  6
CONTINUOUS
 62
    4
 10
93.602531800924169
 20
161.68117105489955
 11
93.589931800924177
 21
161.41267105489953
  0
LINE
  8
_1-6_アンカ__類
  6
CONTINUOUS
 62
    4
 10
92.972481800924186
 20
161.89222105489955
 11
92.959881800924165
 21
161.62352105489953
  0
LINE
  8
_1-6_アンカ__類
  6
CONTINUOUS
 62
    4
 10
93.620331800924191
 20
162.06077105489953
 11
93.607731800924171
 21
161.79227105489952
  0
LINE
  8
_1-6_アンカ__類
  6
CONTINUOUS
 62
    4
 10
92.99028180092418
 20
162.27237105489951
 11
92.977681800924188
 21
162.00307105489952
  0
LINE
  8
_1-6_アンカ__類
  6
CONTINUOUS
 62
    4
 10
93.638131800924185
 20
162.44092105489955
 11
93.625531800924193
 21
162.17182105489951
  0
LINE
  8
_1-6_アンカ__類
  6
CONTINUOUS
 62
    4
 10
93.00813180092419
 20
162.65257105489951
 11
92.995481800924182
 21
162.38327105489952
  0
LINE
  8
_1-6_アンカ__類
  6
CONTINUOUS
 62
    4
 10
93.655931800924179
 20
162.82112105489955
 11
93.643331800924187
 21
162.55202105489951
  0
LINE
  8
_1-6_アンカ__類
  6
CONTINUOUS
 62
    4
 10
93.025931800924184
 20
163.03237105489956
 11
93.013281800924176
 21
162.76342105489954
  0
LINE
  8
_1-6_アンカ__類
  6
CONTINUOUS
 62
    4
 10
93.673731800924173
 20
163.20067105489954
 11
93.661131800924181
 21
162.93217105489953
  0
LINE
  8
_1-6_アンカ__類
  6
CONTINUOUS
 62
    4
 10
93.691531800924167
 20
163.58027105489953
 11
93.678931800924175
 21
163.31197105489952
  0
LINE
  8
_1-6_アンカ__類
  6
CONTINUOUS
 62
    4
 10
93.04368180092419
 20
163.41172105489954
 11
93.031081800924198
 21
163.14302105489952
  0
LINE
  8
_1-6_アンカ__類
  6
CONTINUOUS
 62
    4
 10
93.061481800924184
 20
163.7918710548995
 11
93.048881800924164
 21
163.52257105489952
  0
LINE
  8
_1-6_アンカ__類
  6
CONTINUOUS
 62
    4
 10
93.70933180092419
 20
163.96042105489954
 11
93.696731800924169
 21
163.6913210548995
  0
LINE
  8
_1-6_アンカ__類
  6
CONTINUOUS
 62
    4
 10
93.727131800924184
 20
164.34002105489952
 11
93.714531800924192
 21
164.07147105489952
  0
LINE
  8
_1-6_アンカ__類
  6
CONTINUOUS
 62
    4
 10
93.079331800924194
 20
164.17202105489952
 11
93.066681800924187
 21
163.90277105489952
  0
LINE
  8
_1-6_アンカ__類
  6
CONTINUOUS
 62
    4
 10
93.097081800924173
 20
164.55102105489954
 11
93.084481800924181
 21
164.28232105489951
  0
LINE
  8
_1-6_アンカ__類
  6
CONTINUOUS
 62
    4
 10
93.74488180092419
 20
164.71957105489952
 11
93.732331800924186
 21
164.45132105489955
  0
LINE
  8
_1-6_アンカ__類
  6
CONTINUOUS
 62
    4
 10
93.762681800924184
 20
165.09917105489956
 11
93.75013180092418
 21
164.83062105489955
  0
LINE
  8
_1-6_アンカ__類
  6
CONTINUOUS
 62
    4
 10
93.114881800924195
 20
164.93057105489953
 11
93.102281800924175
 21
164.66192105489955
  0
LINE
  8
_1-6_アンカ__類
  6
CONTINUOUS
 62
    4
 10
93.128331800924173
 20
165.21837105489954
 11
93.120081800924197
 21
165.04147105489955
  0
LINE
  8
_1-6_アンカ__類
  6
CONTINUOUS
 62
    4
 10
93.696981800924192
 20
165.1917710548995
 11
92.97273180092418
 21
165.00307105489952
  0
LINE
  8
_1-6_アンカ__類
  6
CONTINUOUS
 62
    4
 10
93.910831800924171
 20
165.13767105489956
 11
93.815231800924181
 21
165.18622105489953
  0
LINE
  8
_1-6_アンカ__類
  6
CONTINUOUS
 62
    4
 10
93.910831800924171
 20
165.13767105489956
 11
92.97273180092418
 21
165.00307105489952
  0
LINE
  8
_1-6_アンカ__類
  6
CONTINUOUS
 62
    4
 10
92.97273180092418
 20
165.00307105489952
 11
93.114881800924195
 21
164.93057105489953
  0
LINE
  8
_1-6_アンカ__類
  6
CONTINUOUS
 62
    4
 10
93.114881800924195
 20
164.93057105489953
 11
93.910831800924171
 21
165.13767105489956
  0
LINE
  8
_1-6_アンカ__類
  6
CONTINUOUS
 62
    4
 10
93.893031800924177
 20
164.7581210548995
 11
92.954931800924186
 21
164.62352105489953
  0
LINE
  8
_1-6_アンカ__類
  6
CONTINUOUS
 62
    4
 10
93.75013180092418
 20
164.83062105489955
 11
92.954931800924186
 21
164.62352105489953
  0
LINE
  8
_1-6_アンカ__類
  6
CONTINUOUS
 62
    4
 10
93.893031800924177
 20
164.7581210548995
 11
93.75013180092418
 21
164.83062105489955
  0
LINE
  8
_1-6_アンカ__類
  6
CONTINUOUS
 62
    4
 10
92.954931800924186
 20
164.62352105489953
 11
93.097081800924173
 21
164.55102105489954
  0
LINE
  8
_1-6_アンカ__類
  6
CONTINUOUS
 62
    4
 10
93.097081800924173
 20
164.55102105489954
 11
93.893031800924177
 21
164.7581210548995
  0
LINE
  8
_1-6_アンカ__類
  6
CONTINUOUS
 62
    4
 10
93.876031800924181
 20
164.37877105489952
 11
92.93793180092419
 21
164.24417105489954
  0
LINE
  8
_1-6_アンカ__類
  6
CONTINUOUS
 62
    4
 10
93.733131800924184
 20
164.45127105489951
 11
92.93793180092419
 21
164.24417105489954
  0
LINE
  8
_1-6_アンカ__類
  6
CONTINUOUS
 62
    4
 10
93.876031800924181
 20
164.37877105489952
 11
93.733131800924184
 21
164.45127105489951
  0
LINE
  8
_1-6_アンカ__類
  6
CONTINUOUS
 62
    4
 10
92.93793180092419
 20
164.24417105489954
 11
93.080081800924177
 21
164.17167105489955
  0
LINE
  8
_1-6_アンカ__類
  6
CONTINUOUS
 62
    4
 10
93.080081800924177
 20
164.17167105489955
 11
93.876031800924181
 21
164.37877105489952
  0
LINE
  8
_1-6_アンカ__類
  6
CONTINUOUS
 62
    4
 10
93.857481800924177
 20
163.99897105489953
 11
92.919331800924169
 21
163.86437105489955
  0
LINE
  8
_1-6_アンカ__類
  6
CONTINUOUS
 62
    4
 10
93.714531800924192
 20
164.07147105489952
 11
92.919331800924169
 21
163.86437105489955
  0
LINE
  8
_1-6_アンカ__類
  6
CONTINUOUS
 62
    4
 10
93.857481800924177
 20
163.99897105489953
 11
93.714531800924192
 21
164.07147105489952
  0
LINE
  8
_1-6_アンカ__類
  6
CONTINUOUS
 62
    4
 10
92.919331800924169
 20
163.86437105489955
 11
93.061481800924184
 21
163.7918710548995
  0
LINE
  8
_1-6_アンカ__類
  6
CONTINUOUS
 62
    4
 10
93.061481800924184
 20
163.7918710548995
 11
93.857481800924177
 21
163.99897105489953
  0
LINE
  8
_1-6_アンカ__類
  6
CONTINUOUS
 62
    4
 10
93.839631800924167
 20
163.61882105489951
 11
92.901531800924175
 21
163.48422105489954
  0
LINE
  8
_1-6_アンカ__類
  6
CONTINUOUS
 62
    4
 10
93.696731800924169
 20
163.6913210548995
 11
92.901531800924175
 21
163.48422105489954
  0
LINE
  8
_1-6_アンカ__類
  6
CONTINUOUS
 62
    4
 10
93.839631800924167
 20
163.61882105489951
 11
93.696731800924169
 21
163.6913210548995
  0
LINE
  8
_1-6_アンカ__類
  6
CONTINUOUS
 62
    4
 10
92.901531800924175
 20
163.48422105489954
 11
93.04368180092419
 21
163.41172105489954
  0
LINE
  8
_1-6_アンカ__類
  6
CONTINUOUS
 62
    4
 10
93.04368180092419
 20
163.41172105489954
 11
93.839631800924167
 21
163.61882105489951
  0
LINE
  8
_1-6_アンカ__類
  6
CONTINUOUS
 62
    4
 10
93.822681800924187
 20
163.23942105489954
 11
92.884531800924179
 21
163.1048210548995
  0
LINE
  8
_1-6_アンカ__類
  6
CONTINUOUS
 62
    4
 10
93.679731800924174
 20
163.31197105489952
 11
92.884531800924179
 21
163.1048210548995
  0
LINE
  8
_1-6_アンカ__類
  6
CONTINUOUS
 62
    4
 10
93.822681800924187
 20
163.23942105489954
 11
93.679731800924174
 21
163.31197105489952
  0
LINE
  8
_1-6_アンカ__類
  6
CONTINUOUS
 62
    4
 10
92.884531800924179
 20
163.1048210548995
 11
93.026681800924166
 21
163.03232105489951
  0
LINE
  8
_1-6_アンカ__類
  6
CONTINUOUS
 62
    4
 10
93.026681800924166
 20
163.03232105489951
 11
93.822681800924187
 21
163.23942105489954
  0
LINE
  8
_1-6_アンカ__類
  6
CONTINUOUS
 62
    4
 10
93.804081800924166
 20
162.85967105489954
 11
92.865981800924175
 21
162.72507105489956
  0
LINE
  8
_1-6_アンカ__類
  6
CONTINUOUS
 62
    4
 10
93.661131800924181
 20
162.93217105489953
 11
92.865981800924175
 21
162.72507105489956
  0
LINE
  8
_1-6_アンカ__類
  6
CONTINUOUS
 62
    4
 10
93.804081800924166
 20
162.85967105489954
 11
93.661131800924181
 21
162.93217105489953
  0
LINE
  8
_1-6_アンカ__類
  6
CONTINUOUS
 62
    4
 10
92.865981800924175
 20
162.72507105489956
 11
93.00813180092419
 21
162.65257105489951
  0
LINE
  8
_1-6_アンカ__類
  6
CONTINUOUS
 62
    4
 10
93.00813180092419
 20
162.65257105489951
 11
93.804081800924166
 21
162.85967105489954
  0
LINE
  8
_1-6_アンカ__類
  6
CONTINUOUS
 62
    4
 10
93.786281800924172
 20
162.47947105489953
 11
92.848131800924193
 21
162.34487105489956
  0
LINE
  8
_1-6_アンカ__類
  6
CONTINUOUS
 62
    4
 10
93.643331800924187
 20
162.55202105489951
 11
92.848131800924193
 21
162.34487105489956
  0
LINE
  8
_1-6_アンカ__類
  6
CONTINUOUS
 62
    4
 10
93.786281800924172
 20
162.47947105489953
 11
93.643331800924187
 21
162.55202105489951
  0
LINE
  8
_1-6_アンカ__類
  6
CONTINUOUS
 62
    4
 10
92.848131800924193
 20
162.34487105489956
 11
92.99028180092418
 21
162.27237105489951
  0
LINE
  8
_1-6_アンカ__類
  6
CONTINUOUS
 62
    4
 10
92.99028180092418
 20
162.27237105489951
 11
93.786281800924172
 21
162.47947105489953
  0
LINE
  8
_1-6_アンカ__類
  6
CONTINUOUS
 62
    4
 10
93.768431800924191
 20
162.09932105489952
 11
92.830331800924171
 21
161.96472105489954
  0
LINE
  8
_1-6_アンカ__類
  6
CONTINUOUS
 62
    4
 10
93.625531800924193
 20
162.17182105489951
 11
92.830331800924171
 21
161.96472105489954
  0
LINE
  8
_1-6_アンカ__類
  6
CONTINUOUS
 62
    4
 10
93.768431800924191
 20
162.09932105489952
 11
93.625531800924193
 21
162.17182105489951
  0
LINE
  8
_1-6_アンカ__類
  6
CONTINUOUS
 62
    4
 10
92.830331800924171
 20
161.96472105489954
 11
92.972481800924186
 21
161.89222105489955
  0
LINE
  8
_1-6_アンカ__類
  6
CONTINUOUS
 62
    4
 10
92.972481800924186
 20
161.89222105489955
 11
93.768431800924191
 21
162.09932105489952
  0
LINE
  8
_1-6_アンカ__類
  6
CONTINUOUS
 62
    4
 10
93.750681800924184
 20
161.71972105489954
 11
92.812531800924177
 21
161.5851210548995
  0
LINE
  8
_1-6_アンカ__類
  6
CONTINUOUS
 62
    4
 10
93.607731800924171
 20
161.79227105489952
 11
92.812531800924177
 21
161.5851210548995
  0
LINE
  8
_1-6_アンカ__類
  6
CONTINUOUS
 62
    4
 10
93.750681800924184
 20
161.71972105489954
 11
93.607731800924171
 21
161.79227105489952
  0
LINE
  8
_1-6_アンカ__類
  6
CONTINUOUS
 62
    4
 10
92.812531800924177
 20
161.5851210548995
 11
92.954681800924192
 21
161.51262105489951
  0
LINE
  8
_1-6_アンカ__類
  6
CONTINUOUS
 62
    4
 10
92.954681800924192
 20
161.51262105489951
 11
93.750681800924184
 21
161.71972105489954
  0
LINE
  8
_1-6_アンカ__類
  6
CONTINUOUS
 62
    4
 10
93.73288180092419
 20
161.34017105489954
 11
92.79478180092417
 21
161.20557105489951
  0
LINE
  8
_1-6_アンカ__類
  6
CONTINUOUS
 62
    4
 10
93.589931800924177
 20
161.41267105489953
 11
92.79478180092417
 21
161.20557105489951
  0
LINE
  8
_1-6_アンカ__類
  6
CONTINUOUS
 62
    4
 10
93.73288180092419
 20
161.34017105489954
 11
93.589931800924177
 21
161.41267105489953
  0
LINE
  8
_1-6_アンカ__類
  6
CONTINUOUS
 62
    4
 10
92.79478180092417
 20
161.20557105489951
 11
92.936881800924198
 21
161.13307105489952
  0
LINE
  8
_1-6_アンカ__類
  6
CONTINUOUS
 62
    4
 10
92.936881800924198
 20
161.13307105489952
 11
93.73288180092419
 21
161.34017105489954
  0
LINE
  8
_1-6_アンカ__類
  6
CONTINUOUS
 62
    4
 10
93.715881800924194
 20
160.96082105489955
 11
92.777781800924174
 21
160.82622105489952
  0
LINE
  8
_1-6_アンカ__類
  6
CONTINUOUS
 62
    4
 10
93.572931800924181
 20
161.03332105489955
 11
92.777781800924174
 21
160.82622105489952
  0
LINE
  8
_1-6_アンカ__類
  6
CONTINUOUS
 62
    4
 10
93.715881800924194
 20
160.96082105489955
 11
93.572931800924181
 21
161.03332105489955
  0
LINE
  8
_1-6_アンカ__類
  6
CONTINUOUS
 62
    4
 10
92.777781800924174
 20
160.82622105489952
 11
92.919931800924189
 21
160.75367105489954
  0
LINE
  8
_1-6_アンカ__類
  6
CONTINUOUS
 62
    4
 10
92.919931800924189
 20
160.75367105489954
 11
93.715881800924194
 21
160.96082105489955
  0
LINE
  8
_1-6_アンカ__類
  6
CONTINUOUS
 62
    4
 10
93.697281800924173
 20
160.58102105489951
 11
92.759181800924182
 21
160.44642105489953
  0
LINE
  8
_1-6_アンカ__類
  6
CONTINUOUS
 62
    4
 10
93.554381800924176
 20
160.65352105489956
 11
92.759181800924182
 21
160.44642105489953
  0
LINE
  8
_1-6_アンカ__類
  6
CONTINUOUS
 62
    4
 10
93.697281800924173
 20
160.58102105489951
 11
93.554381800924176
 21
160.65352105489956
  0
LINE
  8
_1-6_アンカ__類
  6
CONTINUOUS
 62
    4
 10
92.759181800924182
 20
160.44642105489953
 11
92.901331800924197
 21
160.37392105489954
  0
LINE
  8
_1-6_アンカ__類
  6
CONTINUOUS
 62
    4
 10
92.901331800924197
 20
160.37392105489954
 11
93.697281800924173
 21
160.58102105489951
  0
LINE
  8
_1-6_アンカ__類
  6
CONTINUOUS
 62
    4
 10
93.679531800924167
 20
160.20142105489953
 11
92.741381800924188
 21
160.06682105489955
  0
LINE
  8
_1-6_アンカ__類
  6
CONTINUOUS
 62
    4
 10
93.536581800924182
 20
160.2739710548995
 11
92.741381800924188
 21
160.06682105489955
  0
LINE
  8
_1-6_アンカ__類
  6
CONTINUOUS
 62
    4
 10
93.679531800924167
 20
160.20142105489953
 11
93.536581800924182
 21
160.2739710548995
  0
LINE
  8
_1-6_アンカ__類
  6
CONTINUOUS
 62
    4
 10
92.741381800924188
 20
160.06682105489955
 11
92.883531800924175
 21
159.99432105489956
  0
LINE
  8
_1-6_アンカ__類
  6
CONTINUOUS
 62
    4
 10
92.883531800924175
 20
159.99432105489956
 11
93.679531800924167
 21
160.20142105489953
  0
LINE
  8
_1-6_アンカ__類
  6
CONTINUOUS
 62
    4
 10
93.091131800924188
 20
165.45757105489952
 11
93.080031800924189
 21
165.22067105489953
  0
LINE
  8
_1-6_アンカ__類
  6
CONTINUOUS
 62
    4
 10
93.82633180092418
 20
165.42312105489953
 11
93.815231800924181
 21
165.18622105489953
  0
LINE
  8
_1-6_アンカ__類
  6
CONTINUOUS
 62
    4
 10
130.52608180092417
 20
67.931771054899528
 11
130.05268180092418
 21
68.405171054899498
  0
LINE
  8
_1-6_アンカ__類
  6
CONTINUOUS
 62
    4
 10
131.37923180092417
 20
67.931771054899528
 11
131.85268180092419
 21
68.405171054899498
  0
LINE
  8
_1-6_アンカ__類
  6
CONTINUOUS
 62
    4
 10
131.32068180092418
 20
67.873171054899515
 11
130.58468180092419
 21
67.873171054899515
  0
LINE
  8
_1-6_アンカ__類
  6
CONTINUOUS
 62
    4
 10
130.05268180092418
 20
68.553171054899522
 11
130.05268180092418
 21
68.405171054899498
  0
LINE
  8
_1-6_アンカ__類
  6
CONTINUOUS
 62
    4
 10
131.85268180092419
 20
68.553171054899522
 11
131.85268180092419
 21
68.405171054899498
  0
LINE
  8
_1-6_アンカ__類
  6
CONTINUOUS
 62
    4
 10
131.85268180092419
 20
68.405171054899498
 11
130.05268180092418
 21
68.405171054899498
  0
LINE
  8
_1-6_アンカ__類
  6
CONTINUOUS
 62
    4
 10
131.85268180092419
 20
68.553171054899522
 11
130.05268180092418
 21
68.553171054899522
  0
LINE
  8
_1-6_アンカ__類
  6
CONTINUOUS
 62
    4
 10
131.32068180092418
 20
67.553171054899522
 11
130.58468180092419
 21
67.553171054899522
  0
LINE
  8
_1-6_アンカ__類
  6
CONTINUOUS
 62
    4
 10
131.20778180092418
 20
61.112371054899555
 11
130.67348180092418
 21
60.930021054899512
  0
LINE
  8
_1-6_アンカ__類
  6
CONTINUOUS
 62
    4
 10
130.67348180092418
 20
60.930021054899512
 11
130.78648180092418
 21
60.857371054899502
  0
LINE
  8
_1-6_アンカ__類
  6
CONTINUOUS
 62
    4
 10
131.28178180092419
 20
61.046621054899518
 11
130.67348180092418
 21
60.930021054899512
  0
LINE
  8
_1-6_アンカ__類
  6
CONTINUOUS
 62
    4
 10
130.78648180092418
 20
60.857371054899502
 11
131.28178180092419
 21
61.046621054899518
  0
LINE
  8
_1-6_アンカ__類
  6
CONTINUOUS
 62
    4
 10
131.28178180092419
 20
61.046621054899518
 11
131.20778180092418
 21
61.112371054899555
  0
LINE
  8
_1-6_アンカ__類
  6
CONTINUOUS
 62
    4
 10
131.26948180092418
 20
61.493321054899539
 11
130.53543180092419
 21
61.258871054899501
  0
LINE
  8
_1-6_アンカ__類
  6
CONTINUOUS
 62
    4
 10
130.67973180092417
 20
61.193621054899509
 11
131.41563180092419
 21
61.427571054899502
  0
LINE
  8
_1-6_アンカ__類
  6
CONTINUOUS
 62
    4
 10
131.41563180092419
 20
61.427571054899502
 11
130.53543180092419
 21
61.258871054899501
  0
LINE
  8
_1-6_アンカ__類
  6
CONTINUOUS
 62
    4
 10
130.53543180092419
 20
61.258871054899501
 11
130.67973180092417
 21
61.193621054899509
  0
LINE
  8
_1-6_アンカ__類
  6
CONTINUOUS
 62
    4
 10
131.41563180092419
 20
61.427571054899502
 11
131.26948180092418
 21
61.493321054899539
  0
LINE
  8
_1-6_アンカ__類
  6
CONTINUOUS
 62
    4
 10
130.48768180092418
 20
61.629171054899544
 11
130.63313180092419
 21
61.563421054899507
  0
LINE
  8
_1-6_アンカ__類
  6
CONTINUOUS
 62
    4
 10
130.63313180092419
 20
61.563421054899507
 11
131.41848180092418
 21
61.80752105489951
  0
LINE
  8
_1-6_アンカ__類
  6
CONTINUOUS
 62
    4
 10
130.63308180092417
 20
61.943371054899515
 11
130.63308180092417
 21
61.674421054899554
  0
LINE
  8
_1-6_アンカ__類
  6
CONTINUOUS
 62
    4
 10
131.27228180092419
 20
61.762121054899538
 11
131.27228180092419
 21
61.567821054899539
  0
LINE
  8
_1-6_アンカ__類
  6
CONTINUOUS
 62
    4
 10
131.27228180092419
 20
62.142071054899489
 11
131.27228180092419
 21
61.873271054899547
  0
LINE
  8
_1-6_アンカ__類
  6
CONTINUOUS
 62
    4
 10
131.41848180092418
 20
61.80752105489951
 11
130.48768180092418
 21
61.629171054899544
  0
LINE
  8
_1-6_アンカ__類
  6
CONTINUOUS
 62
    4
 10
131.27228180092419
 20
61.873271054899547
 11
130.48768180092418
 21
61.629171054899544
  0
LINE
  8
_1-6_アンカ__類
  6
CONTINUOUS
 62
    4
 10
131.41848180092418
 20
61.80752105489951
 11
131.27228180092419
 21
61.873271054899547
  0
LINE
  8
_1-6_アンカ__類
  6
CONTINUOUS
 62
    4
 10
130.63308180092417
 20
62.323371054899511
 11
130.63308180092417
 21
62.054421054899549
  0
LINE
  8
_1-6_アンカ__類
  6
CONTINUOUS
 62
    4
 10
131.27228180092419
 20
62.522071054899541
 11
131.27228180092419
 21
62.253271054899542
  0
LINE
  8
_1-6_アンカ__類
  6
CONTINUOUS
 62
    4
 10
131.41848180092418
 20
62.187521054899506
 11
130.48768180092418
 21
62.009171054899539
  0
LINE
  8
_1-6_アンカ__類
  6
CONTINUOUS
 62
    4
 10
131.27228180092419
 20
62.253271054899542
 11
130.48768180092418
 21
62.009171054899539
  0
LINE
  8
_1-6_アンカ__類
  6
CONTINUOUS
 62
    4
 10
131.41848180092418
 20
62.187521054899506
 11
131.27228180092419
 21
62.253271054899542
  0
LINE
  8
_1-6_アンカ__類
  6
CONTINUOUS
 62
    4
 10
130.48768180092418
 20
62.009171054899539
 11
130.63308180092417
 21
61.943371054899515
  0
LINE
  8
_1-6_アンカ__類
  6
CONTINUOUS
 62
    4
 10
130.63308180092417
 20
61.943371054899515
 11
131.41848180092418
 21
62.187521054899506
  0
LINE
  8
_1-6_アンカ__類
  6
CONTINUOUS
 62
    4
 10
130.63308180092417
 20
62.703371054899506
 11
130.63308180092417
 21
62.434371054899557
  0
LINE
  8
_1-6_アンカ__類
  6
CONTINUOUS
 62
    4
 10
131.27228180092419
 20
62.902071054899537
 11
131.27228180092419
 21
62.633271054899538
  0
LINE
  8
_1-6_アンカ__類
  6
CONTINUOUS
 62
    4
 10
130.63308180092417
 20
63.083971054899521
 11
130.63308180092417
 21
62.814371054899553
  0
LINE
  8
_1-6_アンカ__類
  6
CONTINUOUS
 62
    4
 10
131.27228180092419
 20
63.282071054899532
 11
131.27228180092419
 21
63.013271054899533
  0
LINE
  8
_1-6_アンカ__類
  6
CONTINUOUS
 62
    4
 10
130.63308180092417
 20
63.463371054899554
 11
130.63308180092417
 21
63.194371054899548
  0
LINE
  8
_1-6_アンカ__類
  6
CONTINUOUS
 62
    4
 10
131.27228180092419
 20
63.662071054899528
 11
131.27228180092419
 21
63.393271054899529
  0
LINE
  8
_1-6_アンカ__類
  6
CONTINUOUS
 62
    4
 10
130.63308180092417
 20
63.843371054899549
 11
130.63308180092417
 21
63.574371054899544
  0
LINE
  8
_1-6_アンカ__類
  6
CONTINUOUS
 62
    4
 10
131.27228180092419
 20
64.042071054899523
 11
131.27228180092419
 21
63.773221054899537
  0
LINE
  8
_1-6_アンカ__類
  6
CONTINUOUS
 62
    4
 10
130.63308180092417
 20
64.223321054899557
 11
130.63308180092417
 21
63.954371054899539
  0
LINE
  8
_1-6_アンカ__類
  6
CONTINUOUS
 62
    4
 10
131.27228180092419
 20
64.422021054899531
 11
131.27228180092419
 21
64.153221054899532
  0
LINE
  8
_1-6_アンカ__類
  6
CONTINUOUS
 62
    4
 10
130.63308180092417
 20
64.603921054899516
 11
130.63308180092417
 21
64.334321054899547
  0
LINE
  8
_1-6_アンカ__類
  6
CONTINUOUS
 62
    4
 10
131.27228180092419
 20
64.802621054899546
 11
131.27228180092419
 21
64.533221054899528
  0
LINE
  8
_1-6_アンカ__類
  6
CONTINUOUS
 62
    4
 10
130.63308180092417
 20
64.984521054899531
 11
130.63308180092417
 21
64.714921054899506
  0
LINE
  8
_1-6_アンカ__類
  6
CONTINUOUS
 62
    4
 10
131.27228180092419
 20
65.183221054899505
 11
131.27228180092419
 21
64.913821054899543
  0
LINE
  8
_1-6_アンカ__類
  6
CONTINUOUS
 62
    4
 10
130.63308180092417
 20
65.364771054899521
 11
130.63308180092417
 21
65.095521054899521
  0
LINE
  8
_1-6_アンカ__類
  6
CONTINUOUS
 62
    4
 10
131.27228180092419
 20
65.5632210548995
 11
131.27228180092419
 21
65.294421054899558
  0
LINE
  8
_1-6_アンカ__類
  6
CONTINUOUS
 62
    4
 10
131.27228180092419
 20
65.943171054899508
 11
131.27228180092419
 21
65.674621054899504
  0
LINE
  8
_1-6_アンカ__類
  6
CONTINUOUS
 62
    4
 10
130.63308180092417
 20
65.744471054899535
 11
130.63308180092417
 21
65.475521054899517
  0
LINE
  8
_1-6_アンカ__類
  6
CONTINUOUS
 62
    4
 10
130.63308180092417
 20
66.12507105489955
 11
130.63308180092417
 21
65.855521054899512
  0
LINE
  8
_1-6_アンカ__類
  6
CONTINUOUS
 62
    4
 10
131.27228180092419
 20
66.323771054899524
 11
131.27228180092419
 21
66.054371054899505
  0
LINE
  8
_1-6_アンカ__類
  6
CONTINUOUS
 62
    4
 10
131.27228180092419
 20
66.703771054899519
 11
131.27228180092419
 21
66.43497105489952
  0
LINE
  8
_1-6_アンカ__類
  6
CONTINUOUS
 62
    4
 10
130.63308180092417
 20
66.505671054899508
 11
130.63308180092417
 21
66.23607105489954
  0
LINE
  8
_1-6_アンカ__類
  6
CONTINUOUS
 62
    4
 10
130.63308180092417
 20
66.885071054899541
 11
130.63308180092417
 21
66.616071054899535
  0
LINE
  8
_1-6_アンカ__類
  6
CONTINUOUS
 62
    4
 10
131.27228180092419
 20
67.083771054899515
 11
131.27228180092419
 21
66.81522105489951
  0
LINE
  8
_1-6_アンカ__類
  6
CONTINUOUS
 62
    4
 10
131.27228180092419
 20
67.46377105489951
 11
131.27228180092419
 21
67.194971054899511
  0
LINE
  8
_1-6_アンカ__類
  6
CONTINUOUS
 62
    4
 10
130.63308180092417
 20
67.265071054899536
 11
130.63308180092417
 21
66.996071054899531
  0
LINE
  8
_1-6_アンカ__類
  6
CONTINUOUS
 62
    4
 10
130.63308180092417
 20
67.553171054899522
 11
130.63308180092417
 21
67.376071054899526
  0
LINE
  8
_1-6_アンカ__類
  6
CONTINUOUS
 62
    4
 10
131.20233180092418
 20
67.553171054899522
 11
130.48768180092418
 21
67.330821054899516
  0
LINE
  8
_1-6_アンカ__類
  6
CONTINUOUS
 62
    4
 10
131.41848180092418
 20
67.509171054899539
 11
131.32068180092418
 21
67.553171054899522
  0
LINE
  8
_1-6_アンカ__類
  6
CONTINUOUS
 62
    4
 10
131.41848180092418
 20
67.509171054899539
 11
130.48768180092418
 21
67.330821054899516
  0
LINE
  8
_1-6_アンカ__類
  6
CONTINUOUS
 62
    4
 10
130.48768180092418
 20
67.330821054899516
 11
130.63308180092417
 21
67.265071054899536
  0
LINE
  8
_1-6_アンカ__類
  6
CONTINUOUS
 62
    4
 10
130.63308180092417
 20
67.265071054899536
 11
131.41848180092418
 21
67.509171054899539
  0
LINE
  8
_1-6_アンカ__類
  6
CONTINUOUS
 62
    4
 10
131.41848180092418
 20
67.129221054899531
 11
130.48768180092418
 21
66.950821054899521
  0
LINE
  8
_1-6_アンカ__類
  6
CONTINUOUS
 62
    4
 10
131.27228180092419
 20
67.194971054899511
 11
130.48768180092418
 21
66.950821054899521
  0
LINE
  8
_1-6_アンカ__類
  6
CONTINUOUS
 62
    4
 10
131.41848180092418
 20
67.129221054899531
 11
131.27228180092419
 21
67.194971054899511
  0
LINE
  8
_1-6_アンカ__類
  6
CONTINUOUS
 62
    4
 10
130.48768180092418
 20
66.950821054899521
 11
130.63308180092417
 21
66.885071054899541
  0
LINE
  8
_1-6_アンカ__類
  6
CONTINUOUS
 62
    4
 10
130.63308180092417
 20
66.885071054899541
 11
131.41848180092418
 21
67.129221054899531
  0
LINE
  8
_1-6_アンカ__類
  6
CONTINUOUS
 62
    4
 10
131.41923180092419
 20
66.74947105489953
 11
130.48848180092418
 21
66.571071054899519
  0
LINE
  8
_1-6_アンカ__類
  6
CONTINUOUS
 62
    4
 10
131.27308180092419
 20
66.81522105489951
 11
130.48848180092418
 21
66.571071054899519
  0
LINE
  8
_1-6_アンカ__類
  6
CONTINUOUS
 62
    4
 10
131.41923180092419
 20
66.74947105489953
 11
131.27308180092419
 21
66.81522105489951
  0
LINE
  8
_1-6_アンカ__類
  6
CONTINUOUS
 62
    4
 10
130.48848180092418
 20
66.571071054899519
 11
130.63383180092418
 21
66.505321054899539
  0
LINE
  8
_1-6_アンカ__類
  6
CONTINUOUS
 62
    4
 10
130.63383180092418
 20
66.505321054899539
 11
131.41923180092419
 21
66.74947105489953
  0
LINE
  8
_1-6_アンカ__類
  6
CONTINUOUS
 62
    4
 10
131.41848180092418
 20
66.36922105489954
 11
130.48768180092418
 21
66.190871054899517
  0
LINE
  8
_1-6_アンカ__類
  6
CONTINUOUS
 62
    4
 10
131.27228180092419
 20
66.43497105489952
 11
130.48768180092418
 21
66.190871054899517
  0
LINE
  8
_1-6_アンカ__類
  6
CONTINUOUS
 62
    4
 10
131.41848180092418
 20
66.36922105489954
 11
131.27228180092419
 21
66.43497105489952
  0
LINE
  8
_1-6_アンカ__類
  6
CONTINUOUS
 62
    4
 10
130.48768180092418
 20
66.190871054899517
 11
130.63308180092417
 21
66.12507105489955
  0
LINE
  8
_1-6_アンカ__類
  6
CONTINUOUS
 62
    4
 10
130.63308180092417
 20
66.12507105489955
 11
131.41848180092418
 21
66.36922105489954
  0
LINE
  8
_1-6_アンカ__類
  6
CONTINUOUS
 62
    4
 10
131.41848180092418
 20
65.988621054899525
 11
130.48768180092418
 21
65.810271054899502
  0
LINE
  8
_1-6_アンカ__類
  6
CONTINUOUS
 62
    4
 10
131.27228180092419
 20
66.054371054899505
 11
130.48768180092418
 21
65.810271054899502
  0
LINE
  8
_1-6_アンカ__類
  6
CONTINUOUS
 62
    4
 10
131.41848180092418
 20
65.988621054899525
 11
131.27228180092419
 21
66.054371054899505
  0
LINE
  8
_1-6_アンカ__類
  6
CONTINUOUS
 62
    4
 10
130.48768180092418
 20
65.810271054899502
 11
130.63308180092417
 21
65.744471054899535
  0
LINE
  8
_1-6_アンカ__類
  6
CONTINUOUS
 62
    4
 10
130.63308180092417
 20
65.744471054899535
 11
131.41848180092418
 21
65.988621054899525
  0
LINE
  8
_1-6_アンカ__類
  6
CONTINUOUS
 62
    4
 10
131.41923180092419
 20
65.608871054899524
 11
130.48848180092418
 21
65.430521054899501
  0
LINE
  8
_1-6_アンカ__類
  6
CONTINUOUS
 62
    4
 10
131.27308180092419
 20
65.674621054899504
 11
130.48848180092418
 21
65.430521054899501
  0
LINE
  8
_1-6_アンカ__類
  6
CONTINUOUS
 62
    4
 10
131.41923180092419
 20
65.608871054899524
 11
131.27308180092419
 21
65.674621054899504
  0
LINE
  8
_1-6_アンカ__類
  6
CONTINUOUS
 62
    4
 10
130.48848180092418
 20
65.430521054899501
 11
130.63383180092418
 21
65.364771054899521
  0
LINE
  8
_1-6_アンカ__類
  6
CONTINUOUS
 62
    4
 10
130.63383180092418
 20
65.364771054899521
 11
131.41923180092419
 21
65.608871054899524
  0
LINE
  8
_1-6_アンカ__類
  6
CONTINUOUS
 62
    4
 10
131.41848180092418
 20
65.228671054899522
 11
130.48768180092418
 21
65.050271054899511
  0
LINE
  8
_1-6_アンカ__類
  6
CONTINUOUS
 62
    4
 10
131.27228180092419
 20
65.294421054899558
 11
130.48768180092418
 21
65.050271054899511
  0
LINE
  8
_1-6_アンカ__類
  6
CONTINUOUS
 62
    4
 10
131.41848180092418
 20
65.228671054899522
 11
131.27228180092419
 21
65.294421054899558
  0
LINE
  8
_1-6_アンカ__類
  6
CONTINUOUS
 62
    4
 10
130.48768180092418
 20
65.050271054899511
 11
130.63308180092417
 21
64.984521054899531
  0
LINE
  8
_1-6_アンカ__類
  6
CONTINUOUS
 62
    4
 10
130.63308180092417
 20
64.984521054899531
 11
131.41848180092418
 21
65.228671054899522
  0
LINE
  8
_1-6_アンカ__類
  6
CONTINUOUS
 62
    4
 10
131.41848180092418
 20
64.848071054899506
 11
130.48768180092418
 21
64.66972105489954
  0
LINE
  8
_1-6_アンカ__類
  6
CONTINUOUS
 62
    4
 10
131.27228180092419
 20
64.913821054899543
 11
130.48768180092418
 21
64.66972105489954
  0
LINE
  8
_1-6_アンカ__類
  6
CONTINUOUS
 62
    4
 10
131.41848180092418
 20
64.848071054899506
 11
131.27228180092419
 21
64.913821054899543
  0
LINE
  8
_1-6_アンカ__類
  6
CONTINUOUS
 62
    4
 10
130.48768180092418
 20
64.66972105489954
 11
130.63308180092417
 21
64.603921054899516
  0
LINE
  8
_1-6_アンカ__類
  6
CONTINUOUS
 62
    4
 10
130.63308180092417
 20
64.603921054899516
 11
131.41848180092418
 21
64.848071054899506
  0
LINE
  8
_1-6_アンカ__類
  6
CONTINUOUS
 62
    4
 10
131.41848180092418
 20
64.467471054899548
 11
130.48768180092418
 21
64.289121054899525
  0
LINE
  8
_1-6_アンカ__類
  6
CONTINUOUS
 62
    4
 10
131.27228180092419
 20
64.533221054899528
 11
130.48768180092418
 21
64.289121054899525
  0
LINE
  8
_1-6_アンカ__類
  6
CONTINUOUS
 62
    4
 10
131.41848180092418
 20
64.467471054899548
 11
131.27228180092419
 21
64.533221054899528
  0
LINE
  8
_1-6_アンカ__類
  6
CONTINUOUS
 62
    4
 10
130.48768180092418
 20
64.289121054899525
 11
130.63308180092417
 21
64.223321054899557
  0
LINE
  8
_1-6_アンカ__類
  6
CONTINUOUS
 62
    4
 10
130.63308180092417
 20
64.223321054899557
 11
131.41848180092418
 21
64.467471054899548
  0
LINE
  8
_1-6_アンカ__類
  6
CONTINUOUS
 62
    4
 10
131.41848180092418
 20
64.087471054899552
 11
130.48768180092418
 21
63.909121054899529
  0
LINE
  8
_1-6_アンカ__類
  6
CONTINUOUS
 62
    4
 10
131.27228180092419
 20
64.153221054899532
 11
130.48768180092418
 21
63.909121054899529
  0
LINE
  8
_1-6_アンカ__類
  6
CONTINUOUS
 62
    4
 10
131.41848180092418
 20
64.087471054899552
 11
131.27228180092419
 21
64.153221054899532
  0
LINE
  8
_1-6_アンカ__類
  6
CONTINUOUS
 62
    4
 10
130.48768180092418
 20
63.909121054899529
 11
130.63308180092417
 21
63.843371054899549
  0
LINE
  8
_1-6_アンカ__類
  6
CONTINUOUS
 62
    4
 10
130.63308180092417
 20
63.843371054899549
 11
131.41848180092418
 21
64.087471054899552
  0
LINE
  8
_1-6_アンカ__類
  6
CONTINUOUS
 62
    4
 10
131.41848180092418
 20
63.707471054899557
 11
130.48768180092418
 21
63.529121054899534
  0
LINE
  8
_1-6_アンカ__類
  6
CONTINUOUS
 62
    4
 10
131.27228180092419
 20
63.773221054899537
 11
130.48768180092418
 21
63.529121054899534
  0
LINE
  8
_1-6_アンカ__類
  6
CONTINUOUS
 62
    4
 10
131.41848180092418
 20
63.707471054899557
 11
131.27228180092419
 21
63.773221054899537
  0
LINE
  8
_1-6_アンカ__類
  6
CONTINUOUS
 62
    4
 10
130.48768180092418
 20
63.529121054899534
 11
130.63308180092417
 21
63.463371054899554
  0
LINE
  8
_1-6_アンカ__類
  6
CONTINUOUS
 62
    4
 10
130.63308180092417
 20
63.463371054899554
 11
131.41848180092418
 21
63.707471054899557
  0
LINE
  8
_1-6_アンカ__類
  6
CONTINUOUS
 62
    4
 10
131.41923180092419
 20
63.327771054899543
 11
130.48848180092418
 21
63.149371054899532
  0
LINE
  8
_1-6_アンカ__類
  6
CONTINUOUS
 62
    4
 10
131.27308180092419
 20
63.393471054899535
 11
130.48848180092418
 21
63.149371054899532
  0
LINE
  8
_1-6_アンカ__類
  6
CONTINUOUS
 62
    4
 10
131.41923180092419
 20
63.327771054899543
 11
131.27308180092419
 21
63.393471054899535
  0
LINE
  8
_1-6_アンカ__類
  6
CONTINUOUS
 62
    4
 10
130.48848180092418
 20
63.149371054899532
 11
130.63383180092418
 21
63.083621054899496
  0
LINE
  8
_1-6_アンカ__類
  6
CONTINUOUS
 62
    4
 10
130.63383180092418
 20
63.083621054899496
 11
131.41923180092419
 21
63.327771054899543
  0
LINE
  8
_1-6_アンカ__類
  6
CONTINUOUS
 62
    4
 10
131.41848180092418
 20
62.947521054899553
 11
130.48768180092418
 21
62.76917105489953
  0
LINE
  8
_1-6_アンカ__類
  6
CONTINUOUS
 62
    4
 10
131.27228180092419
 20
63.013271054899533
 11
130.48768180092418
 21
62.76917105489953
  0
LINE
  8
_1-6_アンカ__類
  6
CONTINUOUS
 62
    4
 10
131.41848180092418
 20
62.947521054899553
 11
131.27228180092419
 21
63.013271054899533
  0
LINE
  8
_1-6_アンカ__類
  6
CONTINUOUS
 62
    4
 10
130.48768180092418
 20
62.76917105489953
 11
130.63308180092417
 21
62.703371054899506
  0
LINE
  8
_1-6_アンカ__類
  6
CONTINUOUS
 62
    4
 10
130.63308180092417
 20
62.703371054899506
 11
131.41848180092418
 21
62.947521054899553
  0
LINE
  8
_1-6_アンカ__類
  6
CONTINUOUS
 62
    4
 10
131.41848180092418
 20
62.567521054899558
 11
130.48768180092418
 21
62.389171054899535
  0
LINE
  8
_1-6_アンカ__類
  6
CONTINUOUS
 62
    4
 10
131.27228180092419
 20
62.633271054899538
 11
130.48768180092418
 21
62.389171054899535
  0
LINE
  8
_1-6_アンカ__類
  6
CONTINUOUS
 62
    4
 10
131.41848180092418
 20
62.567521054899558
 11
131.27228180092419
 21
62.633271054899538
  0
LINE
  8
_1-6_アンカ__類
  6
CONTINUOUS
 62
    4
 10
130.48768180092418
 20
62.389171054899535
 11
130.63308180092417
 21
62.323371054899511
  0
LINE
  8
_1-6_アンカ__類
  6
CONTINUOUS
 62
    4
 10
130.63308180092417
 20
62.323371054899511
 11
131.41848180092418
 21
62.567521054899558
  0
LINE
  8
_1-6_アンカ__類
  6
CONTINUOUS
 62
    4
 10
130.58468180092419
 20
67.790321054899508
 11
130.58468180092419
 21
67.553171054899522
  0
LINE
  8
_1-6_アンカ__類
  6
CONTINUOUS
 62
    4
 10
131.32068180092418
 20
67.790321054899508
 11
131.32068180092418
 21
67.553171054899522
  0
ARC
  8
_1-6_アンカ__類
  6
CONTINUOUS
 62
    4
 10
94.723931800924191
 20
159.18507105489954
 40
1.8765499999999999
 50
178.47001332285643
 51
186.61901332285643
  0
ARC
  8
_1-6_アンカ__類
  6
CONTINUOUS
 62
    4
 10
91.614081800924168
 20
159.3308210548995
 40
1.8765499999999999
 50
354.02101332285639
 51
356.29801332285643
  0
ARC
  8
_1-6_アンカ__類
  6
CONTINUOUS
 62
    4
 10
94.723931800924191
 20
159.18507105489954
 40
1.8765499999999999
 50
189.87501332285643
 51
197.45001332285645
  0
ARC
  8
_1-6_アンカ__類
  6
CONTINUOUS
 62
    4
 10
94.723931800924191
 20
159.18507105489954
 40
1.8765499999999999
 50
200.66901332285642
 51
211.26801332285643
  0
ARC
  8
_1-6_アンカ__類
  6
CONTINUOUS
 62
    4
 10
91.614081800924168
 20
159.3308210548995
 40
1.8765499999999999
 50
323.36601332285647
 51
338.82801332285646
  0
ARC
  8
_1-6_アンカ__類
  6
CONTINUOUS
 62
    4
 10
91.614081800924168
 20
159.3308210548995
 40
1.8765499999999999
 50
342.21801332285651
 51
350.4820133228564
  0
ARC
  8
_1-6_アンカ__類
  6
CONTINUOUS
 62
    4
 10
92.891331800924178
 20
165.46692105489956
 40
0.2
 50
357.31701332285644
 51
42.317013322856475
  0
ARC
  8
_1-6_アンカ__類
  6
CONTINUOUS
 62
    4
 10
94.026081800924175
 20
165.41372105489955
 40
0.2
 50
132.31701332285641
 51
177.31701332285641
  0
ARC
  8
_1-6_アンカ__類
  6
CONTINUOUS
 62
    4
 10
132.50928180092419
 20
61.601171054899524
 40
1.8765499999999999
 50
181.15300000000005
 51
189.30200000000002
  0
ARC
  8
_1-6_アンカ__類
  6
CONTINUOUS
 62
    4
 10
129.39603180092419
 20
61.601171054899524
 40
1.8765499999999999
 50
356.70400000000006
 51
358.98100000000011
  0
ARC
  8
_1-6_アンカ__類
  6
CONTINUOUS
 62
    4
 10
132.50928180092419
 20
61.601171054899524
 40
1.8765499999999999
 50
192.55800000000005
 51
200.13300000000004
  0
ARC
  8
_1-6_アンカ__類
  6
CONTINUOUS
 62
    4
 10
132.50928180092419
 20
61.601171054899524
 40
1.8765499999999999
 50
203.35200000000003
 51
213.95100000000005
  0
ARC
  8
_1-6_アンカ__類
  6
CONTINUOUS
 62
    4
 10
129.39603180092419
 20
61.601171054899524
 40
1.8765499999999999
 50
326.04900000000004
 51
341.51100000000008
  0
ARC
  8
_1-6_アンカ__類
  6
CONTINUOUS
 62
    4
 10
129.39603180092419
 20
61.601171054899524
 40
1.8765499999999999
 50
344.90100000000012
 51
353.16500000000013
  0
ARC
  8
_1-6_アンカ__類
  6
CONTINUOUS
 62
    4
 10
130.38468180092417
 20
67.790321054899508
 40
0.2
 50
0.0000000000001017
 51
45.000000000000114
  0
ARC
  8
_1-6_アンカ__類
  6
CONTINUOUS
 62
    4
 10
131.52068180092419
 20
67.790321054899508
 40
0.2
 50
135.00000000000003
 51
180.00000000000006
  0
LINE
  8
_e-e_
  6
CONTINUOUS
 62
    7
 10
141.58140559164761
 20
80.238224811289186
 11
146.58140559164761
 21
80.238224811289186
  0
TEXT
  8
_e-e_
 62
    7
 10
146.58140559164764
 20
78.238224811289186
 40
4
 41
1
 50
0
  1
ＦＬシール
  0
LINE
  8
_e-e_
  6
CONTINUOUS
 62
    7
 10
141.58140559164761
 20
80.238224811289186
 11
135.28855667381819
 21
69.338690761253829
  0
TEXT
  8
_e-e_
 62
    7
 10
148.16107964701609
 20
84.754080123672267
 40
4
 41
1
 50
0
  1
ＦＬ鋼板
  0
LINE
  8
_e-e_
  6
CONTINUOUS
 62
    7
 10
143.16107964701609
 20
86.754080123672267
 11
148.16107964701609
 21
86.754080123672267
  0
LINE
  8
_e-e_
  6
CONTINUOUS
 62
    7
 10
143.16107964701609
 20
86.754080123672267
 11
132.61693650532789
 21
68.491088479989415
  0
LINE
  8
_e-e_
  6
CONTINUOUS
 62
    7
 10
172.00249378843026
 20
80.238224811289186
 11
177.00249378843026
 21
80.238224811289186
  0
TEXT
  8
_e-e_
 62
    7
 10
177.00249378843026
 20
78.238224811289186
 40
4
 41
1
 50
0
  1
絶縁シート
  0
LINE
  8
_e-e_
  6
CONTINUOUS
 62
    7
 10
144.05793640466703
 20
161.10741943142193
 11
149.05793640466703
 21
161.10741943142193
  0
LINE
  8
_e-e_
  6
CONTINUOUS
 62
    7
 10
144.05793640466703
 20
161.10741943142193
 11
128.67819013625538
 21
134.46891748701512
  0
LINE
  8
_e-e_
  6
CONTINUOUS
 62
    7
 10
141.60881119103851
 20
127.07529873468087
 11
146.60881119103851
 21
127.07529873468087
  0
TEXT
  8
_e-e_
 62
    7
 10
146.60881119103851
 20
125.07529873468087
 40
4
 41
1
 50
0
  1
リベットルーフ
  0
LINE
  8
_e-e_
  6
CONTINUOUS
 62
    7
 10
138.7220598450904
 20
122.07529873468087
 11
143.7220598450904
 21
122.07529873468087
  0
TEXT
  8
_e-e_
 62
    7
 10
143.7220598450904
 20
120.07529873468087
 40
4
 41
1
 50
0
  1
ＡＹボンド５８０ＮＦ
  0
LINE
  8
_e-e_
  6
CONTINUOUS
 62
    7
 10
141.60881119103851
 20
127.07529873468087
 11
126.27005761678825
 21
100.5077982193007
  0
LINE
  8
_e-e_
  6
CONTINUOUS
 62
    7
 10
78.382999870234215
 20
154.38744258364773
 11
73.382999870234215
 21
154.38744258364773
  0
LINE
  8
_e-e_
  6
CONTINUOUS
 62
    7
 10
78.382999870234215
 20
154.38744258364773
 11
85.086081800924177
 21
165.99752105489955
  0
TEXT
  8
_e-e_
 62
    7
 10
37.382999870234215
 20
152.38744258364773
 40
4
 41
1
 50
0
  1
ＡＹシールＭＳ－１
  0
TEXT
  8
_e-e_
 62
    7
 10
149.05793640466703
 20
159.10741943142193
 40
4
 41
1
 50
0
  1
モルタル面取り
  0
TEXT
  8
_e-e_
 62
    7
 10
102.90300795398956
 20
176.41317070270821
 40
4
 41
1
 50
0
  1
ＦＬ鋼板
  0
LINE
  8
_e-e_
  6
CONTINUOUS
 62
    7
 10
97.903007953989558
 20
178.41317070270821
 11
90.913255870328356
 21
166.30656496149658
  0
LINE
  8
_e-e_
  6
CONTINUOUS
 62
    7
 10
97.903007953989558
 20
178.41317070270821
 11
102.90300795398956
 21
178.41317070270821
  0
LINE
  8
_e-e_
  6
CONTINUOUS
 62
    7
 10
99.455904010486535
 20
172.88928437717578
 11
95.251425132826412
 21
165.60691334171833
  0
LINE
  8
_e-e_
  6
CONTINUOUS
 62
    7
 10
99.455904010486535
 20
172.88928437717578
 11
104.45590401048653
 21
172.88928437717578
  0
TEXT
  8
_e-e_
 62
    7
 10
104.45590401048653
 20
170.88928437717578
 40
4
 41
1
 50
0
  1
ＡＹブチルテープ
  0
TEXT
  8
_e-e_
 62
    7
 10
52.870579564174378
 20
176.41317070270821
 40
4
 41
1
 50
0
  1
ＦＬシール
  0
LINE
  8
_e-e_
  6
CONTINUOUS
 62
    7
 10
77.870579564174378
 20
178.41317070270821
 11
72.870579564174378
 21
178.41317070270821
  0
LINE
  8
_e-e_
  6
CONTINUOUS
 62
    7
 10
77.870579564174378
 20
178.41317070270821
 11
84.38204959260338
 21
167.1349737815072
  0
LINE
  8
_1-a_元図__躯体
  6
CONTINUOUS
 62
  136
 10
123.75263180092415
 20
137.15317105489953
 11
123.75263180092415
 21
130.95317105489951
  0
LINE
  8
_1-a_元図__躯体
  6
CONTINUOUS
 62
  136
 10
123.75263180092415
 20
129.95317105489951
 11
123.75263180092415
 21
124.15317105489954
  0
LINE
  8
_1-a_元図__躯体
  6
CONTINUOUS
 62
  136
 10
123.75263180092415
 20
123.15317105489954
 11
123.75263180092415
 21
116.95317105489953
  0
LINE
  8
_1-a_元図__躯体
  6
CONTINUOUS
 62
  136
 10
123.75263180092415
 20
115.95317105489953
 11
123.75263180092415
 21
110.15317105489954
  0
LINE
  8
_1-a_元図__躯体
  6
CONTINUOUS
 62
  136
 10
123.75263180092415
 20
109.15317105489954
 11
123.75263180092415
 21
103.15317105489954
  0
LINE
  8
_1-a_元図__躯体
  6
CONTINUOUS
 62
  136
 10
123.75263180092415
 20
102.15317105489954
 11
123.75263180092415
 21
96.153171054899531
  0
LINE
  8
_1-a_元図__躯体
  6
CONTINUOUS
 62
  136
 10
123.75263180092415
 20
95.153171054899531
 11
123.75263180092415
 21
89.153171054899531
  0
LINE
  8
_1-a_元図__躯体
  6
CONTINUOUS
 62
  136
 10
123.75263180092415
 20
88.153171054899531
 11
123.75263180092415
 21
82.153171054899516
  0
LINE
  8
_1-a_元図__躯体
  6
CONTINUOUS
 62
  136
 10
123.75263180092415
 20
81.153171054899516
 11
123.75263180092415
 21
75.153171054899516
  0
LINE
  8
_1-a_元図__躯体
  6
CONTINUOUS
 62
  136
 10
123.75263180092415
 20
74.153171054899516
 11
123.75263180092415
 21
68.553171054899551
  0
LINE
  8
_1-a_元図__躯体
  6
CONTINUOUS
 62
  136
 10
109.05263180092416
 20
137.15317105489953
 11
123.75263180092415
 21
137.15317105489953
  0
LINE
  8
_1-a_元図__躯体
  6
CONTINUOUS
 62
  136
 10
109.05263180092416
 20
137.15317105489953
 11
109.05263180092416
 21
130.95317105489951
  0
LINE
  8
_1-a_元図__躯体
  6
CONTINUOUS
 62
  136
 10
109.05263180092416
 20
129.95317105489951
 11
109.05263180092416
 21
124.15317105489954
  0
LINE
  8
_1-a_元図__躯体
  6
CONTINUOUS
 62
  136
 10
109.05263180092416
 20
123.15317105489954
 11
109.05263180092416
 21
116.95317105489953
  0
LINE
  8
_1-a_元図__躯体
  6
CONTINUOUS
 62
  136
 10
109.05263180092416
 20
115.95317105489953
 11
109.05263180092416
 21
110.15317105489954
  0
LINE
  8
_1-a_元図__躯体
  6
CONTINUOUS
 62
  136
 10
109.05263180092416
 20
109.15317105489954
 11
109.05263180092416
 21
103.15317105489954
  0
LINE
  8
_1-a_元図__躯体
  6
CONTINUOUS
 62
  136
 10
109.05263180092416
 20
102.15317105489954
 11
109.05263180092416
 21
96.153171054899531
  0
LINE
  8
_1-a_元図__躯体
  6
CONTINUOUS
 62
  136
 10
109.05263180092416
 20
95.153171054899531
 11
109.05263180092416
 21
89.153171054899531
  0
LINE
  8
_1-a_元図__躯体
  6
CONTINUOUS
 62
  136
 10
109.05263180092416
 20
88.153171054899531
 11
109.05263180092416
 21
82.153171054899516
  0
LINE
  8
_1-a_元図__躯体
  6
CONTINUOUS
 62
  136
 10
109.05263180092416
 20
81.153171054899516
 11
109.05263180092416
 21
75.153171054899516
  0
LINE
  8
_1-a_元図__躯体
  6
CONTINUOUS
 62
  136
 10
109.05263180092416
 20
74.153171054899516
 11
109.05263180092416
 21
68.553171054899551
  0
LINE
  8
_1-a_元図__躯体
  6
CONTINUOUS
 62
  136
 10
109.05263180092416
 20
68.553171054899551
 11
123.75263180092415
 21
68.553171054899551
  0
LINE
  8
_1-a_元図__躯体
  6
CONTINUOUS
 62
  136
 10
109.05263180092416
 20
130.95317105489951
 11
123.75263180092415
 21
130.95317105489951
  0
LINE
  8
_1-a_元図__躯体
  6
CONTINUOUS
 62
  136
 10
109.05263180092416
 20
129.95317105489951
 11
123.75263180092415
 21
129.95317105489951
  0
LINE
  8
_1-a_元図__躯体
  6
CONTINUOUS
 62
  136
 10
109.05263180092416
 20
124.15317105489954
 11
123.75263180092415
 21
124.15317105489954
  0
LINE
  8
_1-a_元図__躯体
  6
CONTINUOUS
 62
  136
 10
109.05263180092416
 20
123.15317105489954
 11
123.75263180092415
 21
123.15317105489954
  0
LINE
  8
_1-a_元図__躯体
  6
CONTINUOUS
 62
  136
 10
109.05263180092416
 20
116.95317105489953
 11
123.75263180092415
 21
116.95317105489953
  0
LINE
  8
_1-a_元図__躯体
  6
CONTINUOUS
 62
  136
 10
109.05263180092416
 20
115.95317105489953
 11
123.75263180092415
 21
115.95317105489953
  0
LINE
  8
_1-a_元図__躯体
  6
CONTINUOUS
 62
  136
 10
109.05263180092416
 20
110.15317105489954
 11
123.75263180092415
 21
110.15317105489954
  0
LINE
  8
_1-a_元図__躯体
  6
CONTINUOUS
 62
  136
 10
109.05263180092416
 20
109.15317105489954
 11
123.75263180092415
 21
109.15317105489954
  0
LINE
  8
_1-a_元図__躯体
  6
CONTINUOUS
 62
  136
 10
109.05263180092416
 20
103.15317105489954
 11
123.75263180092415
 21
103.15317105489954
  0
LINE
  8
_1-a_元図__躯体
  6
CONTINUOUS
 62
  136
 10
109.05263180092416
 20
102.15317105489954
 11
123.75263180092415
 21
102.15317105489954
  0
LINE
  8
_1-a_元図__躯体
  6
CONTINUOUS
 62
  136
 10
109.05263180092416
 20
96.153171054899531
 11
123.75263180092415
 21
96.153171054899531
  0
LINE
  8
_1-a_元図__躯体
  6
CONTINUOUS
 62
  136
 10
109.05263180092416
 20
95.153171054899531
 11
123.75263180092415
 21
95.153171054899531
  0
LINE
  8
_1-a_元図__躯体
  6
CONTINUOUS
 62
  136
 10
109.05263180092416
 20
89.153171054899531
 11
123.75263180092415
 21
89.153171054899531
  0
LINE
  8
_1-a_元図__躯体
  6
CONTINUOUS
 62
  136
 10
109.05263180092416
 20
88.153171054899531
 11
123.75263180092415
 21
88.153171054899531
  0
LINE
  8
_1-a_元図__躯体
  6
CONTINUOUS
 62
  136
 10
109.05263180092416
 20
82.153171054899516
 11
123.75263180092415
 21
82.153171054899516
  0
LINE
  8
_1-a_元図__躯体
  6
CONTINUOUS
 62
  136
 10
109.05263180092416
 20
81.153171054899516
 11
123.75263180092415
 21
81.153171054899516
  0
LINE
  8
_1-a_元図__躯体
  6
CONTINUOUS
 62
  136
 10
109.05263180092416
 20
75.153171054899516
 11
123.75263180092415
 21
75.153171054899516
  0
LINE
  8
_1-a_元図__躯体
  6
CONTINUOUS
 62
  136
 10
109.05263180092416
 20
74.153171054899516
 11
123.75263180092415
 21
74.153171054899516
  0
LINE
  8
_1-b_その他
  6
CONTINUOUS
 62
    3
 10
107.35263180092414
 20
53.753171054899539
 11
110.35263180092414
 21
50.753171054899539
  0
LINE
  8
_1-b_その他
  6
CONTINUOUS
 62
    3
 10
106.55263180092413
 20
53.421821054899524
 11
110.02128180092416
 21
49.953171054899556
  0
LINE
  8
_1-b_その他
  6
CONTINUOUS
 62
    3
 10
107.35263180092414
 20
137.75317105489955
 11
107.35263180092414
 21
53.753171054899539
  0
LINE
  8
_1-b_その他
  6
CONTINUOUS
 62
    3
 10
106.55263180092413
 20
137.75317105489955
 11
106.55263180092413
 21
53.421821054899524
  0
LINE
  8
_1-b_その他
  6
CONTINUOUS
 62
    3
 10
110.02128180092416
 20
49.953171054899556
 11
210.20643180092415
 21
49.953171054899556
  0
LINE
  8
_1-b_その他
  6
CONTINUOUS
 62
    3
 10
110.35263180092414
 20
50.753171054899539
 11
210.20643180092415
 21
50.753171054899539
  0
LINE
  8
_1-8_下地など
  6
CONTINUOUS
 62
    7
 10
125.95263180092417
 20
137.75317105489955
 11
126.79963180092417
 21
140.29417105489955
  0
LINE
  8
_1-8_下地など
  6
CONTINUOUS
 62
    7
 10
126.79963180092417
 20
140.29417105489955
 11
129.34063180092417
 21
140.29417105489955
  0
LINE
  8
_1-8_下地など
  6
CONTINUOUS
 62
    7
 10
129.34063180092417
 20
140.29417105489955
 11
129.34063180092417
 21
137.75317105489955
  0
LINE
  8
_1-8_下地など
  6
CONTINUOUS
 62
    7
 10
129.34063180092417
 20
137.75317105489955
 11
131.55263180092416
 21
137.75317105489955
  0
LINE
  8
_1-8_下地など
  6
CONTINUOUS
 62
    7
 10
131.55263180092416
 20
137.75317105489955
 11
134.55263180092416
 21
140.75317105489955
  0
LINE
  8
_1-8_下地など
  6
CONTINUOUS
 62
    7
 10
134.55263180092416
 20
140.75317105489955
 11
125.95263180092417
 21
121.76062105489954
  0
LINE
  8
_1-8_下地など
  6
CONTINUOUS
 62
    7
 10
125.95263180092417
 20
121.76062105489954
 11
125.95263180092417
 21
137.75317105489955
  0
LINE
  8
_1-8_下地など
  6
CONTINUOUS
 62
    7
 10
126.79348439285313
 20
126.41891944093598
 11
126.89348439285313
 21
126.59212452169288
  0
LINE
  8
_1-8_下地など
  6
CONTINUOUS
 62
    7
 10
126.79348439285313
 20
126.41891944093598
 11
126.99348439285312
 21
126.41891944093598
  0
LINE
  8
_1-8_下地など
  6
CONTINUOUS
 62
    7
 10
126.99348439285312
 20
126.41891944093598
 11
126.89348439285313
 21
126.59212452169288
  0
LINE
  8
_1-8_下地など
  6
CONTINUOUS
 62
    7
 10
127.50059117404308
 20
129.95445334686534
 11
127.60059117404307
 21
130.12765842762221
  0
LINE
  8
_1-8_下地など
  6
CONTINUOUS
 62
    7
 10
127.50059117404308
 20
129.95445334686534
 11
127.70059117404307
 21
129.95445334686534
  0
LINE
  8
_1-8_下地など
  6
CONTINUOUS
 62
    7
 10
127.70059117404307
 20
129.95445334686534
 11
127.60059117404307
 21
130.12765842762221
  0
LINE
  8
_1-8_下地など
  6
CONTINUOUS
 62
    7
 10
128.58721551712952
 20
129.36981625544377
 11
128.38721551712953
 21
129.71622641695754
  0
LINE
  8
_1-8_下地など
  6
CONTINUOUS
 62
    7
 10
128.18721551712954
 20
129.36981625544377
 11
128.58721551712952
 21
129.36981625544377
  0
LINE
  8
_1-8_下地など
  6
CONTINUOUS
 62
    7
 10
128.18721551712954
 20
129.36981625544377
 11
128.38721551712953
 21
129.71622641695754
  0
LINE
  8
_1-8_下地など
  6
CONTINUOUS
 62
    7
 10
129.62191151760271
 20
132.07577369042497
 11
129.72191151760271
 21
132.24897877118184
  0
LINE
  8
_1-8_下地など
  6
CONTINUOUS
 62
    7
 10
129.62191151760271
 20
132.07577369042497
 11
129.8219115176027
 21
132.07577369042497
  0
LINE
  8
_1-8_下地など
  6
CONTINUOUS
 62
    7
 10
129.8219115176027
 20
132.07577369042497
 11
129.72191151760271
 21
132.24897877118184
  0
LINE
  8
_1-8_下地など
  6
CONTINUOUS
 62
    7
 10
126.08637761167338
 20
131.36866690923503
 11
126.18637761167338
 21
131.5418719899919
  0
LINE
  8
_1-8_下地など
  6
CONTINUOUS
 62
    7
 10
126.08637761167338
 20
131.36866690923503
 11
126.28637761167337
 21
131.36866690923503
  0
LINE
  8
_1-8_下地など
  6
CONTINUOUS
 62
    7
 10
126.28637761167337
 20
131.36866690923503
 11
126.18637761167338
 21
131.5418719899919
  0
LINE
  8
_1-8_下地など
  6
CONTINUOUS
 62
    7
 10
127.17300195475983
 20
130.78402981781346
 11
126.97300195475984
 21
131.13043997932724
  0
LINE
  8
_1-8_下地など
  6
CONTINUOUS
 62
    7
 10
126.77300195475985
 20
130.78402981781346
 11
127.17300195475983
 21
130.78402981781346
  0
LINE
  8
_1-8_下地など
  6
CONTINUOUS
 62
    7
 10
126.77300195475985
 20
130.78402981781346
 11
126.97300195475984
 21
131.13043997932724
  0
LINE
  8
_1-8_下地など
  6
CONTINUOUS
 62
    7
 10
128.20769795523302
 20
133.48998725279466
 11
128.30769795523301
 21
133.66319233355154
  0
LINE
  8
_1-8_下地など
  6
CONTINUOUS
 62
    7
 10
128.20769795523302
 20
133.48998725279466
 11
128.407697955233
 21
133.48998725279466
  0
LINE
  8
_1-8_下地など
  6
CONTINUOUS
 62
    7
 10
128.407697955233
 20
133.48998725279466
 11
128.30769795523301
 21
133.66319233355154
  0
LINE
  8
_1-8_下地など
  6
CONTINUOUS
 62
    7
 10
129.29432229831946
 20
132.90535016137309
 11
129.09432229831947
 21
133.25176032288687
  0
LINE
  8
_1-8_下地など
  6
CONTINUOUS
 62
    7
 10
128.89432229831948
 20
132.90535016137309
 11
129.29432229831946
 21
132.90535016137309
  0
LINE
  8
_1-8_下地など
  6
CONTINUOUS
 62
    7
 10
128.89432229831948
 20
132.90535016137309
 11
129.09432229831947
 21
133.25176032288687
  0
LINE
  8
_1-8_下地など
  6
CONTINUOUS
 62
    7
 10
130.32901829879268
 20
135.61130759635432
 11
130.42901829879267
 21
135.78451267711119
  0
LINE
  8
_1-8_下地など
  6
CONTINUOUS
 62
    7
 10
130.32901829879268
 20
135.61130759635432
 11
130.52901829879266
 21
135.61130759635432
  0
LINE
  8
_1-8_下地など
  6
CONTINUOUS
 62
    7
 10
130.52901829879266
 20
135.61130759635432
 11
130.42901829879267
 21
135.78451267711119
  0
LINE
  8
_1-8_下地など
  6
CONTINUOUS
 62
    7
 10
131.41564264187912
 20
135.02667050493272
 11
131.21564264187913
 21
135.37308066644653
  0
LINE
  8
_1-8_下地など
  6
CONTINUOUS
 62
    7
 10
131.01564264187914
 20
135.02667050493272
 11
131.41564264187912
 21
135.02667050493272
  0
LINE
  8
_1-8_下地など
  6
CONTINUOUS
 62
    7
 10
131.01564264187914
 20
135.02667050493272
 11
131.21564264187913
 21
135.37308066644653
  0
LINE
  8
_1-8_下地など
  6
CONTINUOUS
 62
    7
 10
126.79348439286332
 20
134.90420081516436
 11
126.89348439286331
 21
135.07740589592123
  0
LINE
  8
_1-8_下地など
  6
CONTINUOUS
 62
    7
 10
126.79348439286332
 20
134.90420081516436
 11
126.99348439286331
 21
134.90420081516436
  0
LINE
  8
_1-8_下地など
  6
CONTINUOUS
 62
    7
 10
126.99348439286331
 20
134.90420081516436
 11
126.89348439286331
 21
135.07740589592123
  0
LINE
  8
_1-8_下地など
  6
CONTINUOUS
 62
    7
 10
127.88010873594976
 20
134.31956372374279
 11
127.68010873594977
 21
134.66597388525656
  0
LINE
  8
_1-8_下地など
  6
CONTINUOUS
 62
    7
 10
127.48010873594978
 20
134.31956372374279
 11
127.88010873594976
 21
134.31956372374279
  0
LINE
  8
_1-8_下地など
  6
CONTINUOUS
 62
    7
 10
127.48010873594978
 20
134.31956372374279
 11
127.68010873594977
 21
134.66597388525656
  0
LINE
  8
_1-8_下地など
  6
CONTINUOUS
 62
    7
 10
128.91480473642298
 20
137.02552115872402
 11
129.01480473642297
 21
137.19872623948089
  0
LINE
  8
_1-8_下地など
  6
CONTINUOUS
 62
    7
 10
128.91480473642298
 20
137.02552115872402
 11
129.11480473642297
 21
137.02552115872402
  0
LINE
  8
_1-8_下地など
  6
CONTINUOUS
 62
    7
 10
129.11480473642297
 20
137.02552115872402
 11
129.01480473642297
 21
137.19872623948089
  0
LINE
  8
_1-8_下地など
  6
CONTINUOUS
 62
    7
 10
130.00142907950942
 20
136.44088406730242
 11
129.80142907950943
 21
136.78729422881622
  0
LINE
  8
_1-8_下地など
  6
CONTINUOUS
 62
    7
 10
129.60142907950944
 20
136.44088406730242
 11
130.00142907950942
 21
136.44088406730242
  0
LINE
  8
_1-8_下地など
  6
CONTINUOUS
 62
    7
 10
129.60142907950944
 20
136.44088406730242
 11
129.80142907950943
 21
136.78729422881622
  0
LINE
  8
_1-8_下地など
  6
CONTINUOUS
 62
    7
 10
127.50059117405328
 20
138.43973472109371
 11
127.60059117405328
 21
138.61293980185059
  0
LINE
  8
_1-8_下地など
  6
CONTINUOUS
 62
    7
 10
127.50059117405328
 20
138.43973472109371
 11
127.70059117405327
 21
138.43973472109371
  0
LINE
  8
_1-8_下地など
  6
CONTINUOUS
 62
    7
 10
127.70059117405327
 20
138.43973472109371
 11
127.60059117405328
 21
138.61293980185059
  0
LINE
  8
_1-8_下地など
  6
CONTINUOUS
 62
    7
 10
128.58721551713973
 20
137.85509762967212
 11
128.38721551713974
 21
138.20150779118592
  0
LINE
  8
_1-8_下地など
  6
CONTINUOUS
 62
    7
 10
128.18721551713975
 20
137.85509762967212
 11
128.58721551713973
 21
137.85509762967212
  0
LINE
  8
_1-8_下地など
  6
CONTINUOUS
 62
    7
 10
128.18721551713975
 20
137.85509762967212
 11
128.38721551713974
 21
138.20150779118592
  0
TEXT
  8
_e-e_
 62
    7
 10
179.8892451343784
 20
83.238224811289186
 40
4
 41
1
 50
0
  1
リベットルーフ
  0
LINE
  8
_e-e_
  6
CONTINUOUS
 62
    7
 10
174.8892451343784
 20
85.238224811289186
 11
179.88924513437837
 21
85.238224811289186
  0
LINE
  8
_e-e_
  6
CONTINUOUS
 62
    7
 10
174.8892451343784
 20
85.238224811289186
 11
164.85197966825072
 21
67.85317105489959
  0
LINE
  8
_1-3_断熱材
  6
DASHED1
 62
    7
 10
125.95263180092411
 20
67.853171054899548
 11
210.20643180092412
 21
67.853171054899548
  0
TEXT
  8
_e-e_
 62
    7
 10
21.300409767147471
 20
26.848795432485645
 40
4
 41
1
 50
0
  1
※上記は一例です。あごの深さ、パラペットの高さなどによって
  0
TEXT
  8
_e-e_
 62
    7
 10
21.300409767147471
 20
21.848795432485645
 40
4
 41
1
 50
0
  1
　異なる納まりとなる場合があります。
  0
ENDSEC
  0
EOF
