  0
SECTION
  2
HEADER
  9
$ACADVER
  1
AC1009
  9
$INSBASE
 10
0
 20
0
 30
0
  9
$EXTMIN
 10
0
 20
0
  9
$EXTMAX
 10
297
 20
210
  9
$LIMMIN
 10
0
 20
0
  9
$LIMMAX
 10
297
 20
210
  9
$LTSCALE
 40
1
  0
ENDSEC
  0
SECTION
  2
TABLES
  0
TABLE
  2
LTYPE
 70
     9
  0
LTYPE
  2
CONTINUOUS
 70
    64
  3
実線
 72
    65
 73
     0
 40
0.0
  0
LTYPE
  2
DASHED1
 70
    64
  3
--  --  --  --  --  --  --  --  
 72
    65
 73
     2
 40
2.5
 49
1.25
 49
-1.25
  0
LTYPE
  2
DASHED2
 70
    64
  3
----    ----    ----    ----    
 72
    65
 73
     2
 40
5.0
 49
2.5
 49
-2.5
  0
LTYPE
  2
DASHED3
 70
    64
  3
------  ------  ------  ------  
 72
    65
 73
     2
 40
5.0
 49
3.75
 49
-1.25
  0
LTYPE
  2
CENTER1
 70
    64
  3
----- - ----- - ----- - ----- - 
 72
    65
 73
     4
 40
10.0
 49
6.25
 49
-1.25
 49
1.25
 49
-1.25
  0
LTYPE
  2
CENTER2
 70
    64
  3
----------  --  ----------  --  
 72
    65
 73
     4
 40
20.0
 49
12.5
 49
-2.5
 49
2.5
 49
-2.5
  0
LTYPE
  2
PHANTOM1
 70
    64
  3
--- - - --- - - --- - - --- - - 
 72
    65
 73
     6
 40
10.0
 49
3.25
 49
-1.25
 49
1.25
 49
-1.25
 49
1.25
 49
-1.25
  0
LTYPE
  2
PHANTOM2
 70
    64
  3
--------  -  -  --------  -  -  
 72
    65
 73
     6
 40
20.0
 49
10.0
 49
-2.5
 49
1.25
 49
-2.5
 49
1.25
 49
-2.5
  0
LTYPE
  2
DOT
 70
    64
  3
-   -   -   -   -   -   -   -   
 72
    65
 73
     2
 40
2.5
 49
0.625
 49
-1.875
  0
LTYPE
  2
DUMMY
 70
    64
  3
ダミー
 72
    65
 73
     0
 40
0.0
  0
LTYPE
  2
RAND1
 70
    64
  3
ランダム線1
 72
    65
 73
     4
 40
10.0
 49
1.0
 49
-2.0
 49
3.0
 49
-4.0
  0
LTYPE
  2
RAND2
 70
    64
  3
ランダム線2
 72
    65
 73
     4
 40
14.0
 49
2.0
 49
-3.0
 49
4.0
 49
-5.0
  0
LTYPE
  2
RAND3
 70
    64
  3
ランダム線3
 72
    65
 73
     4
 40
18.0
 49
3.0
 49
-4.0
 49
5.0
 49
-6.0
  0
LTYPE
  2
RAND4
 70
    64
  3
ランダム線4
 72
    65
 73
     4
 40
22.0
 49
4.0
 49
-5.0
 49
6.0
 49
-7.0
  0
LTYPE
  2
RAND5
 70
    64
  3
ランダム線5
 72
    65
 73
     4
 40
26.0
 49
5.0
 49
-6.0
 49
7.0
 49
-8.0
  0
LTYPE
  2
LONG1
 70
    64
  3
----------  --  ----------  --  
 72
    65
 73
     4
 40
40.0
 49
32.5
 49
-2.5
 49
2.5
 49
-2.5
  0
LTYPE
  2
LONG2
 70
    64
  3
--------  -  -  --------  -  -  
 72
    65
 73
     6
 40
40.0
 49
30.0
 49
-2.5
 49
1.25
 49
-2.5
 49
1.25
 49
-2.5
  0
LTYPE
  2
LONG3
 70
    64
  3
+++++++++++++++..+++++++++++++++
 72
    65
 73
     2
 40
40.0
 49
37.5
 49
-2.5
  0
LTYPE
  2
LONG4
 70
    64
  3
+++++++++++++++..+++++++++++++++
 72
    65
 73
     2
 40
80.0
 49
75.0
 49
-5.0
  0
LTYPE
  2
LONG5
 70
    64
  3
----------  --  ----------  --  
 72
    65
 73
     4
 40
60.0
 49
37.5
 49
-7.5
 49
7.5
 49
-7.5
  0
LTYPE
  2
dashed
 70
   64
  3
-------   -------------   ------
 72
   65
 73
    2
 40
7.5
 49
6
 49
-1.5
  0
LTYPE
  2
dashed_spaced
 70
   64
  3
----        --------        ----
 72
   65
 73
    2
 40
12
 49
6
 49
-6
  0
LTYPE
  2
long_dashed_dotted
 70
   64
  3
------------- --- --------------
 72
   65
 73
    4
 40
15.25
 49
12
 49
-1.5
 49
0.25
 49
-1.5
  0
LTYPE
  2
long_dashed_double-dotted
 70
   64
  3
----------- --- --- ------------
 72
   65
 73
    6
 40
17
 49
12
 49
-1.5
 49
0.25
 49
-1.5
 49
0.25
 49
-1.5
  0
LTYPE
  2
long_dashed_triplicate-dotted
 70
   64
  3
--------- --- --- --- ----------
 72
   65
 73
    8
 40
18.75
 49
12
 49
-1.5
 49
0.25
 49
-1.5
 49
0.25
 49
-1.5
 49
0.25
 49
-1.5
  0
LTYPE
  2
dotted
 70
   64
  3
   -       -       -       -    
 72
   65
 73
    2
 40
1.75
 49
0.25
 49
-1.5
  0
LTYPE
  2
chain
 70
   64
  3
-------------- -- --------------
 72
   65
 73
    4
 40
18.5
 49
12
 49
-1.5
 49
3.5
 49
-1.5
  0
LTYPE
  2
chain_double_dash
 70
   64
  3
------------ -- -- -------------
 72
   65
 73
    6
 40
23.5
 49
12
 49
-1.5
 49
3.5
 49
-1.5
 49
3.5
 49
-1.5
  0
LTYPE
  2
dashed_dotted
 70
   64
  3
-----------     -     ----------
 72
   65
 73
    4
 40
9.25
 49
6
 49
-1.5
 49
0.25
 49
-1.5
  0
LTYPE
  2
double-dashed_dotted
 70
   64
  3
------   -----------   -   -----
 72
   65
 73
    6
 40
16.75
 49
6
 49
-1.5
 49
6
 49
-1.5
 49
0.25
 49
-1.5
  0
LTYPE
  2
dashed_double-dotted
 70
   64
  3
---------    -    -    ---------
 72
   65
 73
    6
 40
11
 49
6
 49
-1.5
 49
0.25
 49
-1.5
 49
0.25
 49
-1.5
  0
LTYPE
  2
double-dashed_double-dotted
 70
   64
  3
-----   ---------   -   -   ----
 72
   65
 73
    8
 40
18.5
 49
6
 49
-1.5
 49
6
 49
-1.5
 49
0.25
 49
-1.5
 49
0.25
 49
-1.5
  0
LTYPE
  2
dashed_triplicate-dotted
 70
   64
  3
-------    -    -    -    ------
 72
   65
 73
    8
 40
12.75
 49
6
 49
-1.5
 49
0.25
 49
-1.5
 49
0.25
 49
-1.5
 49
0.25
 49
-1.5
  0
LTYPE
  2
double-dashed_triplicate-dotted
 70
   64
  3
-----  ---------  -  -  -  -----
 72
   65
 73
   10
 40
20.25
 49
6
 49
-1.5
 49
6
 49
-1.5
 49
0.25
 49
-1.5
 49
0.25
 49
-1.5
 49
0.25
 49
-1.5
  0
LTYPE
  2
undefined
 70
   64
  3
--------------------------------
 72
   65
 73
    0
 40
0
  0
LTYPE
  2
AIGENLINE001
 70
   64
  3
                                
 72
   65
 73
    4
 40
4.2333600000000002
 49
2.1166800000000001
 49
-0.7055599999999999
 49
0.7055599999999999
 49
-0.7055599999999999
  0
LTYPE
  2
2-AXIS
 70
   64
  3
                                
 72
   65
 73
    0
 40
0
  0
LTYPE
  2
BORDER
 70
   64
  3
                                
 72
   65
 73
    0
 40
0
  0
LTYPE
  2
BORDER2
 70
   64
  3
                                
 72
   65
 73
    0
 40
0
  0
LTYPE
  2
BORDERX2
 70
   64
  3
                                
 72
   65
 73
    0
 40
0
  0
LTYPE
  2
CENTER
 70
   64
  3
                                
 72
   65
 73
    0
 40
0
  0
LTYPE
  2
CENTER2_23
 70
   64
  3
                                
 72
   65
 73
    0
 40
0
  0
LTYPE
  2
CENTERX2
 70
   64
  3
                                
 72
   65
 73
    0
 40
0
  0
LTYPE
  2
DASHDOT
 70
   64
  3
                                
 72
   65
 73
    0
 40
0
  0
LTYPE
  2
DASHDOT2
 70
   64
  3
                                
 72
   65
 73
    0
 40
0
  0
LTYPE
  2
DASHDOTX2
 70
   64
  3
                                
 72
   65
 73
    0
 40
0
  0
LTYPE
  2
DASHED
 70
   64
  3
                                
 72
   65
 73
    0
 40
0
  0
LTYPE
  2
DASHED2_29
 70
   64
  3
                                
 72
   65
 73
    0
 40
0
  0
LTYPE
  2
DASHEDX2
 70
   64
  3
                                
 72
   65
 73
    0
 40
0
  0
LTYPE
  2
DIVIDE
 70
   64
  3
                                
 72
   65
 73
    0
 40
0
  0
LTYPE
  2
DIVIDE2
 70
   64
  3
                                
 72
   65
 73
    0
 40
0
  0
ENDTAB
  0
TABLE
  2
STYLE
  5
3
100
AcDbSymbolTable
 70
     1
  0
STYLE
  5
10
100
AcDbSymbolTableRecord
100
AcDbTextStyleTableRecord
  2
STANDARD
 70
     0
 40
0.0
 41
1.0
 50
0.0
 71
     0
 42
0.2
  3
txt
  4
bigfont.shx
  0
STYLE
  5
26
100
AcDbSymbolTableRecord
100
AcDbTextStyleTableRecord
  2
TATEGAKI
 70
    68
 40
0.0
 41
1.0
 50
0.0
 71
     0
 42
1.0
  3
txt
  4
bigfont.shx
  0
ENDTAB
  0
TABLE
  2
LAYER
 70
   13
  0
LAYER
  2
_1-2_ハッチング
 70
   64
 62
    7
  6
CONTINUOUS
  0
LAYER
  2
_1-4_リベットル__フ
 70
   64
 62
    7
  6
CONTINUOUS
  0
LAYER
  2
_1-6_アンカ__類
 70
   64
 62
    7
  6
CONTINUOUS
  0
LAYER
  2
_1-7_設備
 70
   64
 62
    7
  6
CONTINUOUS
  0
LAYER
  2
_1-8_下地など
 70
   64
 62
    7
  6
CONTINUOUS
  0
LAYER
  2
_1-9_下地鋼板
 70
   64
 62
    7
  6
CONTINUOUS
  0
LAYER
  2
_1-a_元図__躯体
 70
   64
 62
    7
  6
CONTINUOUS
  0
LAYER
  2
_1-b_その他
 70
   64
 62
    7
  6
CONTINUOUS
  0
LAYER
  2
_1-c_アンカ__類②
 70
   64
 62
    7
  6
CONTINUOUS
  0
LAYER
  2
_1-d_設備②
 70
   64
 62
    7
  6
CONTINUOUS
  0
LAYER
  2
_e-e_
 70
   64
 62
    7
  6
CONTINUOUS
  0
LAYER
  2
_f-f_
 70
   64
 62
    7
  6
CONTINUOUS
  0
LAYER
  2
ADD_LINE
 70
   64
 62
    7
  6
CONTINUOUS
  0
ENDTAB
  0
ENDSEC
  0
SECTION
  2
BLOCKS
  0
ENDSEC
  0
SECTION
  2
ENTITIES
  0
LINE
  8
_1-7_設備
  6
CONTINUOUS
 62
    3
 10
157.92247530303018
 20
117.81084353353172
 11
157.92247530303018
 21
56.959803533531684
  0
LINE
  8
_1-7_設備
  6
CONTINUOUS
 62
    3
 10
157.12247530303017
 20
117.81084353353172
 11
157.12247530303017
 21
56.309483533531719
  0
LINE
  8
_1-7_設備
  6
CONTINUOUS
 62
    3
 10
157.12247530303017
 20
117.81084353353172
 11
157.92247530303018
 21
117.81084353353172
  0
LINE
  8
_1-7_設備
  6
CONTINUOUS
 62
    3
 10
135.52247530303015
 20
117.81084353353172
 11
135.52247530303015
 21
56.959803533531684
  0
LINE
  8
_1-7_設備
  6
CONTINUOUS
 62
    3
 10
136.32247530303016
 20
117.81084353353172
 11
136.32247530303016
 21
57.595563533531717
  0
LINE
  8
_1-7_設備
  6
CONTINUOUS
 62
    3
 10
135.52247530303015
 20
117.81084353353172
 11
136.32247530303016
 21
117.81084353353172
  0
ARC
  8
_1-7_設備
  6
CONTINUOUS
 62
    3
 10
141.17247530303018
 20
50.671403533531716
 40
8.4538399999999996
 50
48.061000000000007
 51
131.93899999999999
  0
ARC
  8
_1-7_設備
  6
CONTINUOUS
 62
    3
 10
141.17247530303018
 20
63.248203533531708
 40
8.4538399999999996
 50
228.06100000000004
 51
311.93900000000008
  0
ARC
  8
_1-7_設備
  6
CONTINUOUS
 62
    3
 10
152.37247530303017
 20
62.970043533531722
 40
8.1808000000000032
 50
227.28000000000006
 51
312.72000000000008
  0
LINE
  8
_1-7_設備
  6
CONTINUOUS
 62
   83
 10
112.90058672918843
 20
125.89941616676276
 11
112.72247560938419
 21
124.47461639271066
  0
LINE
  8
_1-7_設備
  6
CONTINUOUS
 62
   83
 10
157.22248948958
 20
119.47466248721476
 11
137.27408370900866
 21
119.47466248721476
  0
LINE
  8
_1-7_設備
  6
CONTINUOUS
 62
   83
 10
158.38271884037331
 20
119.67413822114484
 11
137.21098080420651
 21
119.67413822114484
  0
LINE
  8
_1-7_設備
  6
CONTINUOUS
 62
   83
 10
180.54440351437481
 20
125.89941616676276
 11
180.72249481542755
 21
124.47461639271066
  0
LINE
  8
_1-7_設備
  6
CONTINUOUS
 62
   83
 10
158.34795675022789
 20
119.59307952747629
 11
158.13050540867991
 21
119.57018886948433
  0
LINE
  8
_1-7_設備
  6
CONTINUOUS
 62
   83
 10
159.48265954907865
 20
120.41889717469591
 11
159.46157239747387
 21
120.37536528700815
  0
LINE
  8
_1-7_設備
  6
CONTINUOUS
 62
   83
 10
120.5464628735387
 20
120.24705868974402
 11
120.86007479740454
 21
122.5009263862631
  0
LINE
  8
_1-7_設備
  6
CONTINUOUS
 62
   83
 10
118.50281267426718
 20
120.25268721517236
 11
118.15247660385663
 21
123.42784939430183
  0
LINE
  8
_1-7_設備
  6
CONTINUOUS
 62
   83
 10
135.22248619038234
 20
118.47462810486228
 11
135.22248619038234
 21
116.2746277749425
  0
LINE
  8
_1-7_設備
  6
CONTINUOUS
 62
   83
 10
135.22248619038234
 20
118.47462810486228
 11
158.22246441567793
 21
118.47462810486228
  0
LINE
  8
_1-7_設備
  6
CONTINUOUS
 62
   83
 10
135.41950439912537
 20
112.07463795532378
 11
135.68200376285156
 21
116.2746277749425
  0
LINE
  8
_1-7_設備
  6
CONTINUOUS
 62
   83
 10
158.22246441567793
 20
116.2746277749425
 11
135.22248619038234
 21
116.2746277749425
  0
LINE
  8
_1-7_設備
  6
CONTINUOUS
 62
   83
 10
158.22246441567793
 20
118.47462810486228
 11
158.22246441567793
 21
116.2746277749425
  0
LINE
  8
_1-7_設備
  6
CONTINUOUS
 62
   83
 10
158.02550566318942
 20
112.07463795532378
 11
157.76298648071176
 21
116.2746277749425
  0
LINE
  8
_1-7_設備
  6
CONTINUOUS
 62
   83
 10
135.73499910438449
 20
112.39013266058289
 11
135.9777986291115
 21
116.2746277749425
  0
LINE
  8
_1-7_設備
  6
CONTINUOUS
 62
   83
 10
157.70995150167576
 20
112.39013266058289
 11
157.4671717957003
 21
116.2746277749425
  0
LINE
  8
_1-7_設備
  6
CONTINUOUS
 62
   83
 10
157.07238226565684
 20
118.57405878117893
 11
157.05581378939596
 21
118.47462810486228
  0
LINE
  8
_1-7_設備
  6
CONTINUOUS
 62
   83
 10
136.95068132189775
 20
120.30794189437722
 11
137.26056732048005
 21
118.47462810486228
  0
LINE
  8
_1-7_設備
  6
CONTINUOUS
 62
   83
 10
136.75348474439116
 20
120.47461759456122
 11
136.387174760265
 21
120.47461759456122
  0
LINE
  8
_1-7_設備
  6
CONTINUOUS
 62
   83
 10
180.34593853677168
 20
126.0746139300953
 11
180.32251277248903
 21
126.0746139300953
  0
LINE
  8
_1-7_設備
  6
CONTINUOUS
 62
   83
 10
113.12243783357127
 20
126.0746139300953
 11
113.09905170679158
 21
126.0746139300953
  0
LINE
  8
_1-7_設備
  6
CONTINUOUS
 62
   83
 10
133.02581541071595
 20
120.53444049598875
 11
132.8843887999534
 21
120.77942008338167
  0
LINE
  8
_1-7_設備
  6
CONTINUOUS
 62
   83
 10
133.02581541071595
 20
120.53444049598875
 11
133.31560519526892
 21
120.45682035570687
  0
LINE
  8
_1-7_設備
  6
CONTINUOUS
 62
   83
 10
133.31560519526892
 20
120.45682035570687
 11
133.56056496391034
 21
120.59822714771791
  0
LINE
  8
_1-7_設備
  6
CONTINUOUS
 62
   83
 10
133.56056496391034
 20
120.59822714771791
 11
133.83406373472354
 21
120.52493740464057
  0
LINE
  8
_1-7_設備
  6
CONTINUOUS
 62
   83
 10
159.88440546090143
 20
120.59822714771791
 11
159.61092650883975
 21
120.52493740464057
  0
LINE
  8
_1-7_設備
  6
CONTINUOUS
 62
   83
 10
160.12934541079133
 20
120.45682035570687
 11
159.88440546090143
 21
120.59822714771791
  0
LINE
  8
_1-7_設備
  6
CONTINUOUS
 62
   83
 10
160.4191351953443
 20
120.53443058661298
 11
160.12934541079133
 21
120.45682035570687
  0
LINE
  8
_1-7_設備
  6
CONTINUOUS
 62
   83
 10
160.56054198735538
 20
120.77939035525441
 11
160.4191351953443
 21
120.53443058661298
  0
LINE
  8
_1-7_設備
  6
CONTINUOUS
 62
   83
 10
135.05775272784615
 20
119.2746219188667
 11
135.05775272784615
 21
119.07462098802165
  0
LINE
  8
_1-7_設備
  6
CONTINUOUS
 62
   83
 10
135.05775272784615
 20
119.07462098802165
 11
136.387174760265
 21
119.07462098802165
  0
LINE
  8
_1-7_設備
  6
CONTINUOUS
 62
   83
 10
136.387174760265
 20
119.2746219188667
 11
136.387174760265
 21
119.07462098802165
  0
LINE
  8
_1-7_設備
  6
CONTINUOUS
 62
   83
 10
135.05779236534914
 20
119.07462098802165
 11
135.72247365343131
 21
118.69086059319254
  0
LINE
  8
_1-7_設備
  6
CONTINUOUS
 62
   83
 10
136.387174760265
 20
119.07462098802165
 11
135.72247365343131
 21
118.69086059319254
  0
LINE
  8
_1-7_設備
  6
CONTINUOUS
 62
   83
 10
118.70161457064597
 20
120.07460582349539
 11
120.34837445221419
 21
120.07460582349539
  0
LINE
  8
_1-7_設備
  6
CONTINUOUS
 62
   83
 10
135.41950439912537
 20
112.07463795532378
 11
135.73499910438449
 21
112.39013266058289
  0
LINE
  8
_1-7_設備
  6
CONTINUOUS
 62
   83
 10
135.73499910438449
 20
112.39013266058289
 11
157.70995150167576
 21
112.39013266058289
  0
LINE
  8
_1-7_設備
  6
CONTINUOUS
 62
   83
 10
157.70995150167576
 20
112.39013266058289
 11
158.02550566318942
 21
112.07463795532378
  0
LINE
  8
_1-7_設備
  6
CONTINUOUS
 62
   83
 10
119.60267410796649
 20
124.33824356358271
 11
113.12243783357127
 21
126.0746139300953
  0
LINE
  8
_1-7_設備
  6
CONTINUOUS
 62
   83
 10
173.84229631684528
 20
124.33823365420695
 11
180.32251277248903
 21
126.0746139300953
  0
LINE
  8
_1-7_設備
  6
CONTINUOUS
 62
   83
 10
134.02220314279091
 20
120.47461759456122
 11
133.98833289646342
 21
120.47461759456122
  0
LINE
  8
_1-7_設備
  6
CENTER1
 62
   83
 10
119.52250725811581
 20
117.07459186081968
 11
119.52250725811581
 21
123.32444505830776
  0
ARC
  8
_1-7_設備
  6
CONTINUOUS
 62
   83
 10
113.09905170679158
 20
125.87459318049874
 40
0.2000000018410701
 50
90
 51
172.87471008300784
  0
ARC
  8
_1-7_設備
  6
CONTINUOUS
 62
   83
 10
180.34593853677168
 20
125.87459318049874
 40
0.2000000018410701
 50
7.1252899169921875
 51
90
  0
ARC
  8
_1-7_設備
  6
CONTINUOUS
 62
   83
 10
158.25603738073281
 20
118.37679283804202
 40
1.2000000110464208
 50
96.005477905273438
 51
170.53822326660156
  0
ARC
  8
_1-7_設備
  6
CONTINUOUS
 62
   83
 10
158.20149617658225
 20
120.98538645843068
 40
1.4000000128874905
 50
276.00527954101562
 51
334.16737365722656
  0
ARC
  8
_1-7_設備
  6
CONTINUOUS
 62
   83
 10
159.66269308777916
 20
120.33175412431433
 40
0.2000000018410701
 50
105.0001220703125
 51
154.16847229003906
  0
ARC
  8
_1-7_設備
  6
CONTINUOUS
 62
   83
 10
121.25625164005353
 20
122.44578071019151
 40
0.4000000036821402
 50
75.000106811523438
 51
172.0778503417969
  0
ARC
  8
_1-7_設備
  6
CONTINUOUS
 62
   83
 10
117.75489262985053
 20
123.38398058783841
 40
0.4000000036821402
 50
6.29754638671875
 51
75.000106811523438
  0
ARC
  8
_1-7_設備
  6
CONTINUOUS
 62
   83
 10
120.34837445221419
 20
120.27460675434043
 40
0.2000000018410701
 50
270
 51
352.07887268066406
  0
ARC
  8
_1-7_設備
  6
CONTINUOUS
 62
   83
 10
118.70161457064597
 20
120.27460675434043
 40
0.2000000018410701
 50
186.29656982421875
 51
270
  0
ARC
  8
_1-7_設備
  6
CONTINUOUS
 62
   83
 10
136.75348474439116
 20
120.27460675434043
 40
0.2000000018410701
 50
9.5928497314453125
 51
90
  0
ARC
  8
_1-7_設備
  6
CONTINUOUS
 62
   83
 10
133.98833289646342
 20
120.67460861603053
 40
0.2000000018410701
 50
238.99549865722656
 51
270
  0
ARC
  8
_1-7_設備
  6
CONTINUOUS
 62
   83
 10
133.78227733703261
 20
120.33175412431433
 40
0.2000000018410701
 50
58.99462890625
 51
74.9998779296875
  0
ARC
  8
_1-7_設備
  6
CONTINUOUS
 62
   83
 10
132.75261392117537
 20
120.60767078281157
 40
0.2000000018410701
 50
29.999984741210937
 51
74.999465942382812
  0
ARC
  8
_1-7_設備
  6
CONTINUOUS
 62
   83
 10
133.5888066848095
 20
120.38359997825981
 40
0.2000000018410701
 50
74.996353149414077
 51
119.99487304687501
  0
ARC
  8
_1-7_設備
  6
CONTINUOUS
 62
   83
 10
133.28734365561823
 20
120.67143761578922
 40
0.2000000018410701
 50
255.0076904296875
 51
299.998046875
  0
ARC
  8
_1-7_設備
  6
CONTINUOUS
 62
   83
 10
133.15761010824551
 20
120.70618979655885
 40
0.2000000018410701
 50
209.99876403808594
 51
255.0076904296875
  0
ARC
  8
_1-7_設備
  6
CONTINUOUS
 62
   83
 10
159.8561637400023
 20
120.38359997825981
 40
0.2000000018410701
 50
60.001953125000007
 51
105.00090026855469
  0
ARC
  8
_1-7_設備
  6
CONTINUOUS
 62
   83
 10
160.15760695044204
 20
120.67143761578922
 40
0.2000000018410701
 50
240.00123596191409
 51
284.99505615234375
  0
ARC
  8
_1-7_設備
  6
CONTINUOUS
 62
   83
 10
160.28734049781477
 20
120.70618979655885
 40
0.2000000018410701
 50
284.99468994140625
 51
330.00265502929687
  0
ARC
  8
_1-7_設備
  6
CONTINUOUS
 62
   83
 10
160.69233668488491
 20
120.60765096406007
 40
0.2000000018410701
 50
105.00090026855469
 51
150.00389099121097
  0
LINE
  8
_1-7_設備
  6
CONTINUOUS
 62
   83
 10
112.72247560938419
 20
124.47461639271066
 11
112.92246663085351
 21
124.27461546186559
  0
LINE
  8
_1-7_設備
  6
CONTINUOUS
 62
   83
 10
112.92246663085351
 20
124.27461546186559
 11
113.92248119445452
 21
124.27461546186559
  0
ARC
  8
_1-7_設備
  6
CONTINUOUS
 62
   83
 10
114.87583250762944
 20
122.29190792348179
 40
2.2000000202517711
 50
74.999984741210952
 51
115.67964172363281
  0
ARC
  8
_1-7_設備
  6
CONTINUOUS
 62
   83
 10
131.60056391887909
 20
119.05284408364598
 40
1
 50
6.0620772671626479
 51
74.999955678506367
  0
ARC
  8
_1-7_設備
  6
CONTINUOUS
 62
   83
 10
131.64583058353153
 20
118.62660342832059
 40
1
 50
6.0620772671625334
 51
74.999951063038878
  0
ARC
  8
_1-7_設備
  6
CONTINUOUS
 62
   83
 10
133.10236002376277
 20
116.27460822719654
 40
0.2
 50
186.06207726716264
 51
270
  0
ARC
  8
_1-7_設備
  6
CONTINUOUS
 62
   83
 10
133.64147812892551
 20
115.87460822719655
 40
0.2
 50
5.7106997024806567
 51
90.000000000000014
  0
ARC
  8
_1-7_設備
  6
CONTINUOUS
 62
   83
 10
134.58447716527641
 20
112.47460822719654
 40
0.4
 50
185.71069970248067
 51
270
  0
LINE
  8
_1-7_設備
  6
CONTINUOUS
 62
   83
 10
131.90465045364192
 20
119.59252903354908
 11
120.8698783780722
 21
122.54929740146201
  0
LINE
  8
_1-7_設備
  6
CONTINUOUS
 62
   83
 10
118.16957948058186
 20
123.27284278231188
 11
114.11990568760356
 21
124.35795331195786
  0
LINE
  8
_1-7_設備
  6
CONTINUOUS
 62
   83
 10
131.85938371117925
 20
120.01876970972373
 11
121.35682348517116
 21
122.83293094836185
  0
LINE
  8
_1-7_設備
  6
CONTINUOUS
 62
   83
 10
117.86246486400807
 20
123.76924441612245
 11
115.44522523846015
 21
124.41694382582176
  0
LINE
  8
_1-7_設備
  6
CONTINUOUS
 62
   83
 10
134.18646236322027
 20
112.43480599931645
 11
133.84048552995361
 21
115.8945093411366
  0
LINE
  8
_1-7_設備
  6
CONTINUOUS
 62
   83
 10
133.10236002376277
 20
116.07460822719653
 11
133.64147812892551
 21
116.07460822719653
  0
LINE
  8
_1-7_設備
  6
CONTINUOUS
 62
   83
 10
132.90347841175785
 20
116.25348704336838
 11
132.59497197890394
 21
119.15845000278678
  0
LINE
  8
_1-7_設備
  6
CONTINUOUS
 62
   83
 10
134.58447716527641
 20
112.07463795532378
 11
158.84465430052651
 21
112.07463795532378
  0
LINE
  8
_1-7_設備
  6
CONTINUOUS
 62
   83
 10
180.72249481542755
 20
124.47461639271066
 11
180.52250379395829
 21
124.27461546186559
  0
LINE
  8
_1-7_設備
  6
CONTINUOUS
 62
   83
 10
180.52250379395829
 20
124.27461546186559
 11
179.52248923035731
 21
124.27461546186559
  0
ARC
  8
_1-7_設備
  6
CONTINUOUS
 62
   83
 10
178.5691280078066
 20
122.29190792348179
 40
2.2000000202517711
 50
64.320343017578139
 51
105.00000000000001
  0
ARC
  8
_1-7_設備
  6
CONTINUOUS
 62
   83
 10
161.84441641530847
 20
119.05284408364597
 40
1
 50
105.00004432149363
 51
173.93792273283736
  0
ARC
  8
_1-7_設備
  6
CONTINUOUS
 62
   83
 10
161.79914975065608
 20
118.62660342832058
 40
1
 50
105.00004893696115
 51
173.93792273283751
  0
ARC
  8
_1-7_設備
  6
CONTINUOUS
 62
   83
 10
160.34262031042473
 20
116.2746082271965
 40
0.2
 50
270
 51
353.93792273283736
  0
ARC
  8
_1-7_設備
  6
CONTINUOUS
 62
   83
 10
159.80350220526205
 20
115.87460822719649
 40
0.2
 50
89.999999999999986
 51
174.28930029751933
  0
ARC
  8
_1-7_設備
  6
CONTINUOUS
 62
   83
 10
158.86050316891121
 20
112.4746082271965
 40
0.4
 50
270
 51
354.28930029751933
  0
LINE
  8
_1-7_設備
  6
CONTINUOUS
 62
   83
 10
161.54032988054561
 20
119.59252903354903
 11
179.325074646584
 21
124.35795331195784
  0
LINE
  8
_1-7_設備
  6
CONTINUOUS
 62
   83
 10
161.58559663235505
 20
120.01876970918627
 11
175.55622521865254
 21
123.76219980651454
  0
LINE
  8
_1-7_設備
  6
CONTINUOUS
 62
   83
 10
175.55622521865254
 20
123.76219980651454
 11
177.99973527697588
 21
124.41694382582176
  0
LINE
  8
_1-7_設備
  6
CONTINUOUS
 62
   83
 10
159.25851797096735
 20
112.43480599931641
 11
159.60449480423401
 21
115.89450934113654
  0
LINE
  8
_1-7_設備
  6
CONTINUOUS
 62
   83
 10
160.34262031042473
 20
116.07460822719649
 11
159.80350220526205
 21
116.07460822719649
  0
LINE
  8
_1-7_設備
  6
CONTINUOUS
 62
   83
 10
160.54150192242977
 20
116.25348704336832
 11
160.85000835528356
 21
119.15845000278675
  0
LINE
  8
_1-7_設備
  6
DASHED1
 62
   83
 10
117.86246486400807
 20
123.76924441612245
 11
121.35682348517113
 21
122.83293094836186
  0
LINE
  8
_1-7_設備
  6
CONTINUOUS
 62
   83
 10
136.52247737681151
 20
126.0746139300953
 11
138.81553370829951
 21
126.0746139300953
  0
LINE
  8
_1-a_元図__躯体
  6
CONTINUOUS
 62
    7
 10
226.56039530303019
 20
96.827083533531692
 11
157.92247530303018
 21
96.827083533531692
  0
LINE
  8
_1-a_元図__躯体
  6
CONTINUOUS
 62
    7
 10
66.88463530303018
 20
96.827083533531692
 11
135.52247530303018
 21
96.827083533531692
  0
LINE
  8
_f-f_
  6
CONTINUOUS
 62
    7
 10
13.5
 20
197
 11
283.5
 21
197
  0
LINE
  8
_f-f_
  6
CONTINUOUS
 62
    7
 10
283.5
 20
197
 11
283.5
 21
17
  0
LINE
  8
_f-f_
  6
CONTINUOUS
 62
    7
 10
283.5
 20
17
 11
13.5
 21
17
  0
SOLID
  8
_f-f_
  6
CONTINUOUS
 62
    5
 10
236.97536482015869
 20
15.135014055698207
 11
235.41260194015859
 21
14.597233959698244
 12
233.7490795136022
 22
12.030232905347191
 13
233.7490795136022
 23
12.030232905347191
  0
SOLID
  8
_f-f_
  6
CONTINUOUS
 62
    5
 10
236.97536482015869
 20
15.135014055698207
 11
235.44783384279719
 21
14.653922266010412
 12
235.41260194015859
 22
14.597233959698244
 13
235.41260194015859
 23
14.597233959698244
  0
SOLID
  8
_f-f_
  6
CONTINUOUS
 62
    5
 10
236.97536482015869
 20
15.135014055698207
 11
235.44348964523115
 21
14.814711211354776
 12
235.44783384279719
 22
14.653922266010412
 13
235.44783384279719
 23
14.653922266010412
  0
SOLID
  8
_f-f_
  6
CONTINUOUS
 62
    5
 10
236.97536482015869
 20
15.135014055698207
 11
235.37802752940809
 21
14.882325091646777
 12
235.44348964523115
 22
14.814711211354776
 13
235.44348964523115
 23
14.814711211354776
  0
SOLID
  8
_f-f_
  6
CONTINUOUS
 62
    5
 10
236.97536482015869
 20
15.135014055698207
 11
235.23671672676957
 21
14.943561152901822
 12
235.37802752940809
 22
14.882325091646777
 13
235.37802752940809
 23
14.882325091646777
  0
SOLID
  8
_f-f_
  6
CONTINUOUS
 62
    5
 10
236.97536482015869
 20
15.135014055698207
 11
231.75858153825016
 21
14.827104307519747
 12
235.23671672676957
 22
14.943561152901822
 13
235.23671672676957
 23
14.943561152901822
  0
SOLID
  8
_f-f_
  6
CONTINUOUS
 62
    5
 10
236.97536482015869
 20
15.135014055698207
 11
232.06580002015863
 21
15.134816487698203
 12
231.75858153825016
 22
14.827104307519747
 13
231.75858153825016
 23
14.827104307519747
  0
SOLID
  8
_f-f_
  6
CONTINUOUS
 62
    5
 10
233.7490795136022
 20
12.030232905347191
 11
237.28752157062101
 21
14.827697368205875
 12
236.97536482015869
 22
15.135014055698207
 13
236.97536482015869
 23
15.135014055698207
  0
SOLID
  8
_f-f_
  6
CONTINUOUS
 62
    5
 10
233.7490795136022
 20
12.030232905347191
 11
237.23911742342443
 21
14.662629348534509
 12
237.28752157062101
 22
14.827697368205875
 13
237.28752157062101
 23
14.827697368205875
  0
SOLID
  8
_f-f_
  6
CONTINUOUS
 62
    5
 10
233.7490795136022
 20
12.030232905347191
 11
234.52749735533226
 21
10.733752628573797
 12
234.7892749001586
 22
10.88042668929819
 13
234.7892749001586
 23
10.88042668929819
  0
SOLID
  8
_f-f_
  6
CONTINUOUS
 62
    5
 10
233.7490795136022
 20
12.030232905347191
 11
234.31609954015863
 21
10.81863729729821
 12
234.52749735533226
 22
10.733752628573797
 13
234.52749735533226
 23
10.733752628573797
  0
SOLID
  8
_f-f_
  6
CONTINUOUS
 62
    5
 10
233.7490795136022
 20
12.030232905347191
 11
233.74611586015862
 21
11.682740458898223
 12
234.31609954015863
 22
10.81863729729821
 13
234.31609954015863
 23
10.81863729729821
  0
SOLID
  8
_f-f_
  6
CONTINUOUS
 62
    5
 10
233.7490795136022
 20
12.030232905347191
 11
233.69277264325217
 21
11.856303946266479
 12
233.74611586015862
 22
11.682740458898223
 13
233.74611586015862
 23
11.682740458898223
  0
SOLID
  8
_f-f_
  6
CONTINUOUS
 62
    5
 10
231.75858153825016
 20
14.827104307519747
 11
235.08661474015867
 21
14.909095047698244
 12
235.23671672676957
 22
14.943561152901822
 13
235.23671672676957
 23
14.943561152901822
  0
SOLID
  8
_f-f_
  6
CONTINUOUS
 62
    5
 10
231.75858153825016
 20
14.827104307519747
 11
233.61868450015868
 21
12.669167847698219
 12
235.08661474015867
 22
14.909095047698244
 13
235.08661474015867
 23
14.909095047698244
  0
SOLID
  8
_f-f_
  6
CONTINUOUS
 62
    5
 10
231.75858153825016
 20
14.827104307519747
 11
233.36184569383056
 21
12.528992955061909
 12
233.61868450015868
 22
12.669167847698219
 13
233.61868450015868
 23
12.669167847698219
  0
SOLID
  8
_f-f_
  6
CONTINUOUS
 62
    5
 10
231.75858153825016
 20
14.827104307519747
 11
233.14254562015859
 21
12.622541799698183
 12
233.36184569383056
 22
12.528992955061909
 13
233.36184569383056
 23
12.528992955061909
  0
SOLID
  8
_f-f_
  6
CONTINUOUS
 62
    5
 10
231.75858153825016
 20
14.827104307519747
 11
231.79611970015864
 21
14.683571175698262
 12
233.14254562015859
 22
12.622541799698183
 13
233.14254562015859
 23
12.622541799698183
  0
ARC
  8
_f-f_
  6
CONTINUOUS
 62
    1
 10
235.22789232415863
 20
14.712033315698221
 40
0.217477092
 50
328.13846999999998
 51
2.2615330000000116
  0
ARC
  8
_f-f_
  6
CONTINUOUS
 62
    1
 10
235.20651958255868
 20
14.716275265298208
 40
0.2387205912
 50
1.0417719999999999
 51
44.073639999999997
  0
ARC
  8
_f-f_
  6
CONTINUOUS
 62
    1
 10
235.19156286175863
 20
14.452033827698216
 40
0.4689556368
 50
66.570734999999999
 51
102.931843
  0
ARC
  8
_f-f_
  6
CONTINUOUS
 62
    1
 10
237.02758780495867
 20
14.814288750098285
 40
0.260279376
 50
324.36078900000001
 51
2.9529709999999993
  0
ARC
  8
_f-f_
  6
CONTINUOUS
 62
    1
 10
232.07207198095867
 20
14.832415614098267
 40
0.3135354768
 50
180.97063600000004
 51
208.34173000000004
  0
ARC
  8
_f-f_
  6
CONTINUOUS
 62
    1
 10
233.98573291615867
 20
11.857541216498191
 40
0.2929628856
 50
143.88086999999999
 51
180.24197799999999
  0
ARC
  8
_f-f_
  6
CONTINUOUS
 62
    1
 10
234.52945733935863
 20
11.04430852209822
 40
0.3105620784
 50
226.60652999999999
 51
269.63839899999999
  0
ARC
  8
_f-f_
  6
CONTINUOUS
 62
    1
 10
234.52688648575864
 20
11.041782944498237
 40
0.3080315616
 50
270.11356000000001
 51
328.41042499999998
  0
ARC
  8
_f-f_
  6
CONTINUOUS
 62
    1
 10
234.00220761775864
 20
11.856427426898193
 40
0.3094359408
 50
180.022864
 51
214.145926
  0
ARC
  8
_f-f_
  6
CONTINUOUS
 62
    1
 10
233.36445399775863
 20
12.838928151698155
 40
0.3099455016
 50
224.27817500000003
 51
269.51790500000004
  0
ARC
  8
_f-f_
  6
CONTINUOUS
 62
    1
 10
233.35885129855865
 20
12.839866599698212
 40
0.3108880655999999
 50
270.55186700000002
 51
326.69684100000006
  0
ARC
  8
_f-f_
  6
CONTINUOUS
 62
    1
 10
236.97555497935861
 20
14.823012200498198
 40
0.3120026784
 50
0.860427
 51
90.034943999999982
  0
ARC
  8
_f-f_
  6
CONTINUOUS
 62
    1
 10
232.06827949855861
 20
14.825122062098245
 40
0.309704304
 50
90.458761999999993
 51
179.63327899999999
  0
SOLID
  8
_f-f_
  6
CONTINUOUS
 62
   70
 10
235.3592583789839
 20
15.664101361536453
 11
236.00431761052957
 21
15.467422329706778
 12
236.2927671804093
 22
15.73818913178016
 13
236.2927671804093
 23
15.73818913178016
  0
SOLID
  8
_f-f_
  6
CONTINUOUS
 62
   70
 10
235.60029133369804
 20
16.279624399265259
 11
235.3592583789839
 21
15.664101361536453
 12
236.5328128054206
 22
16.353613516858246
 13
236.2927671804093
 23
15.73818913178016
  0
SOLID
  8
_f-f_
  6
CONTINUOUS
 62
   70
 10
236.19101981268187
 20
16.670512794070959
 11
235.60029133369804
 21
16.279624399265259
 12
236.42019869045436
 22
16.615391008345767
 13
236.5328128054206
 23
16.353613516858246
  0
ARC
  8
_f-f_
  6
CONTINUOUS
 62
    1
 10
236.00221070815871
 20
16.616671155698256
 40
1.1492505864
 50
235.98198100000002
 51
270.10504300000002
  0
ARC
  8
_f-f_
  6
CONTINUOUS
 62
    1
 10
235.63663664335866
 20
16.148141113298266
 40
0.7736713488000001
 50
298.37509499999999
 51
328.00274300000001
  0
ARC
  8
_f-f_
  6
CONTINUOUS
 62
    1
 10
234.71712471295865
 20
16.707292304498239
 40
1.8498135431999998
 50
328.40629300000006
 51
348.97735100000006
  0
ARC
  8
_f-f_
  6
CONTINUOUS
 62
    1
 10
237.17571194335866
 20
15.307750227698264
 40
1.8510779783999998
 50
148.329635
 51
168.90069299999999
  0
ARC
  8
_f-f_
  6
CONTINUOUS
 62
    1
 10
236.05002628015859
 20
16.301035695698289
 40
0.4856410776
 50
6.2152969999999996
 51
40.338358999999997
  0
SOLID
  8
_f-f_
  6
CONTINUOUS
 62
    5
 10
233.7490795136022
 20
12.030232905347191
 11
234.7892749001586
 21
10.88042668929819
 12
237.23911742342443
 22
14.662629348534509
 13
237.23911742342443
 23
14.662629348534509
  0
ARC
  8
_f-f_
  6
CONTINUOUS
 62
    1
 10
236.23946353375865
 20
16.367937159698243
 40
0.3064287911999999
 50
53.856383000000008
 51
99.096113000000003
  0
ARC
  8
_f-f_
  6
CONTINUOUS
 62
    1
 10
236.36472164575864
 20
15.766194423698238
 40
0.9208496303999999
 50
100.872968
 51
146.11269799999999
  0
LINE
  8
_f-f_
  6
CONTINUOUS
 62
    7
 10
267.37625600000001
 20
14.687935999999993
 11
267.06892800000003
 21
14.687935999999993
  0
LINE
  8
_f-f_
  6
CONTINUOUS
 62
    7
 10
267.06892800000003
 20
14.687935999999993
 11
267.06892800000003
 21
13.853760000000037
  0
LINE
  8
_f-f_
  6
CONTINUOUS
 62
    7
 10
267.04697599999997
 20
13.458624000000043
 11
267.02502399999992
 21
13.370815999999991
  0
LINE
  8
_f-f_
  6
CONTINUOUS
 62
    7
 10
267.02502399999992
 20
13.370815999999991
 11
267.02502399999992
 21
13.326912000000021
  0
LINE
  8
_f-f_
  6
CONTINUOUS
 62
    7
 10
267.02502399999992
 20
13.326912000000021
 11
266.99209599999995
 21
13.195199999999971
  0
LINE
  8
_f-f_
  6
CONTINUOUS
 62
    7
 10
266.99209599999995
 20
13.195199999999971
 11
266.97014399999995
 21
13.151296000000031
  0
LINE
  8
_f-f_
  6
CONTINUOUS
 62
    7
 10
266.97014399999995
 20
13.151296000000031
 11
266.93721599999992
 21
13.019583999999952
  0
LINE
  8
_f-f_
  6
CONTINUOUS
 62
    7
 10
266.93721599999992
 20
13.019583999999952
 11
266.91526399999998
 21
12.975680000000011
  0
LINE
  8
_f-f_
  6
CONTINUOUS
 62
    7
 10
266.91526399999998
 20
12.975680000000011
 11
266.90428799999995
 21
12.931776000000013
  0
LINE
  8
_f-f_
  6
CONTINUOUS
 62
    7
 10
266.90428799999995
 20
12.931776000000013
 11
266.88233600000001
 21
12.887871999999987
  0
LINE
  8
_f-f_
  6
CONTINUOUS
 62
    7
 10
266.88233600000001
 20
12.887871999999987
 11
266.87135999999998
 21
12.84396799999999
  0
LINE
  8
_f-f_
  6
CONTINUOUS
 62
    7
 10
266.87135999999998
 20
12.84396799999999
 11
266.82745599999998
 21
12.756160000000023
  0
LINE
  8
_f-f_
  6
CONTINUOUS
 62
    7
 10
266.82745599999998
 20
12.756160000000023
 11
266.81647999999996
 21
12.712256000000025
  0
LINE
  8
_f-f_
  6
CONTINUOUS
 62
    7
 10
266.81647999999996
 20
12.712256000000025
 11
266.7506239999999
 21
12.580544000000003
  0
LINE
  8
_f-f_
  6
CONTINUOUS
 62
    7
 10
266.7506239999999
 20
12.580544000000003
 11
266.71769599999999
 21
12.536639999999977
  0
LINE
  8
_f-f_
  6
CONTINUOUS
 62
    7
 10
266.71769599999999
 20
12.536639999999977
 11
266.67379199999993
 21
12.448831999999982
  0
LINE
  8
_f-f_
  6
CONTINUOUS
 62
    7
 10
266.67379199999993
 20
12.448831999999982
 11
266.64086399999997
 21
12.404927999999984
  0
LINE
  8
_f-f_
  6
CONTINUOUS
 62
    7
 10
266.64086399999997
 20
12.404927999999984
 11
266.61891199999997
 21
12.361024000000015
  0
LINE
  8
_f-f_
  6
CONTINUOUS
 62
    7
 10
266.61891199999997
 20
12.361024000000015
 11
266.48719999999992
 21
12.185407999999995
  0
LINE
  8
_f-f_
  6
CONTINUOUS
 62
    7
 10
266.48719999999992
 20
12.185407999999995
 11
266.44329599999992
 21
12.141503999999998
  0
LINE
  8
_f-f_
  6
CONTINUOUS
 62
    7
 10
266.44329599999992
 20
12.141503999999998
 11
266.41036799999995
 21
12.0976
  0
LINE
  8
_f-f_
  6
CONTINUOUS
 62
    7
 10
266.41036799999995
 20
12.0976
 11
266.36646399999995
 21
12.053696000000031
  0
LINE
  8
_f-f_
  6
CONTINUOUS
 62
    7
 10
266.36646399999995
 20
12.053696000000031
 11
266.36646399999995
 21
12.009792000000004
  0
LINE
  8
_f-f_
  6
CONTINUOUS
 62
    7
 10
266.36646399999995
 20
12.009792000000004
 11
266.38841599999989
 21
11.965888000000007
  0
LINE
  8
_f-f_
  6
CONTINUOUS
 62
    7
 10
266.38841599999989
 20
11.965888000000007
 11
266.42134399999998
 21
11.921984000000009
  0
LINE
  8
_f-f_
  6
CONTINUOUS
 62
    7
 10
266.42134399999998
 20
11.921984000000009
 11
266.44329599999992
 21
11.878080000000011
  0
LINE
  8
_f-f_
  6
CONTINUOUS
 62
    7
 10
266.44329599999992
 20
11.878080000000011
 11
266.476224
 21
11.834176000000014
  0
LINE
  8
_f-f_
  6
CONTINUOUS
 62
    7
 10
266.476224
 20
11.834176000000014
 11
266.49817599999994
 21
11.790272000000016
  0
LINE
  8
_f-f_
  6
CONTINUOUS
 62
    7
 10
266.49817599999994
 20
11.790272000000016
 11
266.53110399999997
 21
11.746368000000018
  0
LINE
  8
_f-f_
  6
CONTINUOUS
 62
    7
 10
266.53110399999997
 20
11.746368000000018
 11
266.55305599999997
 21
11.70246400000002
  0
LINE
  8
_f-f_
  6
CONTINUOUS
 62
    7
 10
269.22022399999992
 20
14.687935999999993
 11
268.9019199999999
 21
14.687935999999993
  0
LINE
  8
_f-f_
  6
CONTINUOUS
 62
    7
 10
268.9019199999999
 20
14.687935999999993
 11
268.9019199999999
 21
13.941568000000032
  0
LINE
  8
_f-f_
  6
CONTINUOUS
 62
    7
 10
268.9019199999999
 20
13.941568000000032
 11
268.56166399999995
 21
13.941568000000032
  0
LINE
  8
_f-f_
  6
CONTINUOUS
 62
    7
 10
268.37507199999993
 20
14.336704000000026
 11
268.35311999999999
 21
14.336704000000026
  0
LINE
  8
_f-f_
  6
CONTINUOUS
 62
    7
 10
268.35311999999999
 20
14.336704000000026
 11
268.34214399999996
 21
14.292800000000028
  0
LINE
  8
_f-f_
  6
CONTINUOUS
 62
    7
 10
268.34214399999996
 20
14.292800000000028
 11
268.32019199999996
 21
14.248896000000016
  0
LINE
  8
_f-f_
  6
CONTINUOUS
 62
    7
 10
268.32019199999996
 20
14.248896000000016
 11
268.29823999999996
 21
14.161087999999992
  0
LINE
  8
_f-f_
  6
CONTINUOUS
 62
    7
 10
268.29823999999996
 20
14.161087999999992
 11
268.27628800000002
 21
14.117184000000023
  0
LINE
  8
_f-f_
  6
CONTINUOUS
 62
    7
 10
268.27628800000002
 20
14.117184000000023
 11
268.26531199999999
 21
14.073279999999997
  0
LINE
  8
_f-f_
  6
CONTINUOUS
 62
    7
 10
268.26531199999999
 20
14.073279999999997
 11
268.24335999999994
 21
14.029375999999999
  0
LINE
  8
_f-f_
  6
CONTINUOUS
 62
    7
 10
268.24335999999994
 20
14.029375999999999
 11
268.23238399999997
 21
13.985471999999987
  0
LINE
  8
_f-f_
  6
CONTINUOUS
 62
    7
 10
268.23238399999997
 20
13.985471999999987
 11
268.18847999999991
 21
13.897663999999992
  0
LINE
  8
_f-f_
  6
CONTINUOUS
 62
    7
 10
268.18847999999991
 20
13.897663999999992
 11
268.17750399999989
 21
13.853760000000037
  0
LINE
  8
_f-f_
  6
CONTINUOUS
 62
    7
 10
268.17750399999989
 20
13.853760000000037
 11
268.11164799999995
 21
13.722048000000001
  0
LINE
  8
_f-f_
  6
CONTINUOUS
 62
    7
 10
268.11164799999995
 20
13.722048000000001
 11
268.07871999999998
 21
13.678143999999975
  0
LINE
  8
_f-f_
  6
CONTINUOUS
 62
    7
 10
268.07871999999998
 20
13.678143999999975
 11
268.03481599999992
 21
13.590336000000008
  0
LINE
  8
_f-f_
  6
CONTINUOUS
 62
    7
 10
268.03481599999992
 20
13.590336000000008
 11
267.90310399999998
 21
13.414720000000017
  0
LINE
  8
_f-f_
  6
CONTINUOUS
 62
    7
 10
267.90310399999998
 20
13.414720000000017
 11
267.85919999999999
 21
13.370815999999991
  0
LINE
  8
_f-f_
  6
CONTINUOUS
 62
    7
 10
267.85919999999999
 20
13.370815999999991
 11
267.99091199999998
 21
13.239103999999998
  0
LINE
  8
_f-f_
  6
CONTINUOUS
 62
    7
 10
267.99091199999998
 20
13.239103999999998
 11
268.02383999999995
 21
13.195199999999971
  0
LINE
  8
_f-f_
  6
CONTINUOUS
 62
    7
 10
268.02383999999995
 20
13.195199999999971
 11
268.11164799999995
 21
13.107392000000061
  0
LINE
  8
_f-f_
  6
CONTINUOUS
 62
    7
 10
268.9019199999999
 20
13.546432000000038
 11
268.9019199999999
 21
13.019583999999952
  0
LINE
  8
_f-f_
  6
CONTINUOUS
 62
    7
 10
268.87996799999996
 20
12.624447999999973
 11
268.85801599999996
 21
12.580544000000003
  0
LINE
  8
_f-f_
  6
CONTINUOUS
 62
    7
 10
268.85801599999996
 20
12.580544000000003
 11
268.82508799999994
 21
12.536639999999977
  0
LINE
  8
_f-f_
  6
CONTINUOUS
 62
    7
 10
268.82508799999994
 20
12.536639999999977
 11
268.80313599999999
 21
12.492735999999979
  0
LINE
  8
_f-f_
  6
CONTINUOUS
 62
    7
 10
268.80313599999999
 20
12.492735999999979
 11
268.70435199999997
 21
12.361024000000015
  0
LINE
  8
_f-f_
  6
CONTINUOUS
 62
    7
 10
268.70435199999997
 20
12.361024000000015
 11
268.68239999999997
 21
12.317120000000017
  0
LINE
  8
_f-f_
  6
CONTINUOUS
 62
    7
 10
268.68239999999997
 20
12.317120000000017
 11
268.64947199999995
 21
12.273216000000019
  0
LINE
  8
_f-f_
  6
CONTINUOUS
 62
    7
 10
268.64947199999995
 20
12.273216000000019
 11
268.60556799999995
 21
12.229311999999993
  0
LINE
  8
_f-f_
  6
CONTINUOUS
 62
    7
 10
268.60556799999995
 20
12.229311999999993
 11
268.50678399999998
 21
12.0976
  0
LINE
  8
_f-f_
  6
CONTINUOUS
 62
    7
 10
268.50678399999998
 20
12.0976
 11
268.41897599999993
 21
12.009792000000004
  0
LINE
  8
_f-f_
  6
CONTINUOUS
 62
    7
 10
268.41897599999993
 20
12.009792000000004
 11
268.38604799999996
 21
11.965888000000007
  0
LINE
  8
_f-f_
  6
CONTINUOUS
 62
    7
 10
268.38604799999996
 20
11.965888000000007
 11
268.21043199999997
 21
11.790272000000016
  0
LINE
  8
_f-f_
  6
CONTINUOUS
 62
    7
 10
268.21043199999997
 20
11.790272000000016
 11
268.15555199999994
 21
11.746368000000018
  0
LINE
  8
_f-f_
  6
CONTINUOUS
 62
    7
 10
268.15555199999994
 20
11.746368000000018
 11
268.11164799999995
 21
11.70246400000002
  0
LINE
  8
_f-f_
  6
CONTINUOUS
 62
    7
 10
268.11164799999995
 20
11.70246400000002
 11
268.05676799999998
 21
11.658559999999994
  0
LINE
  8
_f-f_
  6
CONTINUOUS
 62
    7
 10
268.05676799999998
 20
11.658559999999994
 11
268.01286399999992
 21
11.614655999999997
  0
LINE
  8
_f-f_
  6
CONTINUOUS
 62
    7
 10
268.01286399999992
 20
11.614655999999997
 11
267.95798399999995
 21
11.570752000000027
  0
LINE
  8
_f-f_
  6
CONTINUOUS
 62
    7
 10
267.95798399999995
 20
11.570752000000027
 11
267.89212799999996
 21
11.52684800000003
  0
LINE
  8
_f-f_
  6
CONTINUOUS
 62
    7
 10
267.89212799999996
 20
11.52684800000003
 11
267.72748799999999
 21
11.395136000000008
  0
LINE
  8
_f-f_
  6
CONTINUOUS
 62
    7
 10
267.72748799999999
 20
11.395136000000008
 11
267.79334399999999
 21
11.263423999999986
  0
LINE
  8
_f-f_
  6
CONTINUOUS
 62
    7
 10
267.79334399999999
 20
11.263423999999986
 11
267.8262719999999
 21
11.219519999999989
  0
LINE
  8
_f-f_
  6
CONTINUOUS
 62
    7
 10
267.8262719999999
 20
11.219519999999989
 11
267.89212799999996
 21
11.087808000000024
  0
LINE
  8
_f-f_
  6
CONTINUOUS
 62
    7
 10
267.44211199999995
 20
12.536639999999977
 11
267.48601599999995
 21
12.492735999999979
  0
LINE
  8
_f-f_
  6
CONTINUOUS
 62
    7
 10
267.48601599999995
 20
12.492735999999979
 11
267.61772799999994
 21
12.317120000000017
  0
LINE
  8
_f-f_
  6
CONTINUOUS
 62
    7
 10
267.61772799999994
 20
12.317120000000017
 11
267.63968
 21
12.273216000000019
  0
LINE
  8
_f-f_
  6
CONTINUOUS
 62
    7
 10
267.63968
 20
12.273216000000019
 11
267.67260799999997
 21
12.229311999999993
  0
LINE
  8
_f-f_
  6
CONTINUOUS
 62
    7
 10
267.67260799999997
 20
12.229311999999993
 11
267.69455999999997
 21
12.185407999999995
  0
LINE
  8
_f-f_
  6
CONTINUOUS
 62
    7
 10
267.69455999999997
 20
12.185407999999995
 11
267.72748799999999
 21
12.141503999999998
  0
LINE
  8
_f-f_
  6
CONTINUOUS
 62
    7
 10
267.06892800000003
 20
12.448831999999982
 11
267.06892800000003
 21
10.736576000000014
  0
LINE
  8
_f-f_
  6
CONTINUOUS
 62
    7
 10
268.9019199999999
 20
12.0976
 11
268.9019199999999
 21
10.736576000000014
  0
LINE
  8
_f-f_
  6
CONTINUOUS
 62
    7
 10
269.27510399999994
 20
12.0976
 11
269.37388799999991
 21
11.965888000000007
  0
LINE
  8
_f-f_
  6
CONTINUOUS
 62
    7
 10
269.37388799999991
 20
11.965888000000007
 11
269.41779199999996
 21
11.921984000000009
  0
LINE
  8
_f-f_
  6
CONTINUOUS
 62
    7
 10
269.41779199999996
 20
11.921984000000009
 11
269.45071999999993
 21
11.878080000000011
  0
LINE
  8
_f-f_
  6
CONTINUOUS
 62
    7
 10
269.45071999999993
 20
11.878080000000011
 11
269.49462399999999
 21
11.834176000000014
  0
LINE
  8
_f-f_
  6
CONTINUOUS
 62
    7
 10
269.49462399999999
 20
11.834176000000014
 11
269.5275519999999
 21
11.790272000000016
  0
LINE
  8
_f-f_
  6
CONTINUOUS
 62
    7
 10
269.5275519999999
 20
11.790272000000016
 11
269.70316800000001
 21
11.614655999999997
  0
LINE
  8
_f-f_
  6
CONTINUOUS
 62
    7
 10
269.70316800000001
 20
11.614655999999997
 11
269.75804799999997
 21
11.570752000000027
  0
LINE
  8
_f-f_
  6
CONTINUOUS
 62
    7
 10
269.75804799999997
 20
11.570752000000027
 11
269.80195199999991
 21
11.52684800000003
  0
LINE
  8
_f-f_
  6
CONTINUOUS
 62
    7
 10
269.80195199999991
 20
11.52684800000003
 11
269.91171199999997
 21
11.439040000000034
  0
LINE
  8
_f-f_
  6
CONTINUOUS
 62
    7
 10
269.91171199999997
 20
11.439040000000034
 11
269.95561599999996
 21
11.395136000000008
  0
LINE
  8
_f-f_
  6
CONTINUOUS
 62
    7
 10
269.95561599999996
 20
11.395136000000008
 11
270.01049599999999
 21
11.35123200000001
  0
LINE
  8
_f-f_
  6
CONTINUOUS
 62
    7
 10
270.01049599999999
 20
11.35123200000001
 11
270.07635199999993
 21
11.307327999999984
  0
LINE
  8
_f-f_
  6
CONTINUOUS
 62
    7
 10
270.07635199999993
 20
11.307327999999984
 11
270.18611199999998
 21
11.219519999999989
  0
LINE
  8
_f-f_
  6
CONTINUOUS
 62
    7
 10
267.37625600000001
 20
14.687935999999993
 11
267.44211199999995
 21
14.644031999999967
  0
LINE
  8
_f-f_
  6
CONTINUOUS
 62
    7
 10
267.44211199999995
 20
14.644031999999967
 11
267.39820799999995
 21
14.600128000000012
  0
LINE
  8
_f-f_
  6
CONTINUOUS
 62
    7
 10
267.39820799999995
 20
14.600128000000012
 11
267.38723200000004
 21
14.556224000000014
  0
LINE
  8
_f-f_
  6
CONTINUOUS
 62
    7
 10
267.38723200000004
 20
14.556224000000014
 11
267.38723200000004
 21
13.853760000000037
  0
LINE
  8
_f-f_
  6
CONTINUOUS
 62
    7
 10
267.38723200000004
 20
13.458624000000043
 11
267.38723200000004
 21
12.975680000000011
  0
LINE
  8
_f-f_
  6
CONTINUOUS
 62
    7
 10
267.38723200000004
 20
12.975680000000011
 11
267.51894399999992
 21
12.887871999999987
  0
LINE
  8
_f-f_
  6
CONTINUOUS
 62
    7
 10
267.51894399999992
 20
12.887871999999987
 11
267.683584
 21
12.756160000000023
  0
LINE
  8
_f-f_
  6
CONTINUOUS
 62
    7
 10
267.683584
 20
12.756160000000023
 11
267.90310399999998
 21
12.536639999999977
  0
LINE
  8
_f-f_
  6
CONTINUOUS
 62
    7
 10
267.90310399999998
 20
12.536639999999977
 11
267.96895999999992
 21
12.448831999999982
  0
LINE
  8
_f-f_
  6
CONTINUOUS
 62
    7
 10
267.96895999999992
 20
12.448831999999982
 11
267.80431999999996
 21
12.229311999999993
  0
LINE
  8
_f-f_
  6
CONTINUOUS
 62
    7
 10
267.80431999999996
 20
12.229311999999993
 11
267.76041599999996
 21
12.185407999999995
  0
LINE
  8
_f-f_
  6
CONTINUOUS
 62
    7
 10
267.76041599999996
 20
12.185407999999995
 11
267.72748799999999
 21
12.141503999999998
  0
LINE
  8
_f-f_
  6
CONTINUOUS
 62
    7
 10
269.22022399999992
 20
14.687935999999993
 11
269.27510399999994
 21
14.644031999999967
  0
LINE
  8
_f-f_
  6
CONTINUOUS
 62
    7
 10
269.27510399999994
 20
14.644031999999967
 11
269.23119999999994
 21
14.600128000000012
  0
LINE
  8
_f-f_
  6
CONTINUOUS
 62
    7
 10
269.23119999999994
 20
14.600128000000012
 11
269.23119999999994
 21
13.941568000000032
  0
LINE
  8
_f-f_
  6
CONTINUOUS
 62
    7
 10
269.23119999999994
 20
13.546432000000038
 11
269.23119999999994
 21
13.019583999999952
  0
LINE
  8
_f-f_
  6
CONTINUOUS
 62
    7
 10
269.26412799999991
 20
12.624447999999973
 11
269.28607999999997
 21
12.580544000000003
  0
LINE
  8
_f-f_
  6
CONTINUOUS
 62
    7
 10
269.28607999999997
 20
12.580544000000003
 11
269.48364800000002
 21
12.317120000000017
  0
LINE
  8
_f-f_
  6
CONTINUOUS
 62
    7
 10
269.48364800000002
 20
12.317120000000017
 11
269.5275519999999
 21
12.273216000000019
  0
LINE
  8
_f-f_
  6
CONTINUOUS
 62
    7
 10
269.5275519999999
 20
12.273216000000019
 11
269.56047999999998
 21
12.229311999999993
  0
LINE
  8
_f-f_
  6
CONTINUOUS
 62
    7
 10
269.56047999999998
 20
12.229311999999993
 11
269.64828799999998
 21
12.141503999999998
  0
LINE
  8
_f-f_
  6
CONTINUOUS
 62
    7
 10
269.64828799999998
 20
12.141503999999998
 11
269.70316800000001
 21
12.0976
  0
LINE
  8
_f-f_
  6
CONTINUOUS
 62
    7
 10
269.70316800000001
 20
12.0976
 11
269.74707199999995
 21
12.053696000000031
  0
LINE
  8
_f-f_
  6
CONTINUOUS
 62
    7
 10
269.74707199999995
 20
12.053696000000031
 11
270.02147199999996
 21
11.834176000000014
  0
LINE
  8
_f-f_
  6
CONTINUOUS
 62
    7
 10
270.02147199999996
 20
11.834176000000014
 11
270.35075199999994
 21
11.614655999999997
  0
LINE
  8
_f-f_
  6
CONTINUOUS
 62
    7
 10
270.35075199999994
 20
11.614655999999997
 11
270.42758399999991
 21
11.570752000000027
  0
LINE
  8
_f-f_
  6
CONTINUOUS
 62
    7
 10
270.42758399999991
 20
11.570752000000027
 11
270.38367999999997
 21
11.482944000000003
  0
LINE
  8
_f-f_
  6
CONTINUOUS
 62
    7
 10
270.38367999999997
 20
11.482944000000003
 11
270.35075199999994
 21
11.439040000000034
  0
LINE
  8
_f-f_
  6
CONTINUOUS
 62
    7
 10
270.35075199999994
 20
11.439040000000034
 11
270.24099199999989
 21
11.219519999999989
  0
LINE
  8
_f-f_
  6
CONTINUOUS
 62
    7
 10
270.24099199999989
 20
11.219519999999989
 11
270.18611199999998
 21
11.219519999999989
  0
LINE
  8
_f-f_
  6
CONTINUOUS
 62
    7
 10
268.37507199999993
 20
14.336704000000026
 11
268.55068799999992
 21
14.292800000000028
  0
LINE
  8
_f-f_
  6
CONTINUOUS
 62
    7
 10
268.55068799999992
 20
14.292800000000028
 11
268.70435199999997
 21
14.248896000000016
  0
LINE
  8
_f-f_
  6
CONTINUOUS
 62
    7
 10
268.70435199999997
 20
14.248896000000016
 11
268.70435199999997
 21
14.204992000000018
  0
LINE
  8
_f-f_
  6
CONTINUOUS
 62
    7
 10
268.70435199999997
 20
14.204992000000018
 11
268.63849599999992
 21
14.161087999999992
  0
LINE
  8
_f-f_
  6
CONTINUOUS
 62
    7
 10
268.63849599999992
 20
14.161087999999992
 11
268.62752
 21
14.117184000000023
  0
LINE
  8
_f-f_
  6
CONTINUOUS
 62
    7
 10
268.62752
 20
14.117184000000023
 11
268.60556799999995
 21
14.073279999999997
  0
LINE
  8
_f-f_
  6
CONTINUOUS
 62
    7
 10
268.60556799999995
 20
14.073279999999997
 11
268.58361600000001
 21
13.985471999999987
  0
LINE
  8
_f-f_
  6
CONTINUOUS
 62
    7
 10
268.58361600000001
 20
13.985471999999987
 11
268.56166399999995
 21
13.941568000000032
  0
LINE
  8
_f-f_
  6
CONTINUOUS
 62
    7
 10
268.9019199999999
 20
13.546432000000038
 11
268.40799999999996
 21
13.546432000000038
  0
LINE
  8
_f-f_
  6
CONTINUOUS
 62
    7
 10
268.40799999999996
 20
13.546432000000038
 11
268.34214399999996
 21
13.414720000000017
  0
LINE
  8
_f-f_
  6
CONTINUOUS
 62
    7
 10
268.34214399999996
 20
13.414720000000017
 11
268.30921599999999
 21
13.370815999999991
  0
LINE
  8
_f-f_
  6
CONTINUOUS
 62
    7
 10
268.30921599999999
 20
13.370815999999991
 11
268.26531199999999
 21
13.283008000000024
  0
LINE
  8
_f-f_
  6
CONTINUOUS
 62
    7
 10
268.26531199999999
 20
13.283008000000024
 11
268.13359999999994
 21
13.107392000000061
  0
LINE
  8
_f-f_
  6
CONTINUOUS
 62
    7
 10
268.13359999999994
 20
13.107392000000061
 11
268.11164799999995
 21
13.107392000000061
  0
LINE
  8
_f-f_
  6
CONTINUOUS
 62
    7
 10
267.44211199999995
 20
12.536639999999977
 11
267.38723200000004
 21
12.536639999999977
  0
LINE
  8
_f-f_
  6
CONTINUOUS
 62
    7
 10
267.38723200000004
 20
12.536639999999977
 11
267.38723200000004
 21
10.736576000000014
  0
LINE
  8
_f-f_
  6
CONTINUOUS
 62
    7
 10
267.38723200000004
 20
10.736576000000014
 11
267.06892800000003
 21
10.736576000000014
  0
LINE
  8
_f-f_
  6
CONTINUOUS
 62
    7
 10
267.06892800000003
 20
12.448831999999982
 11
267.03599999999994
 21
12.448831999999982
  0
LINE
  8
_f-f_
  6
CONTINUOUS
 62
    7
 10
267.03599999999994
 20
12.448831999999982
 11
266.99209599999995
 21
12.361024000000015
  0
LINE
  8
_f-f_
  6
CONTINUOUS
 62
    7
 10
266.99209599999995
 20
12.361024000000015
 11
266.98111999999998
 21
12.317120000000017
  0
LINE
  8
_f-f_
  6
CONTINUOUS
 62
    7
 10
266.98111999999998
 20
12.317120000000017
 11
266.91526399999998
 21
12.185407999999995
  0
LINE
  8
_f-f_
  6
CONTINUOUS
 62
    7
 10
266.91526399999998
 20
12.185407999999995
 11
266.88233600000001
 21
12.141503999999998
  0
LINE
  8
_f-f_
  6
CONTINUOUS
 62
    7
 10
266.88233600000001
 20
12.141503999999998
 11
266.8384319999999
 21
12.053696000000031
  0
LINE
  8
_f-f_
  6
CONTINUOUS
 62
    7
 10
266.8384319999999
 20
12.053696000000031
 11
266.77257599999996
 21
11.965888000000007
  0
LINE
  8
_f-f_
  6
CONTINUOUS
 62
    7
 10
266.77257599999996
 20
11.965888000000007
 11
266.7506239999999
 21
11.921984000000009
  0
LINE
  8
_f-f_
  6
CONTINUOUS
 62
    7
 10
266.7506239999999
 20
11.921984000000009
 11
266.65183999999999
 21
11.790272000000016
  0
LINE
  8
_f-f_
  6
CONTINUOUS
 62
    7
 10
266.65183999999999
 20
11.790272000000016
 11
266.607936
 21
11.746368000000018
  0
LINE
  8
_f-f_
  6
CONTINUOUS
 62
    7
 10
266.607936
 20
11.746368000000018
 11
266.57500799999991
 21
11.70246400000002
  0
LINE
  8
_f-f_
  6
CONTINUOUS
 62
    7
 10
266.57500799999991
 20
11.70246400000002
 11
266.55305599999997
 21
11.70246400000002
  0
LINE
  8
_f-f_
  6
CONTINUOUS
 62
    7
 10
268.9019199999999
 20
12.0976
 11
268.87996799999996
 21
12.0976
  0
LINE
  8
_f-f_
  6
CONTINUOUS
 62
    7
 10
268.87996799999996
 20
12.0976
 11
268.84703999999994
 21
12.053696000000031
  0
LINE
  8
_f-f_
  6
CONTINUOUS
 62
    7
 10
268.84703999999994
 20
12.053696000000031
 11
268.82508799999994
 21
12.009792000000004
  0
LINE
  8
_f-f_
  6
CONTINUOUS
 62
    7
 10
268.82508799999994
 20
12.009792000000004
 11
268.79215999999997
 21
11.965888000000007
  0
LINE
  8
_f-f_
  6
CONTINUOUS
 62
    7
 10
268.79215999999997
 20
11.965888000000007
 11
268.77020799999997
 21
11.921984000000009
  0
LINE
  8
_f-f_
  6
CONTINUOUS
 62
    7
 10
268.77020799999997
 20
11.921984000000009
 11
268.60556799999995
 21
11.70246400000002
  0
LINE
  8
_f-f_
  6
CONTINUOUS
 62
    7
 10
268.60556799999995
 20
11.70246400000002
 11
268.56166399999995
 21
11.658559999999994
  0
LINE
  8
_f-f_
  6
CONTINUOUS
 62
    7
 10
268.56166399999995
 20
11.658559999999994
 11
268.52873599999998
 21
11.614655999999997
  0
LINE
  8
_f-f_
  6
CONTINUOUS
 62
    7
 10
268.52873599999998
 20
11.614655999999997
 11
268.26531199999999
 21
11.35123200000001
  0
LINE
  8
_f-f_
  6
CONTINUOUS
 62
    7
 10
268.26531199999999
 20
11.35123200000001
 11
267.99091199999998
 21
11.131712000000022
  0
LINE
  8
_f-f_
  6
CONTINUOUS
 62
    7
 10
267.99091199999998
 20
11.131712000000022
 11
267.92505599999993
 21
11.087808000000024
  0
LINE
  8
_f-f_
  6
CONTINUOUS
 62
    7
 10
267.92505599999993
 20
11.087808000000024
 11
267.89212799999996
 21
11.087808000000024
  0
LINE
  8
_f-f_
  6
CONTINUOUS
 62
    7
 10
269.27510399999994
 20
12.0976
 11
269.23119999999994
 21
12.0976
  0
LINE
  8
_f-f_
  6
CONTINUOUS
 62
    7
 10
269.23119999999994
 20
12.0976
 11
269.23119999999994
 21
10.736576000000014
  0
LINE
  8
_f-f_
  6
CONTINUOUS
 62
    7
 10
269.23119999999994
 20
10.736576000000014
 11
268.9019199999999
 21
10.736576000000014
  0
LINE
  8
_f-f_
  6
CONTINUOUS
 62
    7
 10
273.48988799999995
 20
14.600128000000012
 11
273.07279999999992
 21
14.600128000000012
  0
LINE
  8
_f-f_
  6
CONTINUOUS
 62
    7
 10
273.07279999999992
 20
14.600128000000012
 11
273.07279999999992
 21
13.853760000000037
  0
LINE
  8
_f-f_
  6
CONTINUOUS
 62
    7
 10
273.083776
 20
13.458624000000043
 11
273.083776
 21
13.414720000000017
  0
LINE
  8
_f-f_
  6
CONTINUOUS
 62
    7
 10
273.083776
 20
13.414720000000017
 11
273.09475199999997
 21
13.370815999999991
  0
LINE
  8
_f-f_
  6
CONTINUOUS
 62
    7
 10
273.09475199999997
 20
13.370815999999991
 11
273.09475199999997
 21
13.151296000000031
  0
LINE
  8
_f-f_
  6
CONTINUOUS
 62
    7
 10
273.09475199999997
 20
13.151296000000031
 11
273.105728
 21
13.107392000000061
  0
LINE
  8
_f-f_
  6
CONTINUOUS
 62
    7
 10
273.105728
 20
13.107392000000061
 11
273.105728
 21
12.975680000000011
  0
LINE
  8
_f-f_
  6
CONTINUOUS
 62
    7
 10
273.105728
 20
12.975680000000011
 11
273.11670399999991
 21
12.931776000000013
  0
LINE
  8
_f-f_
  6
CONTINUOUS
 62
    7
 10
273.11670399999991
 20
12.931776000000013
 11
273.11670399999991
 21
12.84396799999999
  0
LINE
  8
_f-f_
  6
CONTINUOUS
 62
    7
 10
273.11670399999991
 20
12.84396799999999
 11
273.12767999999994
 21
12.800064000000049
  0
LINE
  8
_f-f_
  6
CONTINUOUS
 62
    7
 10
273.12767999999994
 20
12.800064000000049
 11
273.12767999999994
 21
12.756160000000023
  0
LINE
  8
_f-f_
  6
CONTINUOUS
 62
    7
 10
273.12767999999994
 20
12.756160000000023
 11
273.13865599999997
 21
12.712256000000025
  0
LINE
  8
_f-f_
  6
CONTINUOUS
 62
    7
 10
273.13865599999997
 20
12.712256000000025
 11
273.13865599999997
 21
12.668351999999999
  0
LINE
  8
_f-f_
  6
CONTINUOUS
 62
    7
 10
273.13865599999997
 20
12.668351999999999
 11
273.149632
 21
12.624447999999973
  0
LINE
  8
_f-f_
  6
CONTINUOUS
 62
    7
 10
273.149632
 20
12.624447999999973
 11
273.149632
 21
12.580544000000003
  0
LINE
  8
_f-f_
  6
CONTINUOUS
 62
    7
 10
273.149632
 20
12.580544000000003
 11
273.17158399999994
 21
12.492735999999979
  0
LINE
  8
_f-f_
  6
CONTINUOUS
 62
    7
 10
273.17158399999994
 20
12.492735999999979
 11
273.17158399999994
 21
12.448831999999982
  0
LINE
  8
_f-f_
  6
CONTINUOUS
 62
    7
 10
273.17158399999994
 20
12.448831999999982
 11
273.20451199999991
 21
12.317120000000017
  0
LINE
  8
_f-f_
  6
CONTINUOUS
 62
    7
 10
273.20451199999991
 20
12.317120000000017
 11
273.20451199999991
 21
12.273216000000019
  0
LINE
  8
_f-f_
  6
CONTINUOUS
 62
    7
 10
273.20451199999991
 20
12.273216000000019
 11
273.25939199999999
 21
12.053696000000031
  0
LINE
  8
_f-f_
  6
CONTINUOUS
 62
    7
 10
273.25939199999999
 20
12.053696000000031
 11
273.28134399999999
 21
12.009792000000004
  0
LINE
  8
_f-f_
  6
CONTINUOUS
 62
    7
 10
273.28134399999999
 20
12.009792000000004
 11
273.31427199999996
 21
11.878080000000011
  0
LINE
  8
_f-f_
  6
CONTINUOUS
 62
    7
 10
273.31427199999996
 20
11.878080000000011
 11
273.3362239999999
 21
11.834176000000014
  0
LINE
  8
_f-f_
  6
CONTINUOUS
 62
    7
 10
273.3362239999999
 20
11.834176000000014
 11
273.34719999999999
 21
11.790272000000016
  0
LINE
  8
_f-f_
  6
CONTINUOUS
 62
    7
 10
273.34719999999999
 20
11.790272000000016
 11
273.41305599999998
 21
11.658559999999994
  0
LINE
  8
_f-f_
  6
CONTINUOUS
 62
    7
 10
273.41305599999998
 20
11.658559999999994
 11
273.42403199999995
 21
11.614655999999997
  0
LINE
  8
_f-f_
  6
CONTINUOUS
 62
    7
 10
273.42403199999995
 20
11.614655999999997
 11
273.44598400000001
 21
11.570752000000027
  0
LINE
  8
_f-f_
  6
CONTINUOUS
 62
    7
 10
273.44598400000001
 20
11.570752000000027
 11
273.47891199999992
 21
11.52684800000003
  0
LINE
  8
_f-f_
  6
CONTINUOUS
 62
    7
 10
273.47891199999992
 20
11.52684800000003
 11
273.52281599999992
 21
11.439040000000034
  0
LINE
  8
_f-f_
  6
CONTINUOUS
 62
    7
 10
273.52281599999992
 20
11.439040000000034
 11
273.555744
 21
11.395136000000008
  0
LINE
  8
_f-f_
  6
CONTINUOUS
 62
    7
 10
273.555744
 20
11.395136000000008
 11
273.57769599999995
 21
11.35123200000001
  0
LINE
  8
_f-f_
  6
CONTINUOUS
 62
    7
 10
273.57769599999995
 20
11.35123200000001
 11
273.70940799999994
 21
11.175616000000019
  0
LINE
  8
_f-f_
  6
CONTINUOUS
 62
    7
 10
273.70940799999994
 20
11.175616000000019
 11
273.79721599999993
 21
11.087808000000024
  0
LINE
  8
_f-f_
  6
CONTINUOUS
 62
    7
 10
273.79721599999993
 20
11.087808000000024
 11
273.85209599999996
 21
11.043903999999998
  0
LINE
  8
_f-f_
  6
CONTINUOUS
 62
    7
 10
273.85209599999996
 20
11.043903999999998
 11
273.98380799999995
 21
10.956095999999974
  0
LINE
  8
_f-f_
  6
CONTINUOUS
 62
    7
 10
273.98380799999995
 20
10.956095999999974
 11
274.093568
 21
10.912192000000005
  0
LINE
  8
_f-f_
  6
CONTINUOUS
 62
    7
 10
273.95087999999998
 20
14.512320000000003
 11
273.90697599999999
 21
14.512320000000003
  0
LINE
  8
_f-f_
  6
CONTINUOUS
 62
    7
 10
273.90697599999999
 20
14.512320000000003
 11
273.85209599999996
 21
14.468416000000005
  0
LINE
  8
_f-f_
  6
CONTINUOUS
 62
    7
 10
273.85209599999996
 20
14.468416000000005
 11
273.80819200000002
 21
14.424512000000007
  0
LINE
  8
_f-f_
  6
CONTINUOUS
 62
    7
 10
273.80819200000002
 20
14.424512000000007
 11
273.69843199999997
 21
14.336704000000026
  0
LINE
  8
_f-f_
  6
CONTINUOUS
 62
    7
 10
273.69843199999997
 20
14.336704000000026
 11
273.65452800000003
 21
14.292800000000028
  0
LINE
  8
_f-f_
  6
CONTINUOUS
 62
    7
 10
273.65452800000003
 20
14.292800000000028
 11
273.69843199999997
 21
14.248896000000016
  0
LINE
  8
_f-f_
  6
CONTINUOUS
 62
    7
 10
273.69843199999997
 20
14.248896000000016
 11
273.77526399999999
 21
14.204992000000018
  0
LINE
  8
_f-f_
  6
CONTINUOUS
 62
    7
 10
273.77526399999999
 20
14.204992000000018
 11
273.84111999999993
 21
14.161087999999992
  0
LINE
  8
_f-f_
  6
CONTINUOUS
 62
    7
 10
273.84111999999993
 20
14.161087999999992
 11
274.06063999999998
 21
13.985471999999987
  0
LINE
  8
_f-f_
  6
CONTINUOUS
 62
    7
 10
272.83132799999998
 20
12.84396799999999
 11
271.15199999999993
 21
12.84396799999999
  0
LINE
  8
_f-f_
  6
CONTINUOUS
 62
    7
 10
271.83251199999995
 20
12.536639999999977
 11
271.83251199999995
 21
11.570752000000027
  0
LINE
  8
_f-f_
  6
CONTINUOUS
 62
    7
 10
271.83251199999995
 20
11.570752000000027
 11
271.56908799999997
 21
11.52684800000003
  0
LINE
  8
_f-f_
  6
CONTINUOUS
 62
    7
 10
271.56908799999997
 20
11.52684800000003
 11
271.19590399999998
 21
11.482944000000003
  0
LINE
  8
_f-f_
  6
CONTINUOUS
 62
    7
 10
271.19590399999998
 20
11.482944000000003
 11
270.99833599999994
 21
11.439040000000034
  0
LINE
  8
_f-f_
  6
CONTINUOUS
 62
    7
 10
270.99833599999994
 20
11.439040000000034
 11
271.04223999999999
 21
11.263423999999986
  0
LINE
  8
_f-f_
  6
CONTINUOUS
 62
    7
 10
271.04223999999999
 20
11.263423999999986
 11
271.04223999999999
 21
11.219519999999989
  0
LINE
  8
_f-f_
  6
CONTINUOUS
 62
    7
 10
271.04223999999999
 20
11.219519999999989
 11
271.08614399999999
 21
11.043903999999998
  0
LINE
  8
_f-f_
  6
CONTINUOUS
 62
    7
 10
271.08614399999999
 20
11.043903999999998
 11
271.11907199999996
 21
11
  0
LINE
  8
_f-f_
  6
CONTINUOUS
 62
    7
 10
273.07279999999992
 20
11.746368000000018
 11
272.95206399999995
 21
11.746368000000018
  0
LINE
  8
_f-f_
  6
CONTINUOUS
 62
    7
 10
272.95206399999995
 20
11.746368000000018
 11
272.71059199999996
 21
11.70246400000002
  0
LINE
  8
_f-f_
  6
CONTINUOUS
 62
    7
 10
272.71059199999996
 20
11.70246400000002
 11
272.44716799999998
 21
11.658559999999994
  0
LINE
  8
_f-f_
  6
CONTINUOUS
 62
    7
 10
272.44716799999998
 20
11.658559999999994
 11
272.16179199999999
 21
11.658559999999994
  0
LINE
  8
_f-f_
  6
CONTINUOUS
 62
    7
 10
274.38991999999996
 20
11.70246400000002
 11
274.31308799999994
 21
11.70246400000002
  0
LINE
  8
_f-f_
  6
CONTINUOUS
 62
    7
 10
274.31308799999994
 20
11.70246400000002
 11
274.31308799999994
 21
11.614655999999997
  0
LINE
  8
_f-f_
  6
CONTINUOUS
 62
    7
 10
274.31308799999994
 20
11.614655999999997
 11
274.30211199999997
 21
11.570752000000027
  0
LINE
  8
_f-f_
  6
CONTINUOUS
 62
    7
 10
274.30211199999997
 20
11.570752000000027
 11
274.30211199999997
 21
11.52684800000003
  0
LINE
  8
_f-f_
  6
CONTINUOUS
 62
    7
 10
274.30211199999997
 20
11.52684800000003
 11
274.29113599999994
 21
11.482944000000003
  0
LINE
  8
_f-f_
  6
CONTINUOUS
 62
    7
 10
274.29113599999994
 20
11.482944000000003
 11
274.29113599999994
 21
11.439040000000034
  0
LINE
  8
_f-f_
  6
CONTINUOUS
 62
    7
 10
274.29113599999994
 20
11.439040000000034
 11
274.269184
 21
11.395136000000008
  0
LINE
  8
_f-f_
  6
CONTINUOUS
 62
    7
 10
274.269184
 20
11.395136000000008
 11
274.23625599999997
 21
11.35123200000001
  0
LINE
  8
_f-f_
  6
CONTINUOUS
 62
    7
 10
274.23625599999997
 20
11.35123200000001
 11
274.137472
 21
11.35123200000001
  0
LINE
  8
_f-f_
  6
CONTINUOUS
 62
    7
 10
273.48988799999995
 20
14.600128000000012
 11
273.51183999999995
 21
14.556224000000014
  0
LINE
  8
_f-f_
  6
CONTINUOUS
 62
    7
 10
273.51183999999995
 20
14.556224000000014
 11
273.44598400000001
 21
14.468416000000005
  0
LINE
  8
_f-f_
  6
CONTINUOUS
 62
    7
 10
273.44598400000001
 20
14.468416000000005
 11
273.44598400000001
 21
13.853760000000037
  0
LINE
  8
_f-f_
  6
CONTINUOUS
 62
    7
 10
273.44598400000001
 20
13.458624000000043
 11
273.44598400000001
 21
13.370815999999991
  0
LINE
  8
_f-f_
  6
CONTINUOUS
 62
    7
 10
273.44598400000001
 20
13.370815999999991
 11
273.45695999999998
 21
13.326912000000021
  0
LINE
  8
_f-f_
  6
CONTINUOUS
 62
    7
 10
273.45695999999998
 20
13.326912000000021
 11
273.45695999999998
 21
13.239103999999998
  0
LINE
  8
_f-f_
  6
CONTINUOUS
 62
    7
 10
273.45695999999998
 20
13.239103999999998
 11
273.46793600000001
 21
13.195199999999971
  0
LINE
  8
_f-f_
  6
CONTINUOUS
 62
    7
 10
273.46793600000001
 20
13.195199999999971
 11
273.46793600000001
 21
13.107392000000061
  0
LINE
  8
_f-f_
  6
CONTINUOUS
 62
    7
 10
273.46793600000001
 20
13.107392000000061
 11
273.47891199999992
 21
13.063488000000007
  0
LINE
  8
_f-f_
  6
CONTINUOUS
 62
    7
 10
273.47891199999992
 20
13.063488000000007
 11
273.47891199999992
 21
13.019583999999952
  0
LINE
  8
_f-f_
  6
CONTINUOUS
 62
    7
 10
273.47891199999992
 20
13.019583999999952
 11
273.48988799999995
 21
12.975680000000011
  0
LINE
  8
_f-f_
  6
CONTINUOUS
 62
    7
 10
273.48988799999995
 20
12.975680000000011
 11
273.48988799999995
 21
12.887871999999987
  0
LINE
  8
_f-f_
  6
CONTINUOUS
 62
    7
 10
273.48988799999995
 20
12.887871999999987
 11
273.50086399999998
 21
12.84396799999999
  0
LINE
  8
_f-f_
  6
CONTINUOUS
 62
    7
 10
273.50086399999998
 20
12.84396799999999
 11
273.50086399999998
 21
12.800064000000049
  0
LINE
  8
_f-f_
  6
CONTINUOUS
 62
    7
 10
273.50086399999998
 20
12.800064000000049
 11
273.52281599999992
 21
12.712256000000025
  0
LINE
  8
_f-f_
  6
CONTINUOUS
 62
    7
 10
273.52281599999992
 20
12.712256000000025
 11
273.52281599999992
 21
12.668351999999999
  0
LINE
  8
_f-f_
  6
CONTINUOUS
 62
    7
 10
273.52281599999992
 20
12.668351999999999
 11
273.53379199999995
 21
12.624447999999973
  0
LINE
  8
_f-f_
  6
CONTINUOUS
 62
    7
 10
273.53379199999995
 20
12.624447999999973
 11
273.53379199999995
 21
12.580544000000003
  0
LINE
  8
_f-f_
  6
CONTINUOUS
 62
    7
 10
273.53379199999995
 20
12.580544000000003
 11
273.56671999999992
 21
12.448831999999982
  0
LINE
  8
_f-f_
  6
CONTINUOUS
 62
    7
 10
273.56671999999992
 20
12.448831999999982
 11
273.56671999999992
 21
12.404927999999984
  0
LINE
  8
_f-f_
  6
CONTINUOUS
 62
    7
 10
273.56671999999992
 20
12.404927999999984
 11
273.63257599999997
 21
12.141503999999998
  0
LINE
  8
_f-f_
  6
CONTINUOUS
 62
    7
 10
273.63257599999997
 20
12.141503999999998
 11
273.65452800000003
 21
12.0976
  0
LINE
  8
_f-f_
  6
CONTINUOUS
 62
    7
 10
273.65452800000003
 20
12.0976
 11
273.67647999999997
 21
12.009792000000004
  0
LINE
  8
_f-f_
  6
CONTINUOUS
 62
    7
 10
273.67647999999997
 20
12.009792000000004
 11
273.69843199999997
 21
11.965888000000007
  0
LINE
  8
_f-f_
  6
CONTINUOUS
 62
    7
 10
273.69843199999997
 20
11.965888000000007
 11
273.70940799999994
 21
11.921984000000009
  0
LINE
  8
_f-f_
  6
CONTINUOUS
 62
    7
 10
273.70940799999994
 20
11.921984000000009
 11
273.84111999999993
 21
11.658559999999994
  0
LINE
  8
_f-f_
  6
CONTINUOUS
 62
    7
 10
273.84111999999993
 20
11.658559999999994
 11
273.87404799999996
 21
11.614655999999997
  0
LINE
  8
_f-f_
  6
CONTINUOUS
 62
    7
 10
273.87404799999996
 20
11.614655999999997
 11
273.89599999999996
 21
11.570752000000027
  0
LINE
  8
_f-f_
  6
CONTINUOUS
 62
    7
 10
273.89599999999996
 20
11.570752000000027
 11
273.92892799999993
 21
11.52684800000003
  0
LINE
  8
_f-f_
  6
CONTINUOUS
 62
    7
 10
273.92892799999993
 20
11.52684800000003
 11
273.97283199999998
 21
11.482944000000003
  0
LINE
  8
_f-f_
  6
CONTINUOUS
 62
    7
 10
273.97283199999998
 20
11.482944000000003
 11
274.0057599999999
 21
11.439040000000034
  0
LINE
  8
_f-f_
  6
CONTINUOUS
 62
    7
 10
274.0057599999999
 20
11.439040000000034
 11
274.06063999999998
 21
11.395136000000008
  0
LINE
  8
_f-f_
  6
CONTINUOUS
 62
    7
 10
274.06063999999998
 20
11.395136000000008
 11
274.137472
 21
11.35123200000001
  0
LINE
  8
_f-f_
  6
CONTINUOUS
 62
    7
 10
273.95087999999998
 20
14.512320000000003
 11
274.10454399999992
 21
14.424512000000007
  0
LINE
  8
_f-f_
  6
CONTINUOUS
 62
    7
 10
274.10454399999992
 20
14.424512000000007
 11
274.15942399999994
 21
14.380608000000009
  0
LINE
  8
_f-f_
  6
CONTINUOUS
 62
    7
 10
274.15942399999994
 20
14.380608000000009
 11
274.22528
 21
14.336704000000026
  0
LINE
  8
_f-f_
  6
CONTINUOUS
 62
    7
 10
274.22528
 20
14.336704000000026
 11
274.28016000000002
 21
14.292800000000028
  0
LINE
  8
_f-f_
  6
CONTINUOUS
 62
    7
 10
274.28016000000002
 20
14.292800000000028
 11
274.32406400000002
 21
14.248896000000016
  0
LINE
  8
_f-f_
  6
CONTINUOUS
 62
    7
 10
274.32406400000002
 20
14.248896000000016
 11
274.35699199999999
 21
14.204992000000018
  0
LINE
  8
_f-f_
  6
CONTINUOUS
 62
    7
 10
274.35699199999999
 20
14.204992000000018
 11
274.24723199999994
 21
14.117184000000023
  0
LINE
  8
_f-f_
  6
CONTINUOUS
 62
    7
 10
274.24723199999994
 20
14.117184000000023
 11
274.20332799999994
 21
14.073279999999997
  0
LINE
  8
_f-f_
  6
CONTINUOUS
 62
    7
 10
274.20332799999994
 20
14.073279999999997
 11
274.093568
 21
13.985471999999987
  0
LINE
  8
_f-f_
  6
CONTINUOUS
 62
    7
 10
274.093568
 20
13.985471999999987
 11
274.06063999999998
 21
13.985471999999987
  0
LINE
  8
_f-f_
  6
CONTINUOUS
 62
    7
 10
273.07279999999992
 20
11.746368000000018
 11
273.083776
 21
11.70246400000002
  0
LINE
  8
_f-f_
  6
CONTINUOUS
 62
    7
 10
273.083776
 20
11.70246400000002
 11
273.083776
 21
11.658559999999994
  0
LINE
  8
_f-f_
  6
CONTINUOUS
 62
    7
 10
273.083776
 20
11.658559999999994
 11
273.105728
 21
11.570752000000027
  0
LINE
  8
_f-f_
  6
CONTINUOUS
 62
    7
 10
273.105728
 20
11.570752000000027
 11
273.105728
 21
11.52684800000003
  0
LINE
  8
_f-f_
  6
CONTINUOUS
 62
    7
 10
273.105728
 20
11.52684800000003
 11
273.11670399999991
 21
11.482944000000003
  0
LINE
  8
_f-f_
  6
CONTINUOUS
 62
    7
 10
273.11670399999991
 20
11.482944000000003
 11
273.03987199999995
 21
11.439040000000034
  0
LINE
  8
_f-f_
  6
CONTINUOUS
 62
    7
 10
273.03987199999995
 20
11.439040000000034
 11
272.62278400000002
 21
11.35123200000001
  0
LINE
  8
_f-f_
  6
CONTINUOUS
 62
    7
 10
272.62278400000002
 20
11.35123200000001
 11
272.18374399999993
 21
11.263423999999986
  0
LINE
  8
_f-f_
  6
CONTINUOUS
 62
    7
 10
272.18374399999993
 20
11.263423999999986
 11
271.72275199999996
 21
11.175616000000019
  0
LINE
  8
_f-f_
  6
CONTINUOUS
 62
    7
 10
271.72275199999996
 20
11.175616000000019
 11
271.48127999999997
 21
11.131712000000022
  0
LINE
  8
_f-f_
  6
CONTINUOUS
 62
    7
 10
271.48127999999997
 20
11.131712000000022
 11
271.2288319999999
 21
11.087808000000024
  0
LINE
  8
_f-f_
  6
CONTINUOUS
 62
    7
 10
271.2288319999999
 20
11.087808000000024
 11
271.17395199999999
 21
11.043903999999998
  0
LINE
  8
_f-f_
  6
CONTINUOUS
 62
    7
 10
271.17395199999999
 20
11.043903999999998
 11
271.15199999999993
 21
11
  0
LINE
  8
_f-f_
  6
CONTINUOUS
 62
    7
 10
271.15199999999993
 20
11
 11
271.11907199999996
 21
11
  0
LINE
  8
_f-f_
  6
CONTINUOUS
 62
    7
 10
274.38991999999996
 20
11.70246400000002
 11
274.47772799999996
 21
11.658559999999994
  0
LINE
  8
_f-f_
  6
CONTINUOUS
 62
    7
 10
274.47772799999996
 20
11.658559999999994
 11
274.67529599999995
 21
11.570752000000027
  0
LINE
  8
_f-f_
  6
CONTINUOUS
 62
    7
 10
274.67529599999995
 20
11.570752000000027
 11
274.67529599999995
 21
11.52684800000003
  0
LINE
  8
_f-f_
  6
CONTINUOUS
 62
    7
 10
274.67529599999995
 20
11.52684800000003
 11
274.65334399999995
 21
11.439040000000034
  0
LINE
  8
_f-f_
  6
CONTINUOUS
 62
    7
 10
274.65334399999995
 20
11.439040000000034
 11
274.65334399999995
 21
11.395136000000008
  0
LINE
  8
_f-f_
  6
CONTINUOUS
 62
    7
 10
274.65334399999995
 20
11.395136000000008
 11
274.63139200000001
 21
11.307327999999984
  0
LINE
  8
_f-f_
  6
CONTINUOUS
 62
    7
 10
274.63139200000001
 20
11.307327999999984
 11
274.63139200000001
 21
11.263423999999986
  0
LINE
  8
_f-f_
  6
CONTINUOUS
 62
    7
 10
274.63139200000001
 20
11.263423999999986
 11
274.60943999999995
 21
11.175616000000019
  0
LINE
  8
_f-f_
  6
CONTINUOUS
 62
    7
 10
274.60943999999995
 20
11.175616000000019
 11
274.60943999999995
 21
11.131712000000022
  0
LINE
  8
_f-f_
  6
CONTINUOUS
 62
    7
 10
274.60943999999995
 20
11.131712000000022
 11
274.59846399999998
 21
11.087808000000024
  0
LINE
  8
_f-f_
  6
CONTINUOUS
 62
    7
 10
274.59846399999998
 20
11.087808000000024
 11
274.55455999999992
 21
11
  0
LINE
  8
_f-f_
  6
CONTINUOUS
 62
    7
 10
274.55455999999992
 20
11
 11
274.52163199999995
 21
10.956095999999974
  0
LINE
  8
_f-f_
  6
CONTINUOUS
 62
    7
 10
274.52163199999995
 20
10.956095999999974
 11
274.46675199999993
 21
10.912192000000005
  0
LINE
  8
_f-f_
  6
CONTINUOUS
 62
    7
 10
274.46675199999993
 20
10.912192000000005
 11
274.093568
 21
10.912192000000005
  0
LINE
  8
_f-f_
  6
CONTINUOUS
 62
    7
 10
277.05708800000002
 20
14.644031999999967
 11
276.99123199999997
 21
14.644031999999967
  0
LINE
  8
_f-f_
  6
CONTINUOUS
 62
    7
 10
276.99123199999997
 20
14.644031999999967
 11
276.94732799999997
 21
14.556224000000014
  0
LINE
  8
_f-f_
  6
CONTINUOUS
 62
    7
 10
276.94732799999997
 20
14.556224000000014
 11
276.9144
 21
14.512320000000003
  0
LINE
  8
_f-f_
  6
CONTINUOUS
 62
    7
 10
276.9144
 20
14.512320000000003
 11
276.89244799999994
 21
14.468416000000005
  0
LINE
  8
_f-f_
  6
CONTINUOUS
 62
    7
 10
276.89244799999994
 20
14.468416000000005
 11
276.82659199999995
 21
14.380608000000009
  0
LINE
  8
_f-f_
  6
CONTINUOUS
 62
    7
 10
276.82659199999995
 20
14.380608000000009
 11
276.80463999999995
 21
14.336704000000026
  0
LINE
  8
_f-f_
  6
CONTINUOUS
 62
    7
 10
276.80463999999995
 20
14.336704000000026
 11
276.70585599999993
 21
14.204992000000018
  0
LINE
  8
_f-f_
  6
CONTINUOUS
 62
    7
 10
276.70585599999993
 20
14.204992000000018
 11
276.66195199999999
 21
14.161087999999992
  0
LINE
  8
_f-f_
  6
CONTINUOUS
 62
    7
 10
276.66195199999999
 20
14.161087999999992
 11
276.59609599999999
 21
14.073279999999997
  0
LINE
  8
_f-f_
  6
CONTINUOUS
 62
    7
 10
276.59609599999999
 20
14.073279999999997
 11
276.42048
 21
13.897663999999992
  0
LINE
  8
_f-f_
  6
CONTINUOUS
 62
    7
 10
276.42048
 20
13.897663999999992
 11
276.36559999999997
 21
13.853760000000037
  0
LINE
  8
_f-f_
  6
CONTINUOUS
 62
    7
 10
276.36559999999997
 20
13.853760000000037
 11
276.32169599999997
 21
13.809856000000011
  0
LINE
  8
_f-f_
  6
CONTINUOUS
 62
    7
 10
276.32169599999997
 20
13.809856000000011
 11
276.21193599999998
 21
13.722048000000001
  0
LINE
  8
_f-f_
  6
CONTINUOUS
 62
    7
 10
276.21193599999998
 20
13.722048000000001
 11
276.01436799999999
 21
13.590336000000008
  0
LINE
  8
_f-f_
  6
CONTINUOUS
 62
    7
 10
276.01436799999999
 20
13.590336000000008
 11
275.860704
 21
13.502527999999984
  0
LINE
  8
_f-f_
  6
CONTINUOUS
 62
    7
 10
275.860704
 20
13.502527999999984
 11
275.68508799999995
 21
13.414720000000017
  0
LINE
  8
_f-f_
  6
CONTINUOUS
 62
    7
 10
275.68508799999995
 20
13.414720000000017
 11
275.46556799999996
 21
13.326912000000021
  0
LINE
  8
_f-f_
  6
CONTINUOUS
 62
    7
 10
275.46556799999996
 20
13.326912000000021
 11
275.33385599999997
 21
13.283008000000024
  0
LINE
  8
_f-f_
  6
CONTINUOUS
 62
    7
 10
275.33385599999997
 20
13.283008000000024
 11
275.22409599999997
 21
13.239103999999998
  0
LINE
  8
_f-f_
  6
CONTINUOUS
 62
    7
 10
275.22409599999997
 20
13.239103999999998
 11
275.23507199999995
 21
13.195199999999971
  0
LINE
  8
_f-f_
  6
CONTINUOUS
 62
    7
 10
275.23507199999995
 20
13.195199999999971
 11
275.257024
 21
13.151296000000031
  0
LINE
  8
_f-f_
  6
CONTINUOUS
 62
    7
 10
275.257024
 20
13.151296000000031
 11
275.26800000000003
 21
13.107392000000061
  0
LINE
  8
_f-f_
  6
CONTINUOUS
 62
    7
 10
275.26800000000003
 20
13.107392000000061
 11
275.28995199999997
 21
13.063488000000007
  0
LINE
  8
_f-f_
  6
CONTINUOUS
 62
    7
 10
275.28995199999997
 20
13.063488000000007
 11
275.300928
 21
13.019583999999952
  0
LINE
  8
_f-f_
  6
CONTINUOUS
 62
    7
 10
275.300928
 20
13.019583999999952
 11
275.32287999999994
 21
12.975680000000011
  0
LINE
  8
_f-f_
  6
CONTINUOUS
 62
    7
 10
275.32287999999994
 20
12.975680000000011
 11
275.33385599999997
 21
12.931776000000013
  0
LINE
  8
_f-f_
  6
CONTINUOUS
 62
    7
 10
275.33385599999997
 20
12.931776000000013
 11
275.35580800000002
 21
12.887871999999987
  0
LINE
  8
_f-f_
  6
CONTINUOUS
 62
    7
 10
277.17782399999993
 20
14.292800000000028
 11
277.19977599999999
 21
14.248896000000016
  0
LINE
  8
_f-f_
  6
CONTINUOUS
 62
    7
 10
277.19977599999999
 20
14.248896000000016
 11
277.2327039999999
 21
14.204992000000018
  0
LINE
  8
_f-f_
  6
CONTINUOUS
 62
    7
 10
277.2327039999999
 20
14.204992000000018
 11
277.25465599999995
 21
14.161087999999992
  0
LINE
  8
_f-f_
  6
CONTINUOUS
 62
    7
 10
277.25465599999995
 20
14.161087999999992
 11
277.48515199999997
 21
13.853760000000037
  0
LINE
  8
_f-f_
  6
CONTINUOUS
 62
    7
 10
277.48515199999997
 20
13.853760000000037
 11
277.70467199999996
 21
13.634240000000005
  0
LINE
  8
_f-f_
  6
CONTINUOUS
 62
    7
 10
277.70467199999996
 20
13.634240000000005
 11
277.86931199999992
 21
13.502527999999984
  0
LINE
  8
_f-f_
  6
CONTINUOUS
 62
    7
 10
277.86931199999992
 20
13.502527999999984
 11
278.06687999999991
 21
13.370815999999991
  0
LINE
  8
_f-f_
  6
CONTINUOUS
 62
    7
 10
278.06687999999991
 20
13.370815999999991
 11
278.14371199999994
 21
13.326912000000021
  0
LINE
  8
_f-f_
  6
CONTINUOUS
 62
    7
 10
278.14371199999994
 20
13.326912000000021
 11
276.27779199999998
 21
13.326912000000021
  0
LINE
  8
_f-f_
  6
CONTINUOUS
 62
    7
 10
276.24486400000001
 20
13.283008000000024
 11
276.24486400000001
 21
12.975680000000011
  0
LINE
  8
_f-f_
  6
CONTINUOUS
 62
    7
 10
278.23151999999993
 20
13.283008000000024
 11
278.38518399999998
 21
13.195199999999971
  0
LINE
  8
_f-f_
  6
CONTINUOUS
 62
    7
 10
278.38518399999998
 20
13.195199999999971
 11
278.56079999999997
 21
13.107392000000061
  0
LINE
  8
_f-f_
  6
CONTINUOUS
 62
    7
 10
278.56079999999997
 20
13.107392000000061
 11
278.78031999999996
 21
13.019583999999952
  0
LINE
  8
_f-f_
  6
CONTINUOUS
 62
    7
 10
278.78031999999996
 20
13.019583999999952
 11
278.91203199999995
 21
12.975680000000011
  0
LINE
  8
_f-f_
  6
CONTINUOUS
 62
    7
 10
278.9339839999999
 20
12.536639999999977
 11
275.43263999999999
 21
12.536639999999977
  0
LINE
  8
_f-f_
  6
CONTINUOUS
 62
    7
 10
276.66195199999999
 20
12.141503999999998
 11
276.6290239999999
 21
12.0976
  0
LINE
  8
_f-f_
  6
CONTINUOUS
 62
    7
 10
276.6290239999999
 20
12.0976
 11
276.54121599999996
 21
11.921984000000009
  0
LINE
  8
_f-f_
  6
CONTINUOUS
 62
    7
 10
276.54121599999996
 20
11.921984000000009
 11
276.50828799999999
 21
11.878080000000011
  0
LINE
  8
_f-f_
  6
CONTINUOUS
 62
    7
 10
276.50828799999999
 20
11.878080000000011
 11
276.42048
 21
11.70246400000002
  0
LINE
  8
_f-f_
  6
CONTINUOUS
 62
    7
 10
276.42048
 20
11.70246400000002
 11
276.38755199999997
 21
11.658559999999994
  0
LINE
  8
_f-f_
  6
CONTINUOUS
 62
    7
 10
276.38755199999997
 20
11.658559999999994
 11
276.29974399999992
 21
11.482944000000003
  0
LINE
  8
_f-f_
  6
CONTINUOUS
 62
    7
 10
276.29974399999992
 20
11.482944000000003
 11
276.26681599999995
 21
11.439040000000034
  0
LINE
  8
_f-f_
  6
CONTINUOUS
 62
    7
 10
276.26681599999995
 20
11.439040000000034
 11
276.20096000000001
 21
11.307327999999984
  0
LINE
  8
_f-f_
  6
CONTINUOUS
 62
    7
 10
276.20096000000001
 20
11.307327999999984
 11
275.57532799999996
 21
11.263423999999986
  0
LINE
  8
_f-f_
  6
CONTINUOUS
 62
    7
 10
275.57532799999996
 20
11.263423999999986
 11
275.49849599999993
 21
11.219519999999989
  0
LINE
  8
_f-f_
  6
CONTINUOUS
 62
    7
 10
275.49849599999993
 20
11.219519999999989
 11
275.50947199999996
 21
11.175616000000019
  0
LINE
  8
_f-f_
  6
CONTINUOUS
 62
    7
 10
275.50947199999996
 20
11.175616000000019
 11
275.53142400000002
 21
11.131712000000022
  0
LINE
  8
_f-f_
  6
CONTINUOUS
 62
    7
 10
275.53142400000002
 20
11.131712000000022
 11
275.59727999999996
 21
10.868288000000035
  0
LINE
  8
_f-f_
  6
CONTINUOUS
 62
    7
 10
275.59727999999996
 20
10.868288000000035
 11
275.63020799999993
 21
10.824384000000038
  0
LINE
  8
_f-f_
  6
CONTINUOUS
 62
    7
 10
277.81443200000001
 20
12.009792000000004
 11
277.77052800000001
 21
12.009792000000004
  0
LINE
  8
_f-f_
  6
CONTINUOUS
 62
    7
 10
277.77052800000001
 20
12.009792000000004
 11
277.50710400000003
 21
11.834176000000014
  0
LINE
  8
_f-f_
  6
CONTINUOUS
 62
    7
 10
277.50710400000003
 20
11.834176000000014
 11
277.55100799999997
 21
11.790272000000016
  0
LINE
  8
_f-f_
  6
CONTINUOUS
 62
    7
 10
277.55100799999997
 20
11.790272000000016
 11
277.88028799999995
 21
11.52684800000003
  0
LINE
  8
_f-f_
  6
CONTINUOUS
 62
    7
 10
277.88028799999995
 20
11.52684800000003
 11
277.92419200000001
 21
11.482944000000003
  0
LINE
  8
_f-f_
  6
CONTINUOUS
 62
    7
 10
277.92419200000001
 20
11.482944000000003
 11
277.97907199999997
 21
11.439040000000034
  0
LINE
  8
_f-f_
  6
CONTINUOUS
 62
    7
 10
277.97907199999997
 20
11.439040000000034
 11
277.73759999999999
 21
11.395136000000008
  0
LINE
  8
_f-f_
  6
CONTINUOUS
 62
    7
 10
277.73759999999999
 20
11.395136000000008
 11
277.14489600000002
 21
11.35123200000001
  0
LINE
  8
_f-f_
  6
CONTINUOUS
 62
    7
 10
277.14489600000002
 20
11.35123200000001
 11
276.58511999999996
 21
11.35123200000001
  0
LINE
  8
_f-f_
  6
CONTINUOUS
 62
    7
 10
278.26444799999996
 20
11.131712000000022
 11
278.30835200000001
 21
11.087808000000024
  0
LINE
  8
_f-f_
  6
CONTINUOUS
 62
    7
 10
278.30835200000001
 20
11.087808000000024
 11
278.36323199999993
 21
11.043903999999998
  0
LINE
  8
_f-f_
  6
CONTINUOUS
 62
    7
 10
278.36323199999993
 20
11.043903999999998
 11
278.3961599999999
 21
11
  0
LINE
  8
_f-f_
  6
CONTINUOUS
 62
    7
 10
278.3961599999999
 20
11
 11
278.44006399999995
 21
10.956095999999974
  0
LINE
  8
_f-f_
  6
CONTINUOUS
 62
    7
 10
278.44006399999995
 20
10.956095999999974
 11
278.47299199999998
 21
10.912192000000005
  0
LINE
  8
_f-f_
  6
CONTINUOUS
 62
    7
 10
278.47299199999998
 20
10.912192000000005
 11
278.51689599999997
 21
10.868288000000035
  0
LINE
  8
_f-f_
  6
CONTINUOUS
 62
    7
 10
278.51689599999997
 20
10.868288000000035
 11
278.54982399999994
 21
10.824384000000038
  0
LINE
  8
_f-f_
  6
CONTINUOUS
 62
    7
 10
277.05708800000002
 20
14.644031999999967
 11
277.36441599999995
 21
14.600128000000012
  0
LINE
  8
_f-f_
  6
CONTINUOUS
 62
    7
 10
277.36441599999995
 20
14.600128000000012
 11
277.40832
 21
14.556224000000014
  0
LINE
  8
_f-f_
  6
CONTINUOUS
 62
    7
 10
277.40832
 20
14.556224000000014
 11
277.36441599999995
 21
14.512320000000003
  0
LINE
  8
_f-f_
  6
CONTINUOUS
 62
    7
 10
277.36441599999995
 20
14.512320000000003
 11
277.37539199999998
 21
14.468416000000005
  0
LINE
  8
_f-f_
  6
CONTINUOUS
 62
    7
 10
277.37539199999998
 20
14.468416000000005
 11
277.50710400000003
 21
14.292800000000028
  0
LINE
  8
_f-f_
  6
CONTINUOUS
 62
    7
 10
277.50710400000003
 20
14.292800000000028
 11
277.59491200000002
 21
14.204992000000018
  0
LINE
  8
_f-f_
  6
CONTINUOUS
 62
    7
 10
277.59491200000002
 20
14.204992000000018
 11
277.62783999999999
 21
14.161087999999992
  0
LINE
  8
_f-f_
  6
CONTINUOUS
 62
    7
 10
277.62783999999999
 20
14.161087999999992
 11
277.67174399999999
 21
14.117184000000023
  0
LINE
  8
_f-f_
  6
CONTINUOUS
 62
    7
 10
277.67174399999999
 20
14.117184000000023
 11
277.72662399999996
 21
14.073279999999997
  0
LINE
  8
_f-f_
  6
CONTINUOUS
 62
    7
 10
277.72662399999996
 20
14.073279999999997
 11
277.77052800000001
 21
14.029375999999999
  0
LINE
  8
_f-f_
  6
CONTINUOUS
 62
    7
 10
277.77052800000001
 20
14.029375999999999
 11
277.93516799999998
 21
13.897663999999992
  0
LINE
  8
_f-f_
  6
CONTINUOUS
 62
    7
 10
277.93516799999998
 20
13.897663999999992
 11
278.13273600000002
 21
13.765952000000013
  0
LINE
  8
_f-f_
  6
CONTINUOUS
 62
    7
 10
278.13273600000002
 20
13.765952000000013
 11
278.28639999999996
 21
13.678143999999975
  0
LINE
  8
_f-f_
  6
CONTINUOUS
 62
    7
 10
278.28639999999996
 20
13.678143999999975
 11
278.46201599999995
 21
13.590336000000008
  0
LINE
  8
_f-f_
  6
CONTINUOUS
 62
    7
 10
278.46201599999995
 20
13.590336000000008
 11
278.68153599999994
 21
13.502527999999984
  0
LINE
  8
_f-f_
  6
CONTINUOUS
 62
    7
 10
278.68153599999994
 20
13.502527999999984
 11
278.80227199999996
 21
13.458624000000043
  0
LINE
  8
_f-f_
  6
CONTINUOUS
 62
    7
 10
278.80227199999996
 20
13.458624000000043
 11
278.94495999999992
 21
13.414720000000017
  0
LINE
  8
_f-f_
  6
CONTINUOUS
 62
    7
 10
278.94495999999992
 20
13.414720000000017
 11
279.09862399999997
 21
13.370815999999991
  0
LINE
  8
_f-f_
  6
CONTINUOUS
 62
    7
 10
279.09862399999997
 20
13.370815999999991
 11
279.08764799999994
 21
13.326912000000021
  0
LINE
  8
_f-f_
  6
CONTINUOUS
 62
    7
 10
279.08764799999994
 20
13.326912000000021
 11
279.04374399999995
 21
13.239103999999998
  0
LINE
  8
_f-f_
  6
CONTINUOUS
 62
    7
 10
279.04374399999995
 20
13.239103999999998
 11
279.03276799999992
 21
13.195199999999971
  0
LINE
  8
_f-f_
  6
CONTINUOUS
 62
    7
 10
279.03276799999992
 20
13.195199999999971
 11
278.98886399999998
 21
13.107392000000061
  0
LINE
  8
_f-f_
  6
CONTINUOUS
 62
    7
 10
278.98886399999998
 20
13.107392000000061
 11
278.97788799999995
 21
13.063488000000007
  0
LINE
  8
_f-f_
  6
CONTINUOUS
 62
    7
 10
278.97788799999995
 20
13.063488000000007
 11
278.9339839999999
 21
12.975680000000011
  0
LINE
  8
_f-f_
  6
CONTINUOUS
 62
    7
 10
278.9339839999999
 20
12.975680000000011
 11
278.91203199999995
 21
12.975680000000011
  0
LINE
  8
_f-f_
  6
CONTINUOUS
 62
    7
 10
277.17782399999993
 20
14.292800000000028
 11
277.14489600000002
 21
14.292800000000028
  0
LINE
  8
_f-f_
  6
CONTINUOUS
 62
    7
 10
277.14489600000002
 20
14.292800000000028
 11
277.11196799999999
 21
14.248896000000016
  0
LINE
  8
_f-f_
  6
CONTINUOUS
 62
    7
 10
277.11196799999999
 20
14.248896000000016
 11
277.09001599999993
 21
14.204992000000018
  0
LINE
  8
_f-f_
  6
CONTINUOUS
 62
    7
 10
277.09001599999993
 20
14.204992000000018
 11
277.05708800000002
 21
14.161087999999992
  0
LINE
  8
_f-f_
  6
CONTINUOUS
 62
    7
 10
277.05708800000002
 20
14.161087999999992
 11
277.03513599999997
 21
14.117184000000023
  0
LINE
  8
_f-f_
  6
CONTINUOUS
 62
    7
 10
277.03513599999997
 20
14.117184000000023
 11
276.83756799999998
 21
13.853760000000037
  0
LINE
  8
_f-f_
  6
CONTINUOUS
 62
    7
 10
276.83756799999998
 20
13.853760000000037
 11
276.79366399999992
 21
13.809856000000011
  0
LINE
  8
_f-f_
  6
CONTINUOUS
 62
    7
 10
276.79366399999992
 20
13.809856000000011
 11
276.76073599999995
 21
13.765952000000013
  0
LINE
  8
_f-f_
  6
CONTINUOUS
 62
    7
 10
276.76073599999995
 20
13.765952000000013
 11
276.49731199999997
 21
13.502527999999984
  0
LINE
  8
_f-f_
  6
CONTINUOUS
 62
    7
 10
276.49731199999997
 20
13.502527999999984
 11
276.27779199999998
 21
13.326912000000021
  0
LINE
  8
_f-f_
  6
CONTINUOUS
 62
    7
 10
276.24486400000001
 20
13.283008000000024
 11
276.21193599999998
 21
13.283008000000024
  0
LINE
  8
_f-f_
  6
CONTINUOUS
 62
    7
 10
276.21193599999998
 20
13.283008000000024
 11
276.01436799999999
 21
13.151296000000031
  0
LINE
  8
_f-f_
  6
CONTINUOUS
 62
    7
 10
276.01436799999999
 20
13.151296000000031
 11
275.78387199999997
 21
13.019583999999952
  0
LINE
  8
_f-f_
  6
CONTINUOUS
 62
    7
 10
275.78387199999997
 20
13.019583999999952
 11
275.58630399999993
 21
12.931776000000013
  0
LINE
  8
_f-f_
  6
CONTINUOUS
 62
    7
 10
275.58630399999993
 20
12.931776000000013
 11
275.47654399999999
 21
12.887871999999987
  0
LINE
  8
_f-f_
  6
CONTINUOUS
 62
    7
 10
275.47654399999999
 20
12.887871999999987
 11
275.35580800000002
 21
12.887871999999987
  0
LINE
  8
_f-f_
  6
CONTINUOUS
 62
    7
 10
278.23151999999993
 20
13.283008000000024
 11
278.16566399999994
 21
13.283008000000024
  0
LINE
  8
_f-f_
  6
CONTINUOUS
 62
    7
 10
278.16566399999994
 20
13.283008000000024
 11
278.16566399999994
 21
12.975680000000011
  0
LINE
  8
_f-f_
  6
CONTINUOUS
 62
    7
 10
278.16566399999994
 20
12.975680000000011
 11
276.24486400000001
 21
12.975680000000011
  0
LINE
  8
_f-f_
  6
CONTINUOUS
 62
    7
 10
277.05708800000002
 20
12.141503999999998
 11
277.01318399999997
 21
12.053696000000031
  0
LINE
  8
_f-f_
  6
CONTINUOUS
 62
    7
 10
277.01318399999997
 20
12.053696000000031
 11
276.98025599999994
 21
12.009792000000004
  0
LINE
  8
_f-f_
  6
CONTINUOUS
 62
    7
 10
276.98025599999994
 20
12.009792000000004
 11
276.958304
 21
11.965888000000007
  0
LINE
  8
_f-f_
  6
CONTINUOUS
 62
    7
 10
276.958304
 20
11.965888000000007
 11
276.92537599999997
 21
11.921984000000009
  0
LINE
  8
_f-f_
  6
CONTINUOUS
 62
    7
 10
276.92537599999997
 20
11.921984000000009
 11
276.88147199999992
 21
11.834176000000014
  0
LINE
  8
_f-f_
  6
CONTINUOUS
 62
    7
 10
276.88147199999992
 20
11.834176000000014
 11
276.84854399999995
 21
11.790272000000016
  0
LINE
  8
_f-f_
  6
CONTINUOUS
 62
    7
 10
276.84854399999995
 20
11.790272000000016
 11
276.82659199999995
 21
11.746368000000018
  0
LINE
  8
_f-f_
  6
CONTINUOUS
 62
    7
 10
276.82659199999995
 20
11.746368000000018
 11
276.79366399999992
 21
11.70246400000002
  0
LINE
  8
_f-f_
  6
CONTINUOUS
 62
    7
 10
276.79366399999992
 20
11.70246400000002
 11
276.74975999999998
 21
11.614655999999997
  0
LINE
  8
_f-f_
  6
CONTINUOUS
 62
    7
 10
276.74975999999998
 20
11.614655999999997
 11
276.71683199999995
 21
11.570752000000027
  0
LINE
  8
_f-f_
  6
CONTINUOUS
 62
    7
 10
276.71683199999995
 20
11.570752000000027
 11
276.69488000000001
 21
11.52684800000003
  0
LINE
  8
_f-f_
  6
CONTINUOUS
 62
    7
 10
276.69488000000001
 20
11.52684800000003
 11
276.66195199999999
 21
11.482944000000003
  0
LINE
  8
_f-f_
  6
CONTINUOUS
 62
    7
 10
276.66195199999999
 20
11.482944000000003
 11
276.61804799999993
 21
11.395136000000008
  0
LINE
  8
_f-f_
  6
CONTINUOUS
 62
    7
 10
276.61804799999993
 20
11.395136000000008
 11
276.58511999999996
 21
11.35123200000001
  0
LINE
  8
_f-f_
  6
CONTINUOUS
 62
    7
 10
277.81443200000001
 20
12.009792000000004
 11
277.92419200000001
 21
11.921984000000009
  0
LINE
  8
_f-f_
  6
CONTINUOUS
 62
    7
 10
277.92419200000001
 20
11.921984000000009
 11
277.990048
 21
11.878080000000011
  0
LINE
  8
_f-f_
  6
CONTINUOUS
 62
    7
 10
277.990048
 20
11.878080000000011
 11
278.20956799999988
 21
11.70246400000002
  0
LINE
  8
_f-f_
  6
CONTINUOUS
 62
    7
 10
278.20956799999988
 20
11.70246400000002
 11
278.25347199999993
 21
11.658559999999994
  0
LINE
  8
_f-f_
  6
CONTINUOUS
 62
    7
 10
278.25347199999993
 20
11.658559999999994
 11
278.36323199999993
 21
11.570752000000027
  0
LINE
  8
_f-f_
  6
CONTINUOUS
 62
    7
 10
278.36323199999993
 20
11.570752000000027
 11
278.40713599999992
 21
11.52684800000003
  0
LINE
  8
_f-f_
  6
CONTINUOUS
 62
    7
 10
278.40713599999992
 20
11.52684800000003
 11
278.46201599999995
 21
11.482944000000003
  0
LINE
  8
_f-f_
  6
CONTINUOUS
 62
    7
 10
278.46201599999995
 20
11.482944000000003
 11
278.54982399999994
 21
11.395136000000008
  0
LINE
  8
_f-f_
  6
CONTINUOUS
 62
    7
 10
278.54982399999994
 20
11.395136000000008
 11
278.60470399999997
 21
11.35123200000001
  0
LINE
  8
_f-f_
  6
CONTINUOUS
 62
    7
 10
278.60470399999997
 20
11.35123200000001
 11
278.73641599999996
 21
11.219519999999989
  0
LINE
  8
_f-f_
  6
CONTINUOUS
 62
    7
 10
278.73641599999996
 20
11.219519999999989
 11
278.76934399999993
 21
11.175616000000019
  0
LINE
  8
_f-f_
  6
CONTINUOUS
 62
    7
 10
278.76934399999993
 20
11.175616000000019
 11
278.81324799999999
 21
11.131712000000022
  0
LINE
  8
_f-f_
  6
CONTINUOUS
 62
    7
 10
278.81324799999999
 20
11.131712000000022
 11
278.87910399999993
 21
11.043903999999998
  0
LINE
  8
_f-f_
  6
CONTINUOUS
 62
    7
 10
278.87910399999993
 20
11.043903999999998
 11
278.90105599999998
 21
11
  0
LINE
  8
_f-f_
  6
CONTINUOUS
 62
    7
 10
278.90105599999998
 20
11
 11
278.82422399999996
 21
10.956095999999974
  0
LINE
  8
_f-f_
  6
CONTINUOUS
 62
    7
 10
278.82422399999996
 20
10.956095999999974
 11
278.69251199999997
 21
10.868288000000035
  0
LINE
  8
_f-f_
  6
CONTINUOUS
 62
    7
 10
278.69251199999997
 20
10.868288000000035
 11
278.61567999999994
 21
10.824384000000038
  0
LINE
  8
_f-f_
  6
CONTINUOUS
 62
    7
 10
278.61567999999994
 20
10.824384000000038
 11
278.54982399999994
 21
10.824384000000038
  0
LINE
  8
_f-f_
  6
CONTINUOUS
 62
    7
 10
278.26444799999996
 20
11.131712000000022
 11
278.08883199999997
 21
11.131712000000022
  0
LINE
  8
_f-f_
  6
CONTINUOUS
 62
    7
 10
278.08883199999997
 20
11.131712000000022
 11
277.69369599999993
 21
11.087808000000024
  0
LINE
  8
_f-f_
  6
CONTINUOUS
 62
    7
 10
277.69369599999993
 20
11.087808000000024
 11
277.28758399999992
 21
11.043903999999998
  0
LINE
  8
_f-f_
  6
CONTINUOUS
 62
    7
 10
277.28758399999992
 20
11.043903999999998
 11
276.10217599999993
 21
10.912192000000005
  0
LINE
  8
_f-f_
  6
CONTINUOUS
 62
    7
 10
276.10217599999993
 20
10.912192000000005
 11
275.73996799999998
 21
10.868288000000035
  0
LINE
  8
_f-f_
  6
CONTINUOUS
 62
    7
 10
275.73996799999998
 20
10.868288000000035
 11
275.67411199999998
 21
10.824384000000038
  0
LINE
  8
_f-f_
  6
CONTINUOUS
 62
    7
 10
275.67411199999998
 20
10.824384000000038
 11
275.63020799999993
 21
10.824384000000038
  0
LINE
  8
_f-f_
  6
CONTINUOUS
 62
    7
 10
280.723072
 20
14.600128000000012
 11
280.33891199999999
 21
14.600128000000012
  0
LINE
  8
_f-f_
  6
CONTINUOUS
 62
    7
 10
280.82185599999991
 20
13.546432000000038
 11
280.79990399999997
 21
13.502527999999984
  0
LINE
  8
_f-f_
  6
CONTINUOUS
 62
    7
 10
280.79990399999997
 20
13.502527999999984
 11
280.76697599999994
 21
13.458624000000043
  0
LINE
  8
_f-f_
  6
CONTINUOUS
 62
    7
 10
280.76697599999994
 20
13.458624000000043
 11
280.74502399999994
 21
13.414720000000017
  0
LINE
  8
_f-f_
  6
CONTINUOUS
 62
    7
 10
280.74502399999994
 20
13.414720000000017
 11
280.67916799999995
 21
13.326912000000021
  0
LINE
  8
_f-f_
  6
CONTINUOUS
 62
    7
 10
280.67916799999995
 20
13.326912000000021
 11
280.65721599999995
 21
13.283008000000024
  0
LINE
  8
_f-f_
  6
CONTINUOUS
 62
    7
 10
280.65721599999995
 20
13.283008000000024
 11
280.59135999999995
 21
13.195199999999971
  0
LINE
  8
_f-f_
  6
CONTINUOUS
 62
    7
 10
280.59135999999995
 20
13.195199999999971
 11
280.54745600000001
 21
13.151296000000031
  0
LINE
  8
_f-f_
  6
CONTINUOUS
 62
    7
 10
280.54745600000001
 20
13.151296000000031
 11
280.48159999999996
 21
13.063488000000007
  0
LINE
  8
_f-f_
  6
CONTINUOUS
 62
    7
 10
280.48159999999996
 20
13.063488000000007
 11
280.43769599999996
 21
13.019583999999952
  0
LINE
  8
_f-f_
  6
CONTINUOUS
 62
    7
 10
280.43769599999996
 20
13.019583999999952
 11
280.40476799999999
 21
12.975680000000011
  0
LINE
  8
_f-f_
  6
CONTINUOUS
 62
    7
 10
280.40476799999999
 20
12.975680000000011
 11
280.22915199999994
 21
12.800064000000049
  0
LINE
  8
_f-f_
  6
CONTINUOUS
 62
    7
 10
280.22915199999994
 20
12.800064000000049
 11
280.17427199999997
 21
12.756160000000023
  0
LINE
  8
_f-f_
  6
CONTINUOUS
 62
    7
 10
280.17427199999997
 20
12.756160000000023
 11
280.13036799999998
 21
12.712256000000025
  0
LINE
  8
_f-f_
  6
CONTINUOUS
 62
    7
 10
280.13036799999998
 20
12.712256000000025
 11
280.02060799999992
 21
12.624447999999973
  0
LINE
  8
_f-f_
  6
CONTINUOUS
 62
    7
 10
280.02060799999992
 20
12.624447999999973
 11
279.95475199999993
 21
12.580544000000003
  0
LINE
  8
_f-f_
  6
CONTINUOUS
 62
    7
 10
279.95475199999993
 20
12.580544000000003
 11
279.89987199999996
 21
12.536639999999977
  0
LINE
  8
_f-f_
  6
CONTINUOUS
 62
    7
 10
279.89987199999996
 20
12.536639999999977
 11
279.70230399999997
 21
12.404927999999984
  0
LINE
  8
_f-f_
  6
CONTINUOUS
 62
    7
 10
279.70230399999997
 20
12.404927999999984
 11
279.62547199999995
 21
12.361024000000015
  0
LINE
  8
_f-f_
  6
CONTINUOUS
 62
    7
 10
279.62547199999995
 20
12.361024000000015
 11
279.55961599999989
 21
12.317120000000017
  0
LINE
  8
_f-f_
  6
CONTINUOUS
 62
    7
 10
279.55961599999989
 20
12.317120000000017
 11
279.60351999999995
 21
12.229311999999993
  0
LINE
  8
_f-f_
  6
CONTINUOUS
 62
    7
 10
279.60351999999995
 20
12.229311999999993
 11
279.61449599999997
 21
12.185407999999995
  0
LINE
  8
_f-f_
  6
CONTINUOUS
 62
    7
 10
279.61449599999997
 20
12.185407999999995
 11
279.70230399999997
 21
12.009792000000004
  0
LINE
  8
_f-f_
  6
CONTINUOUS
 62
    7
 10
282.59996799999999
 20
14.512320000000003
 11
282.17190399999993
 21
14.512320000000003
  0
LINE
  8
_f-f_
  6
CONTINUOUS
 62
    7
 10
282.17190399999993
 20
14.512320000000003
 11
282.17190399999993
 21
13.502527999999984
  0
LINE
  8
_f-f_
  6
CONTINUOUS
 62
    7
 10
282.17190399999993
 20
13.107392000000061
 11
282.17190399999993
 21
11.35123200000001
  0
LINE
  8
_f-f_
  6
CONTINUOUS
 62
    7
 10
281.11820799999992
 20
13.941568000000032
 11
281.08528000000001
 21
13.941568000000032
  0
LINE
  8
_f-f_
  6
CONTINUOUS
 62
    7
 10
281.08528000000001
 20
13.941568000000032
 11
281.06332799999996
 21
13.897663999999992
  0
LINE
  8
_f-f_
  6
CONTINUOUS
 62
    7
 10
281.06332799999996
 20
13.897663999999992
 11
280.69014399999992
 21
13.897663999999992
  0
LINE
  8
_f-f_
  6
CONTINUOUS
 62
    7
 10
280.33891199999999
 20
12.448831999999982
 11
280.33891199999999
 21
10.78048000000004
  0
LINE
  8
_f-f_
  6
CONTINUOUS
 62
    7
 10
280.69014399999992
 20
12.448831999999982
 11
280.76697599999994
 21
12.404927999999984
  0
LINE
  8
_f-f_
  6
CONTINUOUS
 62
    7
 10
280.76697599999994
 20
12.404927999999984
 11
281.03039999999999
 21
12.229311999999993
  0
LINE
  8
_f-f_
  6
CONTINUOUS
 62
    7
 10
281.03039999999999
 20
12.229311999999993
 11
281.14015999999992
 21
12.141503999999998
  0
LINE
  8
_f-f_
  6
CONTINUOUS
 62
    7
 10
281.14015999999992
 20
12.141503999999998
 11
281.20601599999998
 21
12.0976
  0
LINE
  8
_f-f_
  6
CONTINUOUS
 62
    7
 10
280.723072
 20
14.600128000000012
 11
280.67916799999995
 21
14.556224000000014
  0
LINE
  8
_f-f_
  6
CONTINUOUS
 62
    7
 10
280.67916799999995
 20
14.556224000000014
 11
280.66819199999998
 21
14.512320000000003
  0
LINE
  8
_f-f_
  6
CONTINUOUS
 62
    7
 10
280.66819199999998
 20
14.512320000000003
 11
280.66819199999998
 21
13.941568000000032
  0
LINE
  8
_f-f_
  6
CONTINUOUS
 62
    7
 10
280.66819199999998
 20
13.941568000000032
 11
280.69014399999992
 21
13.897663999999992
  0
LINE
  8
_f-f_
  6
CONTINUOUS
 62
    7
 10
282.59996799999999
 20
14.512320000000003
 11
282.62191999999993
 21
14.468416000000005
  0
LINE
  8
_f-f_
  6
CONTINUOUS
 62
    7
 10
282.62191999999993
 20
14.468416000000005
 11
282.57801599999993
 21
14.424512000000007
  0
LINE
  8
_f-f_
  6
CONTINUOUS
 62
    7
 10
282.57801599999993
 20
14.424512000000007
 11
282.55606399999994
 21
14.380608000000009
  0
LINE
  8
_f-f_
  6
CONTINUOUS
 62
    7
 10
282.55606399999994
 20
14.380608000000009
 11
282.55606399999994
 21
13.502527999999984
  0
LINE
  8
_f-f_
  6
CONTINUOUS
 62
    7
 10
282.55606399999994
 20
13.107392000000061
 11
282.55606399999994
 21
11.35123200000001
  0
LINE
  8
_f-f_
  6
CONTINUOUS
 62
    7
 10
283.5
 20
11
 11
281.16211199999998
 21
11
  0
LINE
  8
_f-f_
  6
CONTINUOUS
 62
    7
 10
281.11820799999992
 20
13.941568000000032
 11
281.33772799999997
 21
13.722048000000001
  0
LINE
  8
_f-f_
  6
CONTINUOUS
 62
    7
 10
281.33772799999997
 20
13.722048000000001
 11
281.29382399999997
 21
13.678143999999975
  0
LINE
  8
_f-f_
  6
CONTINUOUS
 62
    7
 10
281.29382399999997
 20
13.678143999999975
 11
281.22796799999992
 21
13.634240000000005
  0
LINE
  8
_f-f_
  6
CONTINUOUS
 62
    7
 10
281.22796799999992
 20
13.634240000000005
 11
281.16211199999998
 21
13.502527999999984
  0
LINE
  8
_f-f_
  6
CONTINUOUS
 62
    7
 10
281.16211199999998
 20
13.502527999999984
 11
281.12918399999995
 21
13.458624000000043
  0
LINE
  8
_f-f_
  6
CONTINUOUS
 62
    7
 10
281.12918399999995
 20
13.458624000000043
 11
281.08528000000001
 21
13.370815999999991
  0
LINE
  8
_f-f_
  6
CONTINUOUS
 62
    7
 10
281.08528000000001
 20
13.370815999999991
 11
281.05235199999998
 21
13.326912000000021
  0
LINE
  8
_f-f_
  6
CONTINUOUS
 62
    7
 10
281.05235199999998
 20
13.326912000000021
 11
281.03039999999999
 21
13.283008000000024
  0
LINE
  8
_f-f_
  6
CONTINUOUS
 62
    7
 10
281.03039999999999
 20
13.283008000000024
 11
280.93161599999996
 21
13.151296000000031
  0
LINE
  8
_f-f_
  6
CONTINUOUS
 62
    7
 10
280.93161599999996
 20
13.151296000000031
 11
280.90966400000002
 21
13.107392000000061
  0
LINE
  8
_f-f_
  6
CONTINUOUS
 62
    7
 10
280.90966400000002
 20
13.107392000000061
 11
280.74502399999994
 21
12.887871999999987
  0
LINE
  8
_f-f_
  6
CONTINUOUS
 62
    7
 10
280.74502399999994
 20
12.887871999999987
 11
280.70111999999995
 21
12.84396799999999
  0
LINE
  8
_f-f_
  6
CONTINUOUS
 62
    7
 10
280.70111999999995
 20
12.84396799999999
 11
280.66819199999998
 21
12.800064000000049
  0
LINE
  8
_f-f_
  6
CONTINUOUS
 62
    7
 10
280.66819199999998
 20
12.800064000000049
 11
280.75599999999997
 21
12.756160000000023
  0
LINE
  8
_f-f_
  6
CONTINUOUS
 62
    7
 10
280.75599999999997
 20
12.756160000000023
 11
280.87673599999994
 21
12.712256000000025
  0
LINE
  8
_f-f_
  6
CONTINUOUS
 62
    7
 10
280.87673599999994
 20
12.712256000000025
 11
281.07430399999998
 21
12.624447999999973
  0
LINE
  8
_f-f_
  6
CONTINUOUS
 62
    7
 10
281.07430399999998
 20
12.624447999999973
 11
281.16211199999998
 21
12.580544000000003
  0
LINE
  8
_f-f_
  6
CONTINUOUS
 62
    7
 10
281.16211199999998
 20
12.580544000000003
 11
281.31577599999991
 21
12.492735999999979
  0
LINE
  8
_f-f_
  6
CONTINUOUS
 62
    7
 10
281.31577599999991
 20
12.492735999999979
 11
281.38163199999997
 21
12.448831999999982
  0
LINE
  8
_f-f_
  6
CONTINUOUS
 62
    7
 10
281.38163199999997
 20
12.448831999999982
 11
281.40358399999991
 21
12.404927999999984
  0
LINE
  8
_f-f_
  6
CONTINUOUS
 62
    7
 10
281.40358399999991
 20
12.404927999999984
 11
281.24991999999997
 21
12.0976
  0
LINE
  8
_f-f_
  6
CONTINUOUS
 62
    7
 10
281.24991999999997
 20
12.0976
 11
281.20601599999998
 21
12.0976
  0
LINE
  8
_f-f_
  6
CONTINUOUS
 62
    7
 10
280.33891199999999
 20
12.448831999999982
 11
280.31695999999999
 21
12.448831999999982
  0
LINE
  8
_f-f_
  6
CONTINUOUS
 62
    7
 10
280.31695999999999
 20
12.448831999999982
 11
280.27305599999988
 21
12.404927999999984
  0
LINE
  8
_f-f_
  6
CONTINUOUS
 62
    7
 10
280.27305599999988
 20
12.404927999999984
 11
280.05353599999995
 21
12.229311999999993
  0
LINE
  8
_f-f_
  6
CONTINUOUS
 62
    7
 10
280.05353599999995
 20
12.229311999999993
 11
279.98767999999995
 21
12.185407999999995
  0
LINE
  8
_f-f_
  6
CONTINUOUS
 62
    7
 10
279.98767999999995
 20
12.185407999999995
 11
279.93279999999993
 21
12.141503999999998
  0
LINE
  8
_f-f_
  6
CONTINUOUS
 62
    7
 10
279.93279999999993
 20
12.141503999999998
 11
279.80108799999994
 21
12.053696000000031
  0
LINE
  8
_f-f_
  6
CONTINUOUS
 62
    7
 10
279.80108799999994
 20
12.053696000000031
 11
279.72425599999997
 21
12.009792000000004
  0
LINE
  8
_f-f_
  6
CONTINUOUS
 62
    7
 10
279.72425599999997
 20
12.009792000000004
 11
279.70230399999997
 21
12.009792000000004
  0
LINE
  8
_f-f_
  6
CONTINUOUS
 62
    7
 10
280.69014399999992
 20
12.448831999999982
 11
280.66819199999998
 21
12.448831999999982
  0
LINE
  8
_f-f_
  6
CONTINUOUS
 62
    7
 10
280.66819199999998
 20
12.448831999999982
 11
280.66819199999998
 21
10.78048000000004
  0
LINE
  8
_f-f_
  6
CONTINUOUS
 62
    7
 10
280.66819199999998
 20
10.78048000000004
 11
280.33891199999999
 21
10.78048000000004
  0
LINE
  8
_f-f_
  6
CONTINUOUS
 62
    7
 10
261.69803650015848
 20
10.818143377298185
 11
261.46786978015854
 21
11.320637828498263
  0
ARC
  8
_f-f_
  6
CONTINUOUS
 62
    7
 10
261.14397350815852
 20
13.801814490098195
 40
2.5022283551999998
 50
277.43740700000006
 51
318.25330200000008
  0
LINE
  8
_f-f_
  6
CONTINUOUS
 62
    7
 10
259.91794882015853
 20
11.278091559698225
 11
259.38451522015851
 21
10.85915849409821
  0
ARC
  8
_f-f_
  6
CONTINUOUS
 62
    7
 10
248.43833509135854
 20
2.5524020556982236
 40
13.741217431199997
 50
37.193868000000002
 51
44.067300000000003
  0
ARC
  8
_f-f_
  6
CONTINUOUS
 62
    7
 10
251.63328789295852
 20
5.1972563964982612
 40
9.6114510576000001
 50
45.985430000000001
 51
52.858862000000002
  0
LINE
  8
_f-f_
  6
CONTINUOUS
 62
    7
 10
257.43649474015854
 20
12.859030695698209
 11
257.84546050015854
 21
13.256932647698193
  0
ARC
  8
_f-f_
  6
CONTINUOUS
 62
    7
 10
259.60822146655852
 20
14.802502172498251
 40
1.5138771480000004
 50
335.50113199999998
 51
353.79681699999998
  0
ARC
  8
_f-f_
  6
CONTINUOUS
 62
    7
 10
255.5557247609585
 20
17.049016618898278
 40
6.1438791120000014
 50
318.37204700000001
 51
332.10656799999998
  0
ARC
  8
_f-f_
  6
CONTINUOUS
 62
    7
 10
253.24143214255852
 20
15.569703169298236
 40
3.3701116512000007
 50
327.63748900000002
 51
343.65418099999999
  0
ARC
  8
_f-f_
  6
CONTINUOUS
 62
    7
 10
253.40907764575854
 20
15.622958446898267
 40
3.2597962655999995
 50
295.64126099999999
 51
325.26891000000001
  0
LINE
  8
_f-f_
  6
CONTINUOUS
 62
    7
 10
254.81970658015848
 20
12.68418301569821
 11
254.54706274015854
 21
13.113498279698177
  0
LINE
  8
_f-f_
  6
CONTINUOUS
 62
    7
 10
253.63923778015851
 20
15.293364807698225
 11
253.08308386015847
 21
15.228364935698238
  0
LINE
  8
_f-f_
  6
CONTINUOUS
 62
    7
 10
253.74691234015856
 20
10.796371383698215
 11
254.30800546015854
 21
10.877532318098247
  0
LINE
  8
_f-f_
  6
CONTINUOUS
 62
    7
 10
251.82161218015855
 20
14.621238471698234
 11
251.82161218015855
 21
14.055798855698214
  0
LINE
  8
_f-f_
  6
CONTINUOUS
 62
    7
 10
265.43503522015851
 20
13.13197088769823
 11
265.43799874015849
 21
13.697410503698194
  0
LINE
  8
_f-f_
  6
CONTINUOUS
 62
    7
 10
265.43799874015849
 20
13.697410503698194
 11
261.28709506015849
 21
13.697410503698194
  0
LINE
  8
_f-f_
  6
CONTINUOUS
 62
    7
 10
261.28709506015849
 20
13.697410503698194
 11
261.28709506015849
 21
13.13197088769823
  0
LINE
  8
_f-f_
  6
CONTINUOUS
 62
    7
 10
261.62197282015848
 20
14.929049415698273
 11
261.62197282015848
 21
14.363609799698224
  0
LINE
  8
_f-f_
  6
CONTINUOUS
 62
    7
 10
261.62197282015848
 20
14.363609799698224
 11
264.40866946015854
 21
14.363609799698224
  0
LINE
  8
_f-f_
  6
CONTINUOUS
 62
    7
 10
261.11323522015851
 20
14.63892080769827
 11
256.72228642015853
 21
14.63892080769827
  0
LINE
  8
_f-f_
  6
CONTINUOUS
 62
    7
 10
256.72228642015853
 20
14.63892080769827
 11
256.72228642015853
 21
14.073678759698211
  0
LINE
  8
_f-f_
  6
CONTINUOUS
 62
    7
 10
248.28712066015856
 20
15.250196199698237
 11
247.73096674015852
 21
15.185295111698224
  0
LINE
  8
_f-f_
  6
CONTINUOUS
 62
    7
 10
248.17648258015853
 20
10.813381988498236
 11
248.73757570015857
 21
10.894552801298175
  0
LINE
  8
_f-f_
  6
CONTINUOUS
 62
    7
 10
240.27079906015857
 20
13.902288519698203
 11
240.87041794015852
 21
13.944370503698195
  0
ARC
  8
_f-f_
  6
CONTINUOUS
 62
    7
 10
236.74753516495866
 20
13.76305823409821
 40
4.1268670632000006
 50
321.70218699999998
 51
2.5180820000000264
  0
ARC
  8
_f-f_
  6
CONTINUOUS
 62
    7
 10
238.33115299375856
 20
13.078716433298212
 40
2.4997389984000002
 50
293.16671400000001
 51
311.462399
  0
LINE
  8
_f-f_
  6
CONTINUOUS
 62
    7
 10
239.31456994015855
 20
10.780546186898221
 11
238.93326370015848
 21
11.179910142098237
  0
ARC
  8
_f-f_
  6
CONTINUOUS
 62
    7
 10
237.93835982095854
 20
13.317551449298207
 40
2.3578267271999995
 50
294.95826699999998
 51
355.396568
  0
ARC
  8
_f-f_
  6
CONTINUOUS
 62
    7
 10
236.41950066655863
 20
13.426618863698252
 40
3.8805615072000004
 50
355.59126199999997
 51
7.040883000000008
  0
LINE
  8
_f-f_
  6
CONTINUOUS
 62
    7
 10
250.53149314015846
 20
12.585794151698195
 11
250.53346882015853
 21
13.151233767698216
  0
LINE
  8
_f-f_
  6
CONTINUOUS
 62
    7
 10
246.08917666015856
 20
13.151233767698216
 11
246.08917666015856
 21
12.585794151698195
  0
LINE
  8
_f-f_
  6
CONTINUOUS
 62
    7
 10
250.33491298015849
 20
14.089879335698242
 11
250.33787650015853
 21
14.65531895169822
  0
LINE
  8
_f-f_
  6
CONTINUOUS
 62
    7
 10
246.3025501001585
 20
14.65531895169822
 11
246.3025501001585
 21
14.089879335698242
  0
LINE
  8
_f-f_
  6
CONTINUOUS
 62
    7
 10
245.69107714015851
 20
12.768050631698202
 11
245.69305282015858
 21
13.333292679698218
  0
LINE
  8
_f-f_
  6
CONTINUOUS
 62
    7
 10
245.69305282015858
 20
13.333292679698218
 11
242.56061218015859
 21
13.333292679698218
  0
LINE
  8
_f-f_
  6
CONTINUOUS
 62
    7
 10
242.56061218015859
 20
13.333292679698218
 11
242.56061218015859
 21
12.768050631698202
  0
LINE
  8
_f-f_
  6
CONTINUOUS
 62
    7
 10
242.56061218015859
 20
12.768050631698202
 11
245.69107714015851
 21
12.768050631698202
  0
LINE
  8
_f-f_
  6
CONTINUOUS
 62
    7
 10
242.94685762015857
 20
15.086511111698243
 11
238.61320354015854
 21
15.086511111698243
  0
LINE
  8
_f-f_
  6
CONTINUOUS
 62
    7
 10
238.61320354015854
 20
15.086511111698243
 11
238.61320354015854
 21
14.526603399698274
  0
LINE
  8
_f-f_
  6
CONTINUOUS
 62
    7
 10
241.43249890015855
 20
12.940725063698153
 11
241.04921698015858
 21
13.386537255698215
  0
LINE
  8
_f-f_
  6
CONTINUOUS
 62
    7
 10
264.40866946015854
 20
14.363609799698224
 11
264.41163298015852
 21
14.929049415698273
  0
LINE
  8
_f-f_
  6
CONTINUOUS
 62
    7
 10
264.41163298015852
 20
14.929049415698273
 11
261.62197282015848
 21
14.929049415698273
  0
LINE
  8
_f-f_
  6
CONTINUOUS
 62
    7
 10
264.76923106015852
 20
15.129383367698281
 11
264.76923106015852
 21
14.298116007698198
  0
LINE
  8
_f-f_
  6
CONTINUOUS
 62
    7
 10
264.76923106015852
 20
14.298116007698198
 11
265.18906306015845
 21
14.298116007698198
  0
LINE
  8
_f-f_
  6
CONTINUOUS
 62
    7
 10
265.18906306015845
 20
14.298116007698198
 11
265.18906306015845
 21
15.129383367698281
  0
LINE
  8
_f-f_
  6
CONTINUOUS
 62
    7
 10
265.18906306015845
 20
15.129383367698281
 11
264.76923106015852
 21
15.129383367698281
  0
LINE
  8
_f-f_
  6
CONTINUOUS
 62
    7
 10
265.35403234015854
 20
15.129383367698281
 11
265.35403234015854
 21
14.298116007698198
  0
LINE
  8
_f-f_
  6
CONTINUOUS
 62
    7
 10
265.35403234015854
 20
14.298116007698198
 11
265.77386434015853
 21
14.298116007698198
  0
LINE
  8
_f-f_
  6
CONTINUOUS
 62
    7
 10
265.77386434015853
 20
14.298116007698198
 11
265.77386434015853
 21
15.129383367698281
  0
LINE
  8
_f-f_
  6
CONTINUOUS
 62
    7
 10
265.77386434015853
 20
15.129383367698281
 11
265.35403234015854
 21
15.129383367698281
  0
ARC
  8
_f-f_
  6
CONTINUOUS
 62
    7
 10
240.40335977935854
 20
15.112665822098251
 40
1.8430007399999995
 50
290.51408900000007
 51
341.45836900000006
  0
ARC
  8
_f-f_
  6
CONTINUOUS
 62
    7
 10
240.32372670415859
 20
15.330920014898268
 40
2.6348450520000002
 50
294.88580100000001
 51
354.697475
  0
LINE
  8
_f-f_
  6
CONTINUOUS
 62
    7
 10
250.33787650015853
 20
14.65531895169822
 11
248.34864168895854
 21
14.65531895169822
  0
LINE
  8
_f-f_
  6
CONTINUOUS
 62
    7
 10
247.78497359935855
 20
14.65531895169822
 11
246.3025501001585
 21
14.65531895169822
  0
LINE
  8
_f-f_
  6
CONTINUOUS
 62
    7
 10
246.3025501001585
 20
14.089879335698242
 11
247.84259348335851
 21
14.089879335698242
  0
LINE
  8
_f-f_
  6
CONTINUOUS
 62
    7
 10
248.40711852415853
 20
14.089879335698242
 11
250.33491298015849
 21
14.089879335698242
  0
LINE
  8
_f-f_
  6
CONTINUOUS
 62
    7
 10
250.53346882015853
 20
13.151233767698216
 11
248.50419273775856
 21
13.151233767698216
  0
LINE
  8
_f-f_
  6
CONTINUOUS
 62
    7
 10
247.93824603055856
 20
13.151233767698216
 11
246.08917666015856
 21
13.151233767698216
  0
LINE
  8
_f-f_
  6
CONTINUOUS
 62
    7
 10
246.08917666015856
 20
12.585794151698195
 11
247.99586591455852
 21
12.585794151698195
  0
LINE
  8
_f-f_
  6
CONTINUOUS
 62
    7
 10
248.5626695729585
 20
12.585794151698195
 11
250.53149314015846
 21
12.585794151698195
  0
LINE
  8
_f-f_
  6
CONTINUOUS
 62
    7
 10
248.34864168895854
 20
14.65531895169822
 11
248.28712066015856
 21
15.250196199698237
  0
LINE
  8
_f-f_
  6
CONTINUOUS
 62
    7
 10
247.73096674015852
 20
15.185295111698224
 11
247.78497359935855
 21
14.65531895169822
  0
LINE
  8
_f-f_
  6
CONTINUOUS
 62
    7
 10
247.84259348335851
 20
14.089879335698242
 11
247.93824603055856
 21
13.151233767698216
  0
LINE
  8
_f-f_
  6
CONTINUOUS
 62
    7
 10
247.99586591455852
 20
12.585794151698195
 11
248.17648258015853
 21
10.813381988498236
  0
LINE
  8
_f-f_
  6
CONTINUOUS
 62
    7
 10
248.73757570015857
 20
10.894552801298175
 11
248.5626695729585
 21
12.585794151698195
  0
LINE
  8
_f-f_
  6
CONTINUOUS
 62
    7
 10
248.50419273775856
 20
13.151233767698216
 11
248.40711852415853
 21
14.089879335698242
  0
LINE
  8
_f-f_
  6
CONTINUOUS
 62
    7
 10
256.47532642015847
 20
14.621238471698234
 11
253.74102975295853
 21
14.621238471698234
  0
LINE
  8
_f-f_
  6
CONTINUOUS
 62
    7
 10
253.1740194713586
 20
14.621238471698234
 11
251.82161218015855
 21
14.621238471698234
  0
LINE
  8
_f-f_
  6
CONTINUOUS
 62
    7
 10
251.82161218015855
 20
14.055798855698214
 11
253.25871193375849
 21
14.055798855698214
  0
LINE
  8
_f-f_
  6
CONTINUOUS
 62
    7
 10
253.08308386015847
 20
15.228364935698238
 11
253.1740194713586
 21
14.621238471698234
  0
LINE
  8
_f-f_
  6
CONTINUOUS
 62
    7
 10
253.25871193375849
 20
14.055798855698214
 11
253.74691234015856
 21
10.796371383698215
  0
LINE
  8
_f-f_
  6
CONTINUOUS
 62
    7
 10
254.30800546015854
 20
10.877532318098247
 11
253.82666395615848
 21
14.055798855698214
  0
LINE
  8
_f-f_
  6
CONTINUOUS
 62
    7
 10
253.74102975295853
 20
14.621238471698234
 11
253.63923778015851
 21
15.293364807698225
  0
ARC
  8
_f-f_
  6
CONTINUOUS
 62
    7
 10
253.30606651375854
 20
15.707678898098237
 40
2.8757339520000005
 50
295.56537500000002
 51
324.94094800000005
  0
LINE
  8
_f-f_
  6
CONTINUOUS
 62
    7
 10
253.82666395615848
 20
14.055798855698214
 11
255.66727330015857
 21
14.055798855698214
  0
ARC
  8
_f-f_
  6
CONTINUOUS
 62
    7
 10
255.50034562735851
 20
17.562717291698277
 40
6.535748654399999
 50
304.14080200000001
 51
315.32696499999997
  0
ARC
  8
_f-f_
  6
CONTINUOUS
 62
    7
 10
251.77672308415856
 20
5.0645516172982639
 40
10.241466597600002
 50
37.351568999999991
 51
43.801712000000002
  0
ARC
  8
_f-f_
  6
CONTINUOUS
 62
    7
 10
251.93372790415847
 20
4.8052798380982154
 40
10.3140201528
 50
48.700563000000002
 51
55.028115999999997
  0
ARC
  8
_f-f_
  6
CONTINUOUS
 62
    7
 10
257.08223226655855
 20
15.662920690898247
 40
3.5238129696000002
 50
298.08031299999999
 51
333.19209899999998
  0
LINE
  8
_f-f_
  6
CONTINUOUS
 62
    7
 10
256.72228642015853
 20
14.073678759698211
 11
260.22731890495857
 21
14.073678759698211
  0
ARC
  8
_f-f_
  6
CONTINUOUS
 62
    7
 10
261.53521000975854
 20
13.090698932498213
 40
2.2783813415999994
 50
274.09817199999998
 51
1.0379469999999982
  0
ARC
  8
_f-f_
  6
CONTINUOUS
 62
    7
 10
261.63552269215853
 20
12.913413757298173
 40
1.5799941024000002
 50
330.51444500000002
 51
7.9510959999999775
  0
LINE
  8
_f-f_
  6
CONTINUOUS
 62
    7
 10
261.28709506015849
 20
13.13197088769823
 11
263.20032710815855
 21
13.13197088769823
  0
LINE
  8
_f-f_
  6
CONTINUOUS
 62
    7
 10
263.8132176185585
 20
13.13197088769823
 11
265.43503522015851
 21
13.13197088769823
  0
LINE
  8
_f-f_
  6
CONTINUOUS
 62
    7
 10
238.61320354015854
 20
14.526603399698274
 11
242.15069562415852
 21
14.526603399698274
  0
LINE
  8
_f-f_
  6
CONTINUOUS
 62
    7
 10
269.23119999999994
 20
13.941568000000032
 11
270.02147199999996
 21
13.941568000000032
  0
LINE
  8
_f-f_
  6
CONTINUOUS
 62
    7
 10
269.23119999999994
 20
13.546432000000038
 11
270.02147199999996
 21
13.546432000000038
  0
LINE
  8
_f-f_
  6
CONTINUOUS
 62
    7
 10
270.02147199999996
 20
13.941568000000032
 11
270.02147199999996
 21
13.546432000000038
  0
LINE
  8
_f-f_
  6
CONTINUOUS
 62
    7
 10
267.06892800000003
 20
13.853760000000037
 11
266.48719999999992
 21
13.853760000000037
  0
LINE
  8
_f-f_
  6
CONTINUOUS
 62
    7
 10
266.48719999999992
 20
13.853760000000037
 11
266.48719999999992
 21
13.458624000000043
  0
LINE
  8
_f-f_
  6
CONTINUOUS
 62
    7
 10
267.04697599999997
 20
13.458624000000043
 11
266.48719999999992
 21
13.458624000000043
  0
LINE
  8
_f-f_
  6
CONTINUOUS
 62
    7
 10
267.38723200000004
 20
13.853760000000037
 11
267.87017599999996
 21
13.853760000000037
  0
LINE
  8
_f-f_
  6
CONTINUOUS
 62
    7
 10
267.87017599999996
 20
13.853760000000037
 11
267.87017599999996
 21
13.458624000000043
  0
LINE
  8
_f-f_
  6
CONTINUOUS
 62
    7
 10
267.38723200000004
 20
13.458624000000043
 11
267.87017599999996
 21
13.458624000000043
  0
LINE
  8
_f-f_
  6
CONTINUOUS
 62
    7
 10
268.9019199999999
 20
13.019583999999952
 11
267.89212799999996
 21
13.019583999999952
  0
LINE
  8
_f-f_
  6
CONTINUOUS
 62
    7
 10
267.89212799999996
 20
13.019583999999952
 11
267.89212799999996
 21
12.624447999999973
  0
LINE
  8
_f-f_
  6
CONTINUOUS
 62
    7
 10
268.87996799999996
 20
12.624447999999973
 11
267.89212799999996
 21
12.624447999999973
  0
LINE
  8
_f-f_
  6
CONTINUOUS
 62
    7
 10
269.23119999999994
 20
13.019583999999952
 11
270.306848
 21
13.019583999999952
  0
LINE
  8
_f-f_
  6
CONTINUOUS
 62
    7
 10
270.306848
 20
13.019583999999952
 11
270.306848
 21
12.624447999999973
  0
LINE
  8
_f-f_
  6
CONTINUOUS
 62
    7
 10
269.26412799999991
 20
12.624447999999973
 11
270.306848
 21
12.624447999999973
  0
LINE
  8
_f-f_
  6
CONTINUOUS
 62
    7
 10
273.07279999999992
 20
13.853760000000037
 11
270.97638399999994
 21
13.853760000000037
  0
LINE
  8
_f-f_
  6
CONTINUOUS
 62
    7
 10
270.97638399999994
 20
13.853760000000037
 11
270.97638399999994
 21
13.458624000000043
  0
LINE
  8
_f-f_
  6
CONTINUOUS
 62
    7
 10
273.083776
 20
13.458624000000043
 11
270.97638399999994
 21
13.458624000000043
  0
LINE
  8
_f-f_
  6
CONTINUOUS
 62
    7
 10
273.44598400000001
 20
13.853760000000037
 11
274.64236799999992
 21
13.853760000000037
  0
LINE
  8
_f-f_
  6
CONTINUOUS
 62
    7
 10
274.64236799999992
 20
13.853760000000037
 11
274.64236799999992
 21
13.458624000000043
  0
LINE
  8
_f-f_
  6
CONTINUOUS
 62
    7
 10
273.44598400000001
 20
13.458624000000043
 11
274.64236799999992
 21
13.458624000000043
  0
LINE
  8
_f-f_
  6
CONTINUOUS
 62
    7
 10
272.16179199999999
 20
12.536639999999977
 11
272.16179199999999
 21
12.522973737441333
  0
LINE
  8
_f-f_
  6
CONTINUOUS
 62
    7
 10
272.16179199999999
 20
12.522973737441333
 11
272.16179199999999
 21
11.658559999999994
  0
LINE
  8
_f-f_
  6
CONTINUOUS
 62
    7
 10
271.15199999999993
 20
12.84396799999999
 11
271.15199999999993
 21
12.536639999999977
  0
LINE
  8
_f-f_
  6
CONTINUOUS
 62
    7
 10
271.83251199999995
 20
12.536639999999977
 11
271.15199999999993
 21
12.536639999999977
  0
LINE
  8
_f-f_
  6
CONTINUOUS
 62
    7
 10
272.16179199999999
 20
12.522973737441333
 11
272.83132799999998
 21
12.522973737441333
  0
LINE
  8
_f-f_
  6
CONTINUOUS
 62
    7
 10
272.83132799999998
 20
12.84396799999999
 11
272.83132799999998
 21
12.522973737441333
  0
LINE
  8
_f-f_
  6
CONTINUOUS
 62
    7
 10
277.05708800000002
 20
12.141503999999998
 11
278.9339839999999
 21
12.141503999999998
  0
LINE
  8
_f-f_
  6
CONTINUOUS
 62
    7
 10
278.9339839999999
 20
12.536639999999977
 11
278.9339839999999
 21
12.141503999999998
  0
LINE
  8
_f-f_
  6
CONTINUOUS
 62
    7
 10
276.66195199999999
 20
12.141503999999998
 11
275.43263999999999
 21
12.141503999999998
  0
LINE
  8
_f-f_
  6
CONTINUOUS
 62
    7
 10
275.43263999999999
 20
12.536639999999977
 11
275.43263999999999
 21
12.141503999999998
  0
LINE
  8
_f-f_
  6
CONTINUOUS
 62
    7
 10
280.33891199999999
 20
14.600128000000012
 11
280.33891199999999
 21
13.897663999999992
  0
LINE
  8
_f-f_
  6
CONTINUOUS
 62
    7
 10
280.33891199999999
 20
13.897663999999992
 11
279.70230399999997
 21
13.897663999999992
  0
LINE
  8
_f-f_
  6
CONTINUOUS
 62
    7
 10
279.70230399999997
 20
13.897663999999992
 11
279.70230399999997
 21
13.546432000000038
  0
LINE
  8
_f-f_
  6
CONTINUOUS
 62
    7
 10
280.82185599999991
 20
13.546432000000038
 11
279.70230399999997
 21
13.546432000000038
  0
LINE
  8
_f-f_
  6
CONTINUOUS
 62
    7
 10
282.17190399999993
 20
13.502527999999984
 11
281.43651199999999
 21
13.502527999999984
  0
LINE
  8
_f-f_
  6
CONTINUOUS
 62
    7
 10
281.43651199999999
 20
13.502527999999984
 11
281.43651199999999
 21
13.107392000000061
  0
LINE
  8
_f-f_
  6
CONTINUOUS
 62
    7
 10
282.17190399999993
 20
13.107392000000061
 11
281.43651199999999
 21
13.107392000000061
  0
LINE
  8
_f-f_
  6
CONTINUOUS
 62
    7
 10
282.55606399999994
 20
13.107392000000061
 11
283.34633599999995
 21
13.107392000000061
  0
LINE
  8
_f-f_
  6
CONTINUOUS
 62
    7
 10
283.34633599999995
 20
13.502527999999984
 11
283.34633599999995
 21
13.107392000000061
  0
LINE
  8
_f-f_
  6
CONTINUOUS
 62
    7
 10
282.55606399999994
 20
13.502527999999984
 11
283.34633599999995
 21
13.502527999999984
  0
LINE
  8
_f-f_
  6
CONTINUOUS
 62
    7
 10
283.5
 20
11.35123200000001
 11
283.5
 21
11
  0
LINE
  8
_f-f_
  6
CONTINUOUS
 62
    7
 10
282.55606399999994
 20
11.35123200000001
 11
283.5
 21
11.35123200000001
  0
LINE
  8
_f-f_
  6
CONTINUOUS
 62
    7
 10
281.16211199999998
 20
11.35123200000001
 11
281.16211199999998
 21
11
  0
LINE
  8
_f-f_
  6
CONTINUOUS
 62
    7
 10
282.17190399999993
 20
11.35123200000001
 11
281.16211199999998
 21
11.35123200000001
  0
LINE
  8
_f-f_
  6
CONTINUOUS
 62
    7
 10
233.5
 20
17
 11
233.5
 21
27
  0
LINE
  8
_f-f_
  6
CONTINUOUS
 62
    7
 10
183.5
 20
17
 11
183.5
 21
27
  0
LINE
  8
_f-f_
  6
CONTINUOUS
 62
    7
 10
253.5
 20
17
 11
253.5
 21
27
  0
TEXT
  8
_e-e_
 62
    7
 10
165.5
 20
20
 40
4
 41
1
 50
0
  1
図面名称
  0
TEXT
  8
_e-e_
 62
    7
 10
237.5
 20
20
 40
4
 41
1
 50
0
  1
作成日
  0
LINE
  8
_f-f_
  6
CONTINUOUS
 62
    7
 10
163.5
 20
17
 11
163.5
 21
27
  0
LINE
  8
_f-f_
  6
CONTINUOUS
 62
    7
 10
283.5
 20
27
 11
188.61822686063675
 21
27
  0
LINE
  8
_f-f_
  6
CONTINUOUS
 62
    7
 10
188.61822686063675
 20
27
 11
163.5
 21
27
  0
LINE
  8
_f-f_
  6
CONTINUOUS
 62
    7
 10
248.5
 20
197
 11
248.5
 21
187
  0
TEXT
  8
_e-e_
 62
    7
 10
237
 20
190
 40
4
 41
1
 50
0
  1
縮尺
  0
LINE
  8
_f-f_
  6
CONTINUOUS
 62
    7
 10
233.5
 20
197
 11
233.5
 21
187
  0
LINE
  8
_f-f_
  6
CONTINUOUS
 62
    7
 10
233.5
 20
187
 11
283.5
 21
187
  0
LINE
  8
_f-f_
  6
CONTINUOUS
 62
    7
 10
13.5
 20
197
 11
13.5
 21
17
  0
TEXT
  8
_e-e_
 62
    7
 10
255
 20
190
 40
4
 41
1
 50
0
  1
Ａ４：１/５
  0
TEXT
  8
_e-e_
 62
    7
 10
188.5
 20
22.5
 40
4
 41
1
 50
0
  1
縦型ドレン新築
  0
TEXT
  8
_e-e_
 62
    7
 10
188.5
 20
17.5
 40
4
 41
1
 50
0
  1
納まりの例
  0
LINE
  8
_1-a_元図__躯体
  6
CONTINUOUS
 62
    7
 10
104.86978586704312
 20
126.82708353353169
 11
74.869785867043106
 21
96.827083533531692
  0
LINE
  8
_1-a_元図__躯体
  6
CONTINUOUS
 62
    7
 10
103.45557230467003
 20
126.82708353353169
 11
73.455572304670028
 21
96.827083533531692
  0
LINE
  8
_1-a_元図__躯体
  6
CONTINUOUS
 62
    7
 10
102.04135874229694
 20
126.82708353353169
 11
72.041358742296921
 21
96.827083533531692
  0
TEXT
  8
_e-e_
 62
    7
 10
26.630692340067185
 20
33.2481130751964
 40
4
 41
1
 50
0
  1
●防水性能の向上のため、鍔の広いドレンの採用を推奨します。（防水層張り掛け幅100mmタイプのドレンを推奨します。）
  0
LINE
  8
_e-e_
  6
CONTINUOUS
 62
    7
 10
164.66407534116379
 20
73.895821635619612
 11
169.66407534116379
 21
73.895821635619612
  0
LINE
  8
_e-e_
  6
CONTINUOUS
 62
    7
 10
164.66407534116379
 20
73.895821635619612
 11
157.45879752178985
 21
86.375728901424338
  0
TEXT
  8
_e-e_
 62
    7
 10
169.66407534116379
 20
71.895821635619612
 40
4
 41
1
 50
0
  1
排水管
  0
LINE
  8
_1-b_その他
  6
CONTINUOUS
 62
    4
 10
133.62247874362197
 20
116.0745983178208
 11
132.72248941888287
 21
116.0745983178208
  0
LINE
  8
_1-b_その他
  6
CONTINUOUS
 62
    4
 10
160.72248100592893
 20
116.07460822719651
 11
159.82247186243833
 21
116.07460822719651
  0
LINE
  8
_1-c_アンカ__類②
  6
CONTINUOUS
 62
    3
 10
117.32250692819605
 20
116.67460981788109
 11
117.32250692819605
 21
115.47460423281082
  0
LINE
  8
_1-c_アンカ__類②
  6
CONTINUOUS
 62
    3
 10
118.52253233201785
 20
116.67460981788109
 11
117.32250692819605
 21
116.67460981788109
  0
LINE
  8
_1-c_アンカ__類②
  6
CONTINUOUS
 62
    3
 10
120.12253977877822
 20
117.07459186081968
 11
120.12253977877822
 21
119.67461387118104
  0
LINE
  8
_1-c_アンカ__類②
  6
CONTINUOUS
 62
    3
 10
118.52253233201785
 20
115.47460423281082
 11
117.32250692819605
 21
115.47460423281082
  0
LINE
  8
_1-c_アンカ__類②
  6
CONTINUOUS
 62
    3
 10
118.92251437495642
 20
117.07459186081968
 11
118.92251437495642
 21
119.67461387118104
  0
LINE
  8
_1-c_アンカ__類②
  6
CONTINUOUS
 62
    3
 10
120.15750005643869
 20
119.67461387118104
 11
118.88755409729598
 21
119.67461387118104
  0
LINE
  8
_1-c_アンカ__類②
  6
CONTINUOUS
 62
    3
 10
119.05050387219643
 20
119.67461387118104
 11
119.05050387219643
 21
120.07460582349539
  0
LINE
  8
_1-c_アンカ__類②
  6
CONTINUOUS
 62
    3
 10
119.99447100653222
 20
119.67461387118104
 11
119.99447100653222
 21
120.07460582349539
  0
LINE
  8
_1-c_アンカ__類②
  6
CONTINUOUS
 62
    3
 10
120.15750005643869
 20
119.67461387118104
 11
120.15750005643869
 21
120.07460582349539
  0
LINE
  8
_1-c_アンカ__類②
  6
CONTINUOUS
 62
    3
 10
118.88755409729598
 20
119.67461387118104
 11
118.88755409729598
 21
120.07460582349539
  0
LINE
  8
_1-c_アンカ__類②
  6
CENTER1
 62
    3
 10
118.52249269451482
 20
116.07461693472172
 11
117.0448462195661
 21
116.07461693472172
  0
ARC
  8
_1-c_アンカ__類②
  6
CONTINUOUS
 62
    3
 10
118.52253233201785
 20
117.07459186081968
 40
0.4000000036821402
 50
270
 51
0
  0
ARC
  8
_1-c_アンカ__類②
  6
CONTINUOUS
 62
    3
 10
118.52253233201785
 20
117.07459186081968
 40
1.6000000147285609
 50
270
 51
0
  0
ARC
  8
_1-c_アンカ__類②
  6
CENTER1
 62
    3
 10
118.52249269451482
 20
117.07459186081968
 40
1.0000000092053505
 50
270
 51
0
  0
LINE
  8
_1-b_その他
  6
CONTINUOUS
 62
    4
 10
132.72248941888287
 20
96.827083533531692
 11
132.72248941888287
 21
116.07460822719655
  0
LINE
  8
_1-b_その他
  6
CONTINUOUS
 62
    4
 10
133.62247874362197
 20
96.827083533531692
 11
133.62247874362197
 21
116.07460822719655
  0
LINE
  8
_1-b_その他
  6
CONTINUOUS
 62
    4
 10
159.82247186243833
 20
96.827083533531692
 11
159.82247186243833
 21
116.07460822719651
  0
LINE
  8
_1-b_その他
  6
CONTINUOUS
 62
    4
 10
160.72248100592893
 20
96.827083533531692
 11
160.72248100592893
 21
116.07460822719651
  0
LINE
  8
_1-b_その他
  6
CONTINUOUS
 62
    4
 10
132.72248941888287
 20
96.827083533531692
 11
133.62247874362197
 21
96.827083533531692
  0
LINE
  8
_1-b_その他
  6
CONTINUOUS
 62
    4
 10
159.82247186243833
 20
96.827083533531692
 11
160.72248100592893
 21
96.827083533531692
  0
LINE
  8
_1-a_元図__躯体
  6
CONTINUOUS
 62
    7
 10
180.34593853677168
 20
126.0745931823398
 11
202.73817238307993
 21
132.0746139300953
  0
LINE
  8
_1-a_元図__躯体
  6
CONTINUOUS
 62
    7
 10
202.73817238307993
 20
132.0746139300953
 11
226.56039530303025
 21
132.0746139300953
  0
LINE
  8
_1-a_元図__躯体
  6
CONTINUOUS
 62
    7
 10
223.87552913886054
 20
132.0746139300953
 11
188.62799874229694
 21
96.827083533531692
  0
LINE
  8
_1-a_元図__躯体
  6
CONTINUOUS
 62
    7
 10
225.28974270123365
 20
132.0746139300953
 11
190.04221230467004
 21
96.827083533531692
  0
LINE
  8
_1-a_元図__躯体
  6
CONTINUOUS
 62
    7
 10
226.70395626360676
 20
132.0746139300953
 11
191.45642586704312
 21
96.827083533531692
  0
LINE
  8
_1-a_元図__躯体
  6
CONTINUOUS
 62
    7
 10
90.730085144171994
 20
132.0746139300953
 11
66.923115303030144
 21
132.0746139300953
  0
LINE
  8
_1-a_元図__躯体
  6
CONTINUOUS
 62
    7
 10
113.12243783357127
 20
126.0746139300953
 11
90.730085144171994
 21
132.0746139300953
  0
LINE
  8
_1-8_下地など
  6
CONTINUOUS
 62
   23
 10
202.73817238307993
 20
132.0746139300953
 11
226.56039530303025
 21
132.0746139300953
  0
LINE
  8
_1-8_下地など
  6
CONTINUOUS
 62
   23
 10
180.34593853677168
 20
126.0745931823398
 11
202.73817238307993
 21
132.0746139300953
  0
LINE
  8
_1-8_下地など
  6
CONTINUOUS
 62
   23
 10
90.730085144171994
 20
132.0746139300953
 11
66.923115303030144
 21
132.0746139300953
  0
LINE
  8
_1-8_下地など
  6
CONTINUOUS
 62
   23
 10
113.12243783357127
 20
126.0746139300953
 11
90.730085144171994
 21
132.0746139300953
  0
LINE
  8
_1-8_下地など
  6
CONTINUOUS
 62
   23
 10
90.743250366760051
 20
132.17461393009529
 11
66.923115303030144
 21
132.17461393009529
  0
LINE
  8
_1-8_下地など
  6
CONTINUOUS
 62
   23
 10
113.14831968648606
 20
126.17120652654916
 11
90.743250366760051
 21
132.17461393009529
  0
LINE
  8
_1-8_下地など
  6
CONTINUOUS
 62
   23
 10
180.3200564721914
 20
126.17118572207792
 11
202.72500704902666
 21
132.17461393009529
  0
LINE
  8
_1-8_下地など
  6
CONTINUOUS
 62
   23
 10
202.72500704902666
 20
132.17461393009529
 11
226.56039530303025
 21
132.17461393009529
  0
LINE
  8
_1-8_下地など
  6
CONTINUOUS
 62
   23
 10
202.72361317329438
 20
132.07071277573147
 11
202.82751432765809
 21
132.17461393009518
  0
LINE
  8
_1-8_下地など
  6
CONTINUOUS
 62
   23
 10
202.53042753931965
 20
132.01894849799334
 11
202.67184930147874
 21
132.16037026015243
  0
LINE
  8
_1-8_下地など
  6
CONTINUOUS
 62
   23
 10
202.33724190534042
 20
131.96718422025253
 11
202.47866366750043
 21
132.10860598241251
  0
LINE
  8
_1-8_下地など
  6
CONTINUOUS
 62
   23
 10
202.1440562713648
 20
131.91541994251349
 11
202.2854780335239
 21
132.05684170467259
  0
LINE
  8
_1-8_下地など
  6
CONTINUOUS
 62
   23
 10
201.95087063738919
 20
131.86365566477451
 11
202.09229239954828
 21
132.00507742693361
  0
LINE
  8
_1-8_下地など
  6
CONTINUOUS
 62
   23
 10
201.75768500340996
 20
131.81189138703371
 11
201.89910676556997
 21
131.95331314919372
  0
LINE
  8
_1-8_下地など
  6
CONTINUOUS
 62
   23
 10
201.56449936943517
 20
131.76012710929552
 11
201.70592113159347
 21
131.90154887145383
  0
LINE
  8
_1-8_下地など
  6
CONTINUOUS
 62
   23
 10
201.37131373545594
 20
131.70836283155472
 11
201.51273549761601
 21
131.84978459371479
  0
LINE
  8
_1-8_下地など
  6
CONTINUOUS
 62
   23
 10
201.1781281014795
 20
131.65659855381489
 11
201.31954986363951
 21
131.7980203159749
  0
LINE
  8
_1-8_下地など
  6
CONTINUOUS
 62
   23
 10
200.98494246750465
 20
131.60483427607664
 11
201.12636422966392
 21
131.74625603823588
  0
LINE
  8
_1-8_下地など
  6
CONTINUOUS
 62
   23
 10
200.79175683352554
 20
131.55306999833596
 11
200.93317859568558
 21
131.69449176049596
  0
LINE
  8
_1-8_下地など
  6
CONTINUOUS
 62
   23
 10
200.59857119954984
 20
131.50130572059686
 11
200.73999296170905
 21
131.64272748275607
  0
LINE
  8
_1-8_下地など
  6
CONTINUOUS
 62
   23
 10
200.40538556557152
 20
131.44954144285694
 11
200.54680732773153
 21
131.59096320501698
  0
LINE
  8
_1-8_下地など
  6
CONTINUOUS
 62
   23
 10
200.21219993159508
 20
131.39777716511713
 11
200.35362169375512
 21
131.53919892727714
  0
LINE
  8
_1-8_下地など
  6
CONTINUOUS
 62
   23
 10
200.01901429762017
 20
131.34601288737883
 11
200.1604360597795
 21
131.48743464953816
  0
LINE
  8
_1-8_下地など
  6
CONTINUOUS
 62
   23
 10
199.82582866364115
 20
131.2942486096382
 11
199.96725042580118
 21
131.43567037179827
  0
LINE
  8
_1-8_下地など
  6
CONTINUOUS
 62
   23
 10
199.63264302966542
 20
131.24248433189908
 11
199.77406479182466
 21
131.38390609405832
  0
LINE
  8
_1-8_下地など
  6
CONTINUOUS
 62
   23
 10
199.43945739568844
 20
131.19072005415961
 11
199.58087915784768
 21
131.33214181631888
  0
LINE
  8
_1-8_下地など
  6
CONTINUOUS
 62
   23
 10
199.24627176171066
 20
131.13895577641938
 11
199.38769352387072
 21
131.28037753857944
  0
LINE
  8
_1-8_下地など
  6
CONTINUOUS
 62
   23
 10
199.0530861277357
 20
131.08719149868099
 11
199.19450788989511
 21
131.22861326084043
  0
LINE
  8
_1-8_下地など
  6
CONTINUOUS
 62
   23
 10
198.85990049375658
 20
131.03542722094031
 11
199.00132225591676
 21
131.17684898310051
  0
LINE
  8
_1-8_下地など
  6
CONTINUOUS
 62
   23
 10
198.66671485978097
 20
130.9836629432013
 11
198.80813662194026
 21
131.12508470536062
  0
LINE
  8
_1-8_下地など
  6
CONTINUOUS
 62
   23
 10
198.47352922580535
 20
130.93189866546228
 11
198.61495098796465
 21
131.07332042762161
  0
LINE
  8
_1-8_下地など
  6
CONTINUOUS
 62
   23
 10
198.28034359182624
 20
130.88013438772163
 11
198.4217653539863
 21
131.02155614988169
  0
LINE
  8
_1-8_下地など
  6
CONTINUOUS
 62
   23
 10
198.08715795785048
 20
130.82837010998244
 11
198.2285797200098
 21
130.9697918721418
  0
LINE
  8
_1-8_下地など
  6
CONTINUOUS
 62
   23
 10
197.89397232387211
 20
130.77660583224252
 11
198.03539408603237
 21
130.91802759440279
  0
LINE
  8
_1-8_下地など
  6
CONTINUOUS
 62
   23
 10
197.70078668989578
 20
130.7248415545028
 11
197.84220845205587
 21
130.86626331666287
  0
LINE
  8
_1-8_下地など
  6
CONTINUOUS
 62
   23
 10
197.50760105592067
 20
130.6730772767643
 11
197.64902281808025
 21
130.81449903892388
  0
LINE
  8
_1-8_下地など
  6
CONTINUOUS
 62
   23
 10
197.31441542194185
 20
130.6213129990239
 11
197.45583718410194
 21
130.76273476118396
  0
LINE
  8
_1-8_下地など
  6
CONTINUOUS
 62
   23
 10
197.121229787966
 20
130.56954872128466
 11
197.26265155012541
 21
130.71097048344407
  0
LINE
  8
_1-8_下地など
  6
CONTINUOUS
 62
   23
 10
196.92804415398766
 20
130.51778444354474
 11
197.06946591614775
 21
130.65920620570483
  0
LINE
  8
_1-8_下地など
  6
CONTINUOUS
 62
   23
 10
196.73485852001139
 20
130.46602016580505
 11
196.87628028217148
 21
130.60744192796517
  0
LINE
  8
_1-8_下地など
  6
CONTINUOUS
 62
   23
 10
196.54167288603617
 20
130.41425588806646
 11
196.68309464819586
 21
130.55567765022616
  0
LINE
  8
_1-8_下地など
  6
CONTINUOUS
 62
   23
 10
196.34848725205745
 20
130.36249161032615
 11
196.48990901421752
 21
130.50391337248624
  0
LINE
  8
_1-8_下地など
  6
CONTINUOUS
 62
   23
 10
196.15530161808155
 20
130.31072733258688
 11
196.29672338024102
 21
130.45214909474635
  0
LINE
  8
_1-8_下地など
  6
CONTINUOUS
 62
   23
 10
195.96211598410594
 20
130.25896305484787
 11
196.10353774626543
 21
130.40038481700734
  0
LINE
  8
_1-8_下地など
  6
CONTINUOUS
 62
   23
 10
195.76893035012696
 20
130.20719877710732
 11
195.91035211228709
 21
130.34862053926742
  0
LINE
  8
_1-8_下地など
  6
CONTINUOUS
 62
   23
 10
195.57574471615169
 20
130.15543449936865
 11
195.71716647831084
 21
130.29685626152781
  0
LINE
  8
_1-8_下地など
  6
CONTINUOUS
 62
   23
 10
195.38255908217272
 20
130.10367022162811
 11
195.52398084433312
 21
130.24509198378851
  0
LINE
  8
_1-8_下地など
  6
CONTINUOUS
 62
   23
 10
195.18937344819651
 20
130.0519059438885
 11
195.33079521035663
 21
130.19332770604862
  0
LINE
  8
_1-8_下地など
  6
CONTINUOUS
 62
   23
 10
194.99618781422117
 20
130.00014166614977
 11
195.13760957638101
 21
130.14156342830961
  0
LINE
  8
_1-8_下地など
  6
CONTINUOUS
 62
   23
 10
194.80300218024254
 20
129.94837738840957
 11
194.94442394240269
 21
130.08979915056969
  0
LINE
  8
_1-8_下地など
  6
CONTINUOUS
 62
   23
 10
194.60981654626661
 20
129.89661311067024
 11
194.75123830842617
 21
130.0380348728298
  0
LINE
  8
_1-8_下地など
  6
CONTINUOUS
 62
   23
 10
194.41663091228827
 20
129.84484883293032
 11
194.55805267444842
 21
129.98627059509045
  0
LINE
  8
_1-8_下地など
  6
CONTINUOUS
 62
   23
 10
194.22344527831208
 20
129.79308455519075
 11
194.36486704047223
 21
129.93450631735089
  0
LINE
  8
_1-8_下地など
  6
CONTINUOUS
 62
   23
 10
194.0302596443367
 20
129.74132027745196
 11
194.17168140649662
 21
129.88274203961188
  0
LINE
  8
_1-8_下地など
  6
CONTINUOUS
 62
   23
 10
193.83707401035815
 20
129.68955599971184
 11
193.97849577251827
 21
129.83097776187196
  0
LINE
  8
_1-8_下地など
  6
CONTINUOUS
 62
   23
 10
193.64388837638217
 20
129.63779172197246
 11
193.78531013854177
 21
129.77921348413207
  0
LINE
  8
_1-8_下地など
  6
CONTINUOUS
 62
   23
 10
193.45070274240382
 20
129.58602744423254
 11
193.59212450456397
 21
129.72744920639269
  0
LINE
  8
_1-8_下地など
  6
CONTINUOUS
 62
   23
 10
193.25751710842769
 20
129.53426316649299
 11
193.39893887058781
 21
129.67568492865314
  0
LINE
  8
_1-8_下地など
  6
CONTINUOUS
 62
   23
 10
193.06433147445219
 20
129.48249888875412
 11
193.20575323661222
 21
129.62392065091416
  0
LINE
  8
_1-8_下地など
  6
CONTINUOUS
 62
   23
 10
192.87114584047333
 20
129.43073461101369
 11
193.01256760263391
 21
129.57215637317424
  0
LINE
  8
_1-8_下地など
  6
CONTINUOUS
 62
   23
 10
192.67796020649772
 20
129.37897033327468
 11
192.81938196865738
 21
129.52039209543435
  0
LINE
  8
_1-8_下地など
  6
CONTINUOUS
 62
   23
 10
192.4847745725221
 20
129.32720605553567
 11
192.62619633468177
 21
129.46862781769534
  0
LINE
  8
_1-8_下地など
  6
CONTINUOUS
 62
   23
 10
192.29158893854327
 20
129.27544177779527
 11
192.43301070070345
 21
129.41686353995544
  0
LINE
  8
_1-8_下地など
  6
CONTINUOUS
 62
   23
 10
192.09840330456723
 20
129.22367750005583
 11
192.23982506672692
 21
129.36509926221552
  0
LINE
  8
_1-8_下地など
  6
CONTINUOUS
 62
   23
 10
191.90521767058888
 20
129.17191322231591
 11
192.04663943274949
 21
129.31333498447651
  0
LINE
  8
_1-8_下地など
  6
CONTINUOUS
 62
   23
 10
191.71203203661281
 20
129.12014894457644
 11
191.85345379877299
 21
129.26157070673662
  0
LINE
  8
_1-8_下地など
  6
CONTINUOUS
 62
   23
 10
191.51884640263719
 20
129.06838466683743
 11
191.6602681647974
 21
129.20980642899761
  0
LINE
  8
_1-8_下地など
  6
CONTINUOUS
 62
   23
 10
191.32566076865885
 20
129.01662038909751
 11
191.46708253081903
 21
129.15804215125769
  0
LINE
  8
_1-8_下地など
  6
CONTINUOUS
 62
   23
 10
191.13247513468278
 20
128.96485611135805
 11
191.27389689684253
 21
129.1062778735178
  0
LINE
  8
_1-8_下地など
  6
CONTINUOUS
 62
   23
 10
190.93928950070443
 20
128.91309183361813
 11
191.08071126286464
 21
129.0545135957783
  0
LINE
  8
_1-8_下地など
  6
CONTINUOUS
 62
   23
 10
190.74610386672839
 20
128.86132755587869
 11
190.8875256288886
 21
129.00274931803889
  0
LINE
  8
_1-8_下地など
  6
CONTINUOUS
 62
   23
 10
190.55291823275269
 20
128.80956327813959
 11
190.69433999491298
 21
128.95098504029988
  0
LINE
  8
_1-8_下地など
  6
CONTINUOUS
 62
   23
 10
190.35973259877443
 20
128.75779900039976
 11
190.50115436093466
 21
128.89922076255999
  0
LINE
  8
_1-8_下地など
  6
CONTINUOUS
 62
   23
 10
190.16654696479833
 20
128.70603472266026
 11
190.30796872695814
 21
128.84745648482007
  0
LINE
  8
_1-8_下地など
  6
CONTINUOUS
 62
   23
 10
189.97336133082271
 20
128.65427044492122
 11
190.11478309298252
 21
128.79569220708106
  0
LINE
  8
_1-8_下地など
  6
CONTINUOUS
 62
   23
 10
189.78017569684397
 20
128.60250616718093
 11
189.9215974590042
 21
128.74392792934117
  0
LINE
  8
_1-8_下地など
  6
CONTINUOUS
 62
   23
 10
189.58699006286821
 20
128.55074188944178
 11
189.72841182502768
 21
128.69216365160125
  0
LINE
  8
_1-8_下地など
  6
CONTINUOUS
 62
   23
 10
189.3938044288895
 20
128.49897761170149
 11
189.53522619105024
 21
128.64039937386224
  0
LINE
  8
_1-8_下地など
  6
CONTINUOUS
 62
   23
 10
189.20061879491351
 20
128.44721333396211
 11
189.34204055707374
 21
128.58863509612235
  0
LINE
  8
_1-8_下地など
  6
CONTINUOUS
 62
   23
 10
189.00743316093769
 20
128.3954490562229
 11
189.14885492309813
 21
128.53687081838333
  0
LINE
  8
_1-8_下地など
  6
CONTINUOUS
 62
   23
 10
188.81424752695955
 20
128.34368477848318
 11
188.95566928911978
 21
128.48510654064341
  0
LINE
  8
_1-8_下地など
  6
CONTINUOUS
 62
   23
 10
188.62106189298339
 20
128.29192050074363
 11
188.76248365514328
 21
128.43334226290352
  0
LINE
  8
_1-8_下地など
  6
CONTINUOUS
 62
   23
 10
188.42787625900502
 20
128.24015622300368
 11
188.56929802116528
 21
128.38157798516394
  0
LINE
  8
_1-8_下地など
  6
CONTINUOUS
 62
   23
 10
188.23469062502909
 20
128.18839194526436
 11
188.37611238718932
 21
128.32981370742459
  0
LINE
  8
_1-8_下地など
  6
CONTINUOUS
 62
   23
 10
188.04150499105322
 20
128.13662766752509
 11
188.18292675321374
 21
128.27804942968561
  0
LINE
  8
_1-8_下地など
  6
CONTINUOUS
 62
   23
 10
187.84831935707516
 20
128.08486338978545
 11
187.98974111923542
 21
128.22628515194569
  0
LINE
  8
_1-8_下地など
  6
CONTINUOUS
 62
   23
 10
187.65513372309891
 20
128.03309911204582
 11
187.79655548525889
 21
128.1745208742058
  0
LINE
  8
_1-8_下地など
  6
CONTINUOUS
 62
   23
 10
187.46194808912333
 20
127.98133483430682
 11
187.60336985128328
 21
128.12275659646679
  0
LINE
  8
_1-8_下地など
  6
CONTINUOUS
 62
   23
 10
187.26876245514467
 20
127.92957055656662
 11
187.41018421730496
 21
128.07099231872689
  0
LINE
  8
_1-8_下地など
  6
CONTINUOUS
 62
   23
 10
187.07557682116871
 20
127.87780627882725
 11
187.21699858332934
 21
128.01922804098788
  0
LINE
  8
_1-8_下地など
  6
CONTINUOUS
 62
   23
 10
186.88239118719008
 20
127.82604200108705
 11
187.023812949351
 21
127.96746376324798
  0
LINE
  8
_1-8_下地など
  6
CONTINUOUS
 62
   23
 10
186.68920555321449
 20
127.77427772334804
 11
186.8306273153745
 21
127.91569948550807
  0
LINE
  8
_1-8_下地など
  6
CONTINUOUS
 62
   23
 10
186.49601991923885
 20
127.72251344560904
 11
186.63744168139891
 21
127.86393520776906
  0
LINE
  8
_1-8_下地など
  6
CONTINUOUS
 62
   23
 10
186.30283428526027
 20
127.67074916786888
 11
186.44425604742057
 21
127.81217093002915
  0
LINE
  8
_1-8_下地など
  6
CONTINUOUS
 62
   23
 10
186.10964865128398
 20
127.6189848901292
 11
186.25107041344404
 21
127.76040665228925
  0
LINE
  8
_1-8_下地など
  6
CONTINUOUS
 62
   23
 10
185.91646301730566
 20
127.56722061238926
 11
186.05788477946663
 21
127.70864237455025
  0
LINE
  8
_1-8_下地など
  6
CONTINUOUS
 62
   23
 10
185.72327738332982
 20
127.51545633465004
 11
185.86469914549011
 21
127.65687809681035
  0
LINE
  8
_1-8_下地など
  6
CONTINUOUS
 62
   23
 10
185.53009174935372
 20
127.46369205691055
 11
185.67151351151449
 21
127.60511381907133
  0
LINE
  8
_1-8_下地など
  6
CONTINUOUS
 62
   23
 10
185.33690611537585
 20
127.41192777917112
 11
185.47832787753617
 21
127.55334954133143
  0
LINE
  8
_1-8_下地など
  6
CONTINUOUS
 62
   23
 10
185.14372048139955
 20
127.3601635014314
 11
185.28514224355965
 21
127.50158526359152
  0
LINE
  8
_1-8_下地など
  6
CONTINUOUS
 62
   23
 10
184.95053484742118
 20
127.30839922369148
 11
185.0919566095815
 21
127.4498209858518
  0
LINE
  8
_1-8_下地など
  6
CONTINUOUS
 62
   23
 10
184.75734921344539
 20
127.2566349459523
 11
184.89877097560571
 21
127.39805670811261
  0
LINE
  8
_1-8_下地など
  6
CONTINUOUS
 62
   23
 10
184.56416357946921
 20
127.20487066821272
 11
184.7055853416301
 21
127.34629243037361
  0
LINE
  8
_1-8_下地など
  6
CONTINUOUS
 62
   23
 10
184.37097794549069
 20
127.15310639047263
 11
184.51239970765175
 21
127.29452815263369
  0
LINE
  8
_1-8_下地など
  6
CONTINUOUS
 62
   23
 10
184.17779231151508
 20
127.10134211273362
 11
184.31921407367525
 21
127.24276387489378
  0
LINE
  8
_1-8_下地など
  6
CONTINUOUS
 62
   23
 10
183.98460667753949
 20
127.04957783499462
 11
184.12602843969967
 21
127.19099959715479
  0
LINE
  8
_1-8_下地など
  6
CONTINUOUS
 62
   23
 10
183.79142104356097
 20
126.99781355725455
 11
183.93284280572129
 21
127.13923531941488
  0
LINE
  8
_1-8_下地など
  6
CONTINUOUS
 62
   23
 10
183.59823540958473
 20
126.94604927951491
 11
183.7396571717448
 21
127.08747104167497
  0
LINE
  8
_1-8_下地など
  6
CONTINUOUS
 62
   23
 10
183.40504977560624
 20
126.89428500177485
 11
183.54647153776739
 21
127.03570676393596
  0
LINE
  8
_1-8_下地など
  6
CONTINUOUS
 62
   23
 10
183.21186414163051
 20
126.84252072403572
 11
183.35328590379086
 21
126.98394248619607
  0
LINE
  8
_1-8_下地など
  6
CONTINUOUS
 62
   23
 10
183.01867850765422
 20
126.79075644629603
 11
183.16010026981525
 21
126.93217820845706
  0
LINE
  8
_1-8_下地など
  6
CONTINUOUS
 62
   23
 10
182.82549287367658
 20
126.73899216855681
 11
182.96691463583693
 21
126.88041393071715
  0
LINE
  8
_1-8_下地など
  6
CONTINUOUS
 62
   23
 10
182.63230723970014
 20
126.68722789081698
 11
182.7737290018604
 21
126.82864965297725
  0
LINE
  8
_1-8_下地など
  6
CONTINUOUS
 62
   23
 10
182.43912160572179
 20
126.63546361307706
 11
182.58054336788217
 21
126.77688537523741
  0
LINE
  8
_1-8_下地など
  6
CONTINUOUS
 62
   23
 10
182.24593597174609
 20
126.58369933533797
 11
182.38735773390647
 21
126.72512109749833
  0
LINE
  8
_1-8_下地など
  6
CONTINUOUS
 62
   23
 10
182.05275033776974
 20
126.5319350575982
 11
182.19417209993088
 21
126.67335681975933
  0
LINE
  8
_1-8_下地など
  6
CONTINUOUS
 62
   23
 10
181.85956470379216
 20
126.48017077985907
 11
182.00098646595251
 21
126.62159254201943
  0
LINE
  8
_1-8_下地など
  6
CONTINUOUS
 62
   23
 10
181.66637906981569
 20
126.4284065021192
 11
181.80780083197601
 21
126.56982826427952
  0
LINE
  8
_1-8_下地など
  6
CONTINUOUS
 62
   23
 10
181.47319343584007
 20
126.37664222438019
 11
181.61461519800039
 21
126.51806398654051
  0
LINE
  8
_1-8_下地など
  6
CONTINUOUS
 62
   23
 10
181.2800078018617
 20
126.32487794664023
 11
181.42142956402208
 21
126.46629970880061
  0
LINE
  8
_1-8_下地など
  6
CONTINUOUS
 62
   23
 10
181.08682216788523
 20
126.27311366890038
 11
181.22824393004646
 21
126.41453543106161
  0
LINE
  8
_1-8_下地など
  6
CONTINUOUS
 62
   23
 10
180.89363653390686
 20
126.22134939116043
 11
181.03505829606814
 21
126.3627711533217
  0
LINE
  8
_1-8_下地など
  6
CONTINUOUS
 62
   23
 10
180.70045089993124
 20
126.16958511342142
 11
180.84187266209162
 21
126.31100687558178
  0
LINE
  8
_1-8_下地など
  6
CONTINUOUS
 62
   23
 10
180.50726526595562
 20
126.11782083568241
 11
180.648687028116
 21
126.25924259784279
  0
LINE
  8
_1-8_下地など
  6
CONTINUOUS
 62
   23
 10
226.34488081928993
 20
132.07461393009561
 11
226.4448808192893
 21
132.17461393009498
  0
LINE
  8
_1-8_下地など
  6
CONTINUOUS
 62
   23
 10
226.20345946305201
 20
132.07461393009521
 11
226.30345946305187
 21
132.17461393009506
  0
LINE
  8
_1-8_下地など
  6
CONTINUOUS
 62
   23
 10
226.06203810681461
 20
132.07461393009532
 11
226.16203810681446
 21
132.17461393009518
  0
LINE
  8
_1-8_下地など
  6
CONTINUOUS
 62
   23
 10
225.92061675057818
 20
132.07461393009547
 11
226.02061675057752
 21
132.17461393009484
  0
LINE
  8
_1-8_下地など
  6
CONTINUOUS
 62
   23
 10
225.77919539433924
 20
132.07461393009498
 11
225.87919539433912
 21
132.17461393009486
  0
LINE
  8
_1-8_下地など
  6
CONTINUOUS
 62
   23
 10
225.63777403810334
 20
132.07461393009569
 11
225.73777403810271
 21
132.17461393009503
  0
LINE
  8
_1-8_下地など
  6
CONTINUOUS
 62
   23
 10
225.4963526818664
 20
132.07461393009532
 11
225.59635268186628
 21
132.17461393009521
  0
LINE
  8
_1-8_下地など
  6
CONTINUOUS
 62
   23
 10
225.35493132562797
 20
132.07461393009535
 11
225.45493132562785
 21
132.17461393009523
  0
LINE
  8
_1-8_下地など
  6
CONTINUOUS
 62
   23
 10
225.21350996939157
 20
132.07461393009555
 11
225.31350996939091
 21
132.17461393009489
  0
LINE
  8
_1-8_下地など
  6
CONTINUOUS
 62
   23
 10
225.07208861315266
 20
132.07461393009507
 11
225.17208861315254
 21
132.17461393009495
  0
LINE
  8
_1-8_下地など
  6
CONTINUOUS
 62
   23
 10
224.93066725691622
 20
132.07461393009524
 11
225.03066725691605
 21
132.17461393009506
  0
LINE
  8
_1-8_下地など
  6
CONTINUOUS
 62
   23
 10
224.78924590067979
 20
132.07461393009538
 11
224.88924590067967
 21
132.17461393009529
  0
LINE
  8
_1-8_下地など
  6
CONTINUOUS
 62
   23
 10
224.64782454444088
 20
132.07461393009493
 11
224.74782454444073
 21
132.17461393009478
  0
LINE
  8
_1-8_下地など
  6
CONTINUOUS
 62
   23
 10
224.50640318820496
 20
132.07461393009561
 11
224.60640318820433
 21
132.17461393009495
  0
LINE
  8
_1-8_下地など
  6
CONTINUOUS
 62
   23
 10
224.36498183196608
 20
132.07461393009513
 11
224.46498183196593
 21
132.17461393009501
  0
LINE
  8
_1-8_下地など
  6
CONTINUOUS
 62
   23
 10
224.22356047572964
 20
132.0746139300953
 11
224.32356047572944
 21
132.17461393009512
  0
LINE
  8
_1-8_下地など
  6
CONTINUOUS
 62
   23
 10
224.08213911949321
 20
132.0746139300955
 11
224.18213911949255
 21
132.17461393009484
  0
LINE
  8
_1-8_下地など
  6
CONTINUOUS
 62
   23
 10
223.94071776325427
 20
132.07461393009498
 11
224.04071776325415
 21
132.17461393009486
  0
LINE
  8
_1-8_下地など
  6
CONTINUOUS
 62
   23
 10
223.79929640701837
 20
132.07461393009569
 11
223.89929640701772
 21
132.17461393009503
  0
LINE
  8
_1-8_下地など
  6
CONTINUOUS
 62
   23
 10
223.65787505078143
 20
132.07461393009532
 11
223.75787505078131
 21
132.17461393009521
  0
LINE
  8
_1-8_下地など
  6
CONTINUOUS
 62
   23
 10
223.51645369454303
 20
132.07461393009535
 11
223.61645369454286
 21
132.17461393009518
  0
LINE
  8
_1-8_下地など
  6
CONTINUOUS
 62
   23
 10
223.3750323383066
 20
132.07461393009555
 11
223.47503233830594
 21
132.17461393009489
  0
LINE
  8
_1-8_下地など
  6
CONTINUOUS
 62
   23
 10
223.23361098206769
 20
132.07461393009504
 11
223.33361098206757
 21
132.17461393009492
  0
LINE
  8
_1-8_下地など
  6
CONTINUOUS
 62
   23
 10
223.09218962583125
 20
132.07461393009524
 11
223.19218962583105
 21
132.17461393009503
  0
LINE
  8
_1-8_下地など
  6
CONTINUOUS
 62
   23
 10
222.95076826959482
 20
132.07461393009541
 11
223.0507682695947
 21
132.17461393009529
  0
LINE
  8
_1-8_下地など
  6
CONTINUOUS
 62
   23
 10
222.80934691335591
 20
132.07461393009493
 11
222.90934691335579
 21
132.17461393009478
  0
LINE
  8
_1-8_下地など
  6
CONTINUOUS
 62
   23
 10
222.66792555711999
 20
132.07461393009561
 11
222.76792555711936
 21
132.17461393009495
  0
LINE
  8
_1-8_下地など
  6
CONTINUOUS
 62
   23
 10
222.52650420088108
 20
132.0746139300951
 11
222.62650420088096
 21
132.17461393009501
  0
LINE
  8
_1-8_下地など
  6
CONTINUOUS
 62
   23
 10
222.38508284464467
 20
132.0746139300953
 11
222.48508284464444
 21
132.17461393009509
  0
LINE
  8
_1-8_下地など
  6
CONTINUOUS
 62
   23
 10
222.24366148840824
 20
132.07461393009547
 11
222.34366148840812
 21
132.17461393009535
  0
LINE
  8
_1-8_下地など
  6
CONTINUOUS
 62
   23
 10
222.1022401321693
 20
132.07461393009498
 11
222.20224013216918
 21
132.17461393009486
  0
LINE
  8
_1-8_下地など
  6
CONTINUOUS
 62
   23
 10
221.9608187759334
 20
132.07461393009569
 11
222.06081877593277
 21
132.17461393009503
  0
LINE
  8
_1-8_下地など
  6
CONTINUOUS
 62
   23
 10
221.8193974196945
 20
132.07461393009521
 11
221.91939741969438
 21
132.17461393009506
  0
LINE
  8
_1-8_下地など
  6
CONTINUOUS
 62
   23
 10
221.67797606345806
 20
132.07461393009538
 11
221.77797606345783
 21
132.17461393009515
  0
LINE
  8
_1-8_下地など
  6
CONTINUOUS
 62
   23
 10
221.53655470722163
 20
132.07461393009555
 11
221.63655470722099
 21
132.17461393009489
  0
LINE
  8
_1-8_下地など
  6
CONTINUOUS
 62
   23
 10
221.39513335098272
 20
132.07461393009504
 11
221.4951333509826
 21
132.17461393009495
  0
LINE
  8
_1-8_下地など
  6
CONTINUOUS
 62
   23
 10
221.25371199474682
 20
132.07461393009575
 11
221.35371199474605
 21
132.17461393009501
  0
LINE
  8
_1-8_下地など
  6
CONTINUOUS
 62
   23
 10
221.11229063850985
 20
132.07461393009541
 11
221.21229063850973
 21
132.17461393009529
  0
LINE
  8
_1-8_下地など
  6
CONTINUOUS
 62
   23
 10
220.97086928227134
 20
132.07461393009532
 11
221.07086928227122
 21
132.17461393009518
  0
LINE
  8
_1-8_下地など
  6
CONTINUOUS
 62
   23
 10
220.82944792603504
 20
132.07461393009561
 11
220.92944792603438
 21
132.17461393009498
  0
LINE
  8
_1-8_下地など
  6
CONTINUOUS
 62
   23
 10
220.68802656979611
 20
132.07461393009513
 11
220.78802656979599
 21
132.17461393009501
  0
LINE
  8
_1-8_下地など
  6
CONTINUOUS
 62
   23
 10
220.54660521355967
 20
132.0746139300953
 11
220.64660521355944
 21
132.17461393009506
  0
LINE
  8
_1-8_下地など
  6
CONTINUOUS
 62
   23
 10
220.40518385732324
 20
132.07461393009547
 11
220.50518385732312
 21
132.17461393009535
  0
LINE
  8
_1-8_下地など
  6
CONTINUOUS
 62
   23
 10
220.26376250108433
 20
132.07461393009498
 11
220.36376250108424
 21
132.17461393009486
  0
LINE
  8
_1-8_下地など
  6
CONTINUOUS
 62
   23
 10
220.12234114484843
 20
132.07461393009567
 11
220.22234114484777
 21
132.17461393009503
  0
LINE
  8
_1-8_下地など
  6
CONTINUOUS
 62
   23
 10
219.98091978860953
 20
132.07461393009521
 11
220.08091978860941
 21
132.17461393009506
  0
LINE
  8
_1-8_下地など
  6
CONTINUOUS
 62
   23
 10
219.83949843237306
 20
132.07461393009535
 11
219.93949843237283
 21
132.17461393009512
  0
LINE
  8
_1-8_下地など
  6
CONTINUOUS
 62
   23
 10
219.69807707613666
 20
132.07461393009555
 11
219.798077076136
 21
132.17461393009489
  0
LINE
  8
_1-8_下地など
  6
CONTINUOUS
 62
   23
 10
219.55665571989772
 20
132.07461393009504
 11
219.65665571989763
 21
132.17461393009492
  0
LINE
  8
_1-8_下地など
  6
CONTINUOUS
 62
   23
 10
219.41523436366182
 20
132.07461393009575
 11
219.51523436366119
 21
132.17461393009512
  0
LINE
  8
_1-8_下地など
  6
CONTINUOUS
 62
   23
 10
219.27381300742292
 20
132.07461393009527
 11
219.3738130074228
 21
132.17461393009515
  0
LINE
  8
_1-8_下地など
  6
CONTINUOUS
 62
   23
 10
219.13239165118648
 20
132.07461393009544
 11
219.23239165118622
 21
132.17461393009515
  0
LINE
  8
_1-8_下地など
  6
CONTINUOUS
 62
   23
 10
218.99097029495005
 20
132.07461393009561
 11
219.09097029494941
 21
132.17461393009498
  0
LINE
  8
_1-8_下地など
  6
CONTINUOUS
 62
   23
 10
218.84954893871114
 20
132.07461393009513
 11
218.94954893871102
 21
132.17461393009501
  0
LINE
  8
_1-8_下地など
  6
CONTINUOUS
 62
   23
 10
218.7081275824747
 20
132.0746139300953
 11
218.80812758247441
 21
132.17461393009501
  0
LINE
  8
_1-8_下地など
  6
CONTINUOUS
 62
   23
 10
218.5667062262383
 20
132.07461393009547
 11
218.66670622623818
 21
132.17461393009535
  0
LINE
  8
_1-8_下地など
  6
CONTINUOUS
 62
   23
 10
218.42528486999936
 20
132.07461393009498
 11
218.52528486999924
 21
132.17461393009486
  0
LINE
  8
_1-8_下地など
  6
CONTINUOUS
 62
   23
 10
218.28386351376346
 20
132.07461393009569
 11
218.38386351376283
 21
132.17461393009503
  0
LINE
  8
_1-8_下地など
  6
CONTINUOUS
 62
   23
 10
218.14244215752453
 20
132.07461393009518
 11
218.24244215752444
 21
132.17461393009506
  0
LINE
  8
_1-8_下地など
  6
CONTINUOUS
 62
   23
 10
218.00102080128812
 20
132.07461393009535
 11
218.1010208012878
 21
132.17461393009506
  0
LINE
  8
_1-8_下地など
  6
CONTINUOUS
 62
   23
 10
217.85959944505169
 20
132.07461393009555
 11
217.95959944505157
 21
132.17461393009543
  0
LINE
  8
_1-8_下地など
  6
CONTINUOUS
 62
   23
 10
217.71817808881278
 20
132.07461393009504
 11
217.81817808881266
 21
132.17461393009495
  0
LINE
  8
_1-8_下地など
  6
CONTINUOUS
 62
   23
 10
217.57675673257685
 20
132.07461393009575
 11
217.67675673257622
 21
132.17461393009512
  0
LINE
  8
_1-8_下地など
  6
CONTINUOUS
 62
   23
 10
217.43533537633795
 20
132.07461393009527
 11
217.53533537633783
 21
132.17461393009515
  0
LINE
  8
_1-8_下地など
  6
CONTINUOUS
 62
   23
 10
217.29391402010151
 20
132.07461393009544
 11
217.39391402010119
 21
132.17461393009512
  0
LINE
  8
_1-8_下地など
  6
CONTINUOUS
 62
   23
 10
217.15249266386508
 20
132.07461393009561
 11
217.25249266386444
 21
132.17461393009498
  0
LINE
  8
_1-8_下地など
  6
CONTINUOUS
 62
   23
 10
217.01107130762617
 20
132.0746139300951
 11
217.11107130762605
 21
132.17461393009501
  0
LINE
  8
_1-8_下地など
  6
CONTINUOUS
 62
   23
 10
216.86964995139027
 20
132.07461393009584
 11
216.96964995138941
 21
132.17461393009498
  0
LINE
  8
_1-8_下地など
  6
CONTINUOUS
 62
   23
 10
216.72822859515333
 20
132.07461393009547
 11
216.82822859515321
 21
132.17461393009535
  0
LINE
  8
_1-8_下地など
  6
CONTINUOUS
 62
   23
 10
216.5868072389147
 20
132.07461393009527
 11
216.68680723891458
 21
132.17461393009518
  0
LINE
  8
_1-8_下地など
  6
CONTINUOUS
 62
   23
 10
216.44538588267847
 20
132.07461393009567
 11
216.54538588267786
 21
132.17461393009506
  0
LINE
  8
_1-8_下地など
  6
CONTINUOUS
 62
   23
 10
216.30396452643959
 20
132.07461393009518
 11
216.40396452643947
 21
132.17461393009506
  0
LINE
  8
_1-8_下地など
  6
CONTINUOUS
 62
   23
 10
216.16254317020315
 20
132.07461393009538
 11
216.2625431702028
 21
132.17461393009503
  0
LINE
  8
_1-8_下地など
  6
CONTINUOUS
 62
   23
 10
216.02112181396672
 20
132.07461393009555
 11
216.1211218139666
 21
132.17461393009543
  0
LINE
  8
_1-8_下地など
  6
CONTINUOUS
 62
   23
 10
215.87970045772778
 20
132.07461393009504
 11
215.97970045772769
 21
132.17461393009495
  0
LINE
  8
_1-8_下地など
  6
CONTINUOUS
 62
   23
 10
215.73827910149191
 20
132.07461393009575
 11
215.83827910149125
 21
132.17461393009512
  0
LINE
  8
_1-8_下地など
  6
CONTINUOUS
 62
   23
 10
215.59685774525298
 20
132.07461393009527
 11
215.69685774525288
 21
132.17461393009515
  0
LINE
  8
_1-8_下地など
  6
CONTINUOUS
 62
   23
 10
215.45543638901654
 20
132.07461393009544
 11
215.55543638901619
 21
132.17461393009509
  0
LINE
  8
_1-8_下地など
  6
CONTINUOUS
 62
   23
 10
215.31401503278011
 20
132.07461393009561
 11
215.4140150327795
 21
132.17461393009498
  0
LINE
  8
_1-8_下地など
  6
CONTINUOUS
 62
   23
 10
215.1725936765412
 20
132.07461393009513
 11
215.27259367654108
 21
132.17461393009501
  0
LINE
  8
_1-8_下地など
  6
CONTINUOUS
 62
   23
 10
215.0311723203053
 20
132.07461393009581
 11
215.13117232030464
 21
132.17461393009518
  0
LINE
  8
_1-8_下地など
  6
CONTINUOUS
 62
   23
 10
214.88975096406637
 20
132.07461393009532
 11
214.98975096406627
 21
132.17461393009521
  0
LINE
  8
_1-8_下地など
  6
CONTINUOUS
 62
   23
 10
214.74832960782993
 20
132.0746139300955
 11
214.84832960782958
 21
132.17461393009515
  0
LINE
  8
_1-8_下地など
  6
CONTINUOUS
 62
   23
 10
214.60690825159352
 20
132.07461393009567
 11
214.70690825159289
 21
132.17461393009506
  0
LINE
  8
_1-8_下地など
  6
CONTINUOUS
 62
   23
 10
214.46548689535462
 20
132.07461393009518
 11
214.5654868953545
 21
132.17461393009506
  0
LINE
  8
_1-8_下地など
  6
CONTINUOUS
 62
   23
 10
214.32406553911818
 20
132.07461393009538
 11
214.42406553911781
 21
132.17461393009501
  0
LINE
  8
_1-8_下地など
  6
CONTINUOUS
 62
   23
 10
214.18264418288172
 20
132.07461393009552
 11
214.28264418288163
 21
132.17461393009543
  0
LINE
  8
_1-8_下地など
  6
CONTINUOUS
 62
   23
 10
214.04122282664281
 20
132.07461393009504
 11
214.14122282664272
 21
132.17461393009495
  0
LINE
  8
_1-8_下地など
  6
CONTINUOUS
 62
   23
 10
213.89980147040691
 20
132.07461393009572
 11
213.99980147040628
 21
132.17461393009512
  0
LINE
  8
_1-8_下地など
  6
CONTINUOUS
 62
   23
 10
213.75838011416801
 20
132.07461393009524
 11
213.85838011416791
 21
132.17461393009518
  0
LINE
  8
_1-8_下地など
  6
CONTINUOUS
 62
   23
 10
213.61695875793157
 20
132.07461393009544
 11
213.7169587579312
 21
132.17461393009503
  0
LINE
  8
_1-8_下地など
  6
CONTINUOUS
 62
   23
 10
213.47553740169514
 20
132.07461393009561
 11
213.57553740169453
 21
132.17461393009498
  0
LINE
  8
_1-8_下地など
  6
CONTINUOUS
 62
   23
 10
213.33411604545623
 20
132.0746139300951
 11
213.43411604545611
 21
132.17461393009501
  0
LINE
  8
_1-8_下地など
  6
CONTINUOUS
 62
   23
 10
213.19269468922033
 20
132.07461393009584
 11
213.29269468921967
 21
132.17461393009518
  0
LINE
  8
_1-8_下地など
  6
CONTINUOUS
 62
   23
 10
213.0512733329814
 20
132.07461393009532
 11
213.1512733329813
 21
132.17461393009523
  0
LINE
  8
_1-8_下地など
  6
CONTINUOUS
 62
   23
 10
212.90985197674496
 20
132.0746139300955
 11
213.00985197674456
 21
132.17461393009509
  0
LINE
  8
_1-8_下地など
  6
CONTINUOUS
 62
   23
 10
212.76843062050852
 20
132.07461393009567
 11
212.86843062050792
 21
132.17461393009506
  0
LINE
  8
_1-8_下地など
  6
CONTINUOUS
 62
   23
 10
212.62700926426962
 20
132.07461393009518
 11
212.72700926426953
 21
132.17461393009509
  0
LINE
  8
_1-8_下地など
  6
CONTINUOUS
 62
   23
 10
212.48558790803372
 20
132.07461393009589
 11
212.58558790803278
 21
132.17461393009495
  0
LINE
  8
_1-8_下地など
  6
CONTINUOUS
 62
   23
 10
212.34416655179481
 20
132.07461393009538
 11
212.44416655179469
 21
132.17461393009529
  0
LINE
  8
_1-8_下地など
  6
CONTINUOUS
 62
   23
 10
212.20274519555807
 20
132.07461393009524
 11
212.30274519555797
 21
132.17461393009515
  0
LINE
  8
_1-8_下地など
  6
CONTINUOUS
 62
   23
 10
212.06132383932194
 20
132.07461393009575
 11
212.16132383932131
 21
132.17461393009512
  0
LINE
  8
_1-8_下地など
  6
CONTINUOUS
 62
   23
 10
211.91990248308304
 20
132.07461393009527
 11
212.01990248308294
 21
132.17461393009515
  0
LINE
  8
_1-8_下地など
  6
CONTINUOUS
 62
   23
 10
211.7784811268466
 20
132.07461393009544
 11
211.87848112684617
 21
132.17461393009501
  0
LINE
  8
_1-8_下地など
  6
CONTINUOUS
 62
   23
 10
211.63705977061016
 20
132.07461393009561
 11
211.73705977061007
 21
132.17461393009552
  0
LINE
  8
_1-8_下地など
  6
CONTINUOUS
 62
   23
 10
211.49563841437123
 20
132.0746139300951
 11
211.59563841437117
 21
132.17461393009501
  0
LINE
  8
_1-8_下地など
  6
CONTINUOUS
 62
   23
 10
211.35421705813536
 20
132.07461393009581
 11
211.4542170581347
 21
132.17461393009518
  0
LINE
  8
_1-8_下地など
  6
CONTINUOUS
 62
   23
 10
211.21279570189643
 20
132.07461393009532
 11
211.31279570189633
 21
132.17461393009523
  0
LINE
  8
_1-8_下地など
  6
CONTINUOUS
 62
   23
 10
211.07137434565999
 20
132.0746139300955
 11
211.17137434565956
 21
132.17461393009506
  0
LINE
  8
_1-8_下地など
  6
CONTINUOUS
 62
   23
 10
210.92995298942355
 20
132.07461393009567
 11
211.02995298942295
 21
132.17461393009506
  0
LINE
  8
_1-8_下地など
  6
CONTINUOUS
 62
   23
 10
210.78853163318465
 20
132.07461393009518
 11
210.88853163318456
 21
132.17461393009509
  0
LINE
  8
_1-8_下地など
  6
CONTINUOUS
 62
   23
 10
210.64711027694875
 20
132.07461393009589
 11
210.74711027694812
 21
132.17461393009526
  0
LINE
  8
_1-8_下地など
  6
CONTINUOUS
 62
   23
 10
210.50568892070982
 20
132.07461393009538
 11
210.60568892070972
 21
132.17461393009529
  0
LINE
  8
_1-8_下地など
  6
CONTINUOUS
 62
   23
 10
210.36426756447341
 20
132.07461393009555
 11
210.46426756447295
 21
132.17461393009512
  0
LINE
  8
_1-8_下地など
  6
CONTINUOUS
 62
   23
 10
210.22284620823697
 20
132.07461393009575
 11
210.32284620823634
 21
132.17461393009512
  0
LINE
  8
_1-8_下地など
  6
CONTINUOUS
 62
   23
 10
210.08142485199807
 20
132.07461393009524
 11
210.18142485199795
 21
132.17461393009515
  0
LINE
  8
_1-8_下地など
  6
CONTINUOUS
 62
   23
 10
209.94000349576163
 20
132.07461393009544
 11
210.04000349576117
 21
132.17461393009495
  0
LINE
  8
_1-8_下地など
  6
CONTINUOUS
 62
   23
 10
209.79858213952323
 20
132.07461393009547
 11
209.89858213952314
 21
132.17461393009538
  0
LINE
  8
_1-8_下地など
  6
CONTINUOUS
 62
   23
 10
209.65716078328629
 20
132.0746139300951
 11
209.7571607832862
 21
132.17461393009501
  0
LINE
  8
_1-8_下地など
  6
CONTINUOUS
 62
   23
 10
209.51573942705036
 20
132.07461393009581
 11
209.61573942704976
 21
132.17461393009518
  0
LINE
  8
_1-8_下地など
  6
CONTINUOUS
 62
   23
 10
209.37431807081146
 20
132.07461393009532
 11
209.47431807081136
 21
132.17461393009523
  0
LINE
  8
_1-8_下地など
  6
CONTINUOUS
 62
   23
 10
209.23289671457502
 20
132.0746139300955
 11
209.33289671457456
 21
132.17461393009503
  0
LINE
  8
_1-8_下地など
  6
CONTINUOUS
 62
   23
 10
209.09147535833858
 20
132.07461393009567
 11
209.19147535833798
 21
132.17461393009506
  0
LINE
  8
_1-8_下地など
  6
CONTINUOUS
 62
   23
 10
208.95005400209968
 20
132.07461393009518
 11
209.05005400209959
 21
132.17461393009509
  0
LINE
  8
_1-8_下地など
  6
CONTINUOUS
 62
   23
 10
208.80863264586378
 20
132.07461393009589
 11
208.90863264586315
 21
132.17461393009526
  0
LINE
  8
_1-8_下地など
  6
CONTINUOUS
 62
   23
 10
208.66721128962484
 20
132.07461393009538
 11
208.76721128962475
 21
132.17461393009529
  0
LINE
  8
_1-8_下地など
  6
CONTINUOUS
 62
   23
 10
208.52578993338841
 20
132.07461393009555
 11
208.62578993338792
 21
132.17461393009506
  0
LINE
  8
_1-8_下地など
  6
CONTINUOUS
 62
   23
 10
208.384368577152
 20
132.07461393009572
 11
208.48436857715137
 21
132.17461393009512
  0
LINE
  8
_1-8_下地など
  6
CONTINUOUS
 62
   23
 10
208.24294722091307
 20
132.07461393009524
 11
208.342947220913
 21
132.17461393009515
  0
LINE
  8
_1-8_下地など
  6
CONTINUOUS
 62
   23
 10
208.10152586467717
 20
132.07461393009595
 11
208.20152586467617
 21
132.17461393009492
  0
LINE
  8
_1-8_下地など
  6
CONTINUOUS
 62
   23
 10
207.96010450843826
 20
132.07461393009547
 11
208.06010450843817
 21
132.17461393009538
  0
LINE
  8
_1-8_下地など
  6
CONTINUOUS
 62
   23
 10
207.81868315220129
 20
132.0746139300951
 11
207.91868315220123
 21
132.17461393009501
  0
LINE
  8
_1-8_下地など
  6
CONTINUOUS
 62
   23
 10
207.67726179596539
 20
132.07461393009581
 11
207.77726179596479
 21
132.17461393009521
  0
LINE
  8
_1-8_下地など
  6
CONTINUOUS
 62
   23
 10
207.53584043972648
 20
132.07461393009532
 11
207.63584043972639
 21
132.17461393009523
  0
LINE
  8
_1-8_下地など
  6
CONTINUOUS
 62
   23
 10
207.39441908349005
 20
132.0746139300955
 11
207.49441908348956
 21
132.17461393009498
  0
LINE
  8
_1-8_下地など
  6
CONTINUOUS
 62
   23
 10
207.25299772725361
 20
132.07461393009567
 11
207.35299772725355
 21
132.17461393009557
  0
LINE
  8
_1-8_下地など
  6
CONTINUOUS
 62
   23
 10
207.11157637101471
 20
132.07461393009518
 11
207.21157637101462
 21
132.17461393009509
  0
LINE
  8
_1-8_下地など
  6
CONTINUOUS
 62
   23
 10
206.97015501477881
 20
132.07461393009589
 11
207.07015501477821
 21
132.17461393009526
  0
LINE
  8
_1-8_下地など
  6
CONTINUOUS
 62
   23
 10
206.82873365853987
 20
132.07461393009538
 11
206.92873365853978
 21
132.17461393009529
  0
LINE
  8
_1-8_下地など
  6
CONTINUOUS
 62
   23
 10
206.68731230230344
 20
132.07461393009555
 11
206.78731230230295
 21
132.17461393009503
  0
LINE
  8
_1-8_下地など
  6
CONTINUOUS
 62
   23
 10
206.54589094606703
 20
132.07461393009572
 11
206.6458909460664
 21
132.17461393009512
  0
LINE
  8
_1-8_下地など
  6
CONTINUOUS
 62
   23
 10
206.40446958982812
 20
132.07461393009524
 11
206.50446958982803
 21
132.17461393009518
  0
LINE
  8
_1-8_下地など
  6
CONTINUOUS
 62
   23
 10
206.2630482335922
 20
132.07461393009595
 11
206.3630482335916
 21
132.17461393009535
  0
LINE
  8
_1-8_下地など
  6
CONTINUOUS
 62
   23
 10
206.12162687735329
 20
132.07461393009544
 11
206.2216268773532
 21
132.17461393009538
  0
LINE
  8
_1-8_下地など
  6
CONTINUOUS
 62
   23
 10
205.9802055211164
 20
132.07461393009518
 11
206.08020552111631
 21
132.17461393009509
  0
LINE
  8
_1-8_下地など
  6
CONTINUOUS
 62
   23
 10
205.83878416488042
 20
132.07461393009581
 11
205.93878416487982
 21
132.17461393009521
  0
LINE
  8
_1-8_下地など
  6
CONTINUOUS
 62
   23
 10
205.69736280864151
 20
132.07461393009532
 11
205.79736280864142
 21
132.17461393009523
  0
LINE
  8
_1-8_下地など
  6
CONTINUOUS
 62
   23
 10
205.55594145240508
 20
132.0746139300955
 11
205.65594145240453
 21
132.17461393009495
  0
LINE
  8
_1-8_下地など
  6
CONTINUOUS
 62
   23
 10
205.41452009616668
 20
132.07461393009552
 11
205.51452009616662
 21
132.17461393009543
  0
LINE
  8
_1-8_下地など
  6
CONTINUOUS
 62
   23
 10
205.27309873992974
 20
132.07461393009518
 11
205.37309873992965
 21
132.17461393009509
  0
LINE
  8
_1-8_下地など
  6
CONTINUOUS
 62
   23
 10
205.13167738369384
 20
132.07461393009586
 11
205.23167738369324
 21
132.17461393009526
  0
LINE
  8
_1-8_下地など
  6
CONTINUOUS
 62
   23
 10
204.9902560274549
 20
132.07461393009538
 11
205.09025602745484
 21
132.17461393009529
  0
LINE
  8
_1-8_下地など
  6
CONTINUOUS
 62
   23
 10
204.84883467121847
 20
132.07461393009555
 11
204.94883467121792
 21
132.17461393009501
  0
LINE
  8
_1-8_下地など
  6
CONTINUOUS
 62
   23
 10
204.70741331498206
 20
132.07461393009572
 11
204.80741331498143
 21
132.17461393009512
  0
LINE
  8
_1-8_下地など
  6
CONTINUOUS
 62
   23
 10
204.56599195874315
 20
132.07461393009524
 11
204.66599195874306
 21
132.17461393009518
  0
LINE
  8
_1-8_下地など
  6
CONTINUOUS
 62
   23
 10
204.42457060250723
 20
132.07461393009595
 11
204.52457060250663
 21
132.17461393009535
  0
LINE
  8
_1-8_下地など
  6
CONTINUOUS
 62
   23
 10
204.28314924626829
 20
132.07461393009544
 11
204.38314924626823
 21
132.17461393009538
  0
LINE
  8
_1-8_下地など
  6
CONTINUOUS
 62
   23
 10
204.14172789003189
 20
132.07461393009564
 11
204.24172789003131
 21
132.17461393009506
  0
LINE
  8
_1-8_下地など
  6
CONTINUOUS
 62
   23
 10
204.00030653379545
 20
132.07461393009581
 11
204.10030653379485
 21
132.17461393009521
  0
LINE
  8
_1-8_下地など
  6
CONTINUOUS
 62
   23
 10
203.85888517755654
 20
132.07461393009532
 11
203.95888517755645
 21
132.17461393009523
  0
LINE
  8
_1-8_下地など
  6
CONTINUOUS
 62
   23
 10
203.71746382132062
 20
132.07461393009601
 11
203.81746382131954
 21
132.17461393009489
  0
LINE
  8
_1-8_下地など
  6
CONTINUOUS
 62
   23
 10
203.57604246508171
 20
132.07461393009552
 11
203.67604246508165
 21
132.17461393009543
  0
LINE
  8
_1-8_下地など
  6
CONTINUOUS
 62
   23
 10
203.43462110884477
 20
132.07461393009515
 11
203.53462110884468
 21
132.17461393009509
  0
LINE
  8
_1-8_下地など
  6
CONTINUOUS
 62
   23
 10
203.29319975260887
 20
132.07461393009589
 11
203.39319975260827
 21
132.17461393009529
  0
LINE
  8
_1-8_下地など
  6
CONTINUOUS
 62
   23
 10
203.15177839636993
 20
132.07461393009538
 11
203.25177839636987
 21
132.17461393009529
  0
LINE
  8
_1-8_下地など
  6
CONTINUOUS
 62
   23
 10
203.0103570401335
 20
132.07461393009555
 11
203.1103570401329
 21
132.17461393009495
  0
LINE
  8
_1-8_下地など
  6
CONTINUOUS
 62
   23
 10
202.86893568389513
 20
132.07461393009561
 11
202.96893568389504
 21
132.17461393009552
  0
LINE
  8
_1-8_下地など
  6
CONTINUOUS
 62
   23
 10
90.580378831471336
 20
132.07461393009524
 11
90.680378831471444
 21
132.17461393009535
  0
LINE
  8
_1-8_下地など
  6
CONTINUOUS
 62
   23
 10
90.438957475234389
 20
132.0746139300949
 11
90.538957475234497
 21
132.17461393009501
  0
LINE
  8
_1-8_下地など
  6
CONTINUOUS
 62
   23
 10
90.29753611899848
 20
132.07461393009561
 11
90.397536118998048
 21
132.17461393009518
  0
LINE
  8
_1-8_下地など
  6
CONTINUOUS
 62
   23
 10
90.156114762759572
 20
132.0746139300951
 11
90.256114762759665
 21
132.17461393009521
  0
LINE
  8
_1-8_下地など
  6
CONTINUOUS
 62
   23
 10
90.014693406523136
 20
132.0746139300953
 11
90.114693406523216
 21
132.17461393009538
  0
LINE
  8
_1-8_下地など
  6
CONTINUOUS
 62
   23
 10
89.873272050286687
 20
132.07461393009544
 11
89.973272050286781
 21
132.17461393009555
  0
LINE
  8
_1-8_下地など
  6
CONTINUOUS
 62
   23
 10
89.731850694047793
 20
132.07461393009498
 11
89.831850694047887
 21
132.17461393009506
  0
LINE
  8
_1-8_下地など
  6
CONTINUOUS
 62
   23
 10
89.590429337811358
 20
132.07461393009515
 11
89.690429337811423
 21
132.17461393009521
  0
LINE
  8
_1-8_下地など
  6
CONTINUOUS
 62
   23
 10
89.449007981572947
 20
132.07461393009515
 11
89.549007981573027
 21
132.17461393009523
  0
LINE
  8
_1-8_下地など
  6
CONTINUOUS
 62
   23
 10
89.307586625336015
 20
132.07461393009484
 11
89.407586625336592
 21
132.1746139300954
  0
LINE
  8
_1-8_下地など
  6
CONTINUOUS
 62
   23
 10
89.166165269100077
 20
132.0746139300955
 11
89.266165269100156
 21
132.17461393009557
  0
LINE
  8
_1-8_下地など
  6
CONTINUOUS
 62
   23
 10
89.024743912861197
 20
132.07461393009504
 11
89.124743912861277
 21
132.17461393009512
  0
LINE
  8
_1-8_下地など
  6
CONTINUOUS
 62
   23
 10
88.883322556624762
 20
132.07461393009521
 11
88.983322556624813
 21
132.17461393009526
  0
LINE
  8
_1-8_下地など
  6
CONTINUOUS
 62
   23
 10
88.741901200386323
 20
132.07461393009521
 11
88.841901200386403
 21
132.17461393009529
  0
LINE
  8
_1-8_下地など
  6
CONTINUOUS
 62
   23
 10
88.600479844149419
 20
132.0746139300949
 11
88.700479844149498
 21
132.17461393009498
  0
LINE
  8
_1-8_下地など
  6
CONTINUOUS
 62
   23
 10
88.459058487913467
 20
132.07461393009555
 11
88.55905848791302
 21
132.17461393009512
  0
LINE
  8
_1-8_下地など
  6
CONTINUOUS
 62
   23
 10
88.317637131674587
 20
132.0746139300951
 11
88.417637131674667
 21
132.17461393009518
  0
LINE
  8
_1-8_下地など
  6
CONTINUOUS
 62
   23
 10
88.176215775438166
 20
132.07461393009527
 11
88.276215775438175
 21
132.17461393009529
  0
LINE
  8
_1-8_下地など
  6
CONTINUOUS
 62
   23
 10
88.034794419200693
 20
132.07461393009532
 11
88.134794419200773
 21
132.1746139300954
  0
LINE
  8
_1-8_下地など
  6
CONTINUOUS
 62
   23
 10
87.893373062962809
 20
132.07461393009496
 11
87.993373062962888
 21
132.17461393009503
  0
LINE
  8
_1-8_下地など
  6
CONTINUOUS
 62
   23
 10
87.751951706726388
 20
132.07461393009515
 11
87.851951706726396
 21
132.17461393009515
  0
LINE
  8
_1-8_下地など
  6
CONTINUOUS
 62
   23
 10
87.61053035048792
 20
132.0746139300951
 11
87.710530350488
 21
132.17461393009518
  0
LINE
  8
_1-8_下地など
  6
CONTINUOUS
 62
   23
 10
87.46910899425157
 20
132.07461393009535
 11
87.569108994251565
 21
132.17461393009535
  0
LINE
  8
_1-8_下地など
  6
CONTINUOUS
 62
   23
 10
87.32768763801505
 20
132.07461393009544
 11
87.427687638015129
 21
132.17461393009552
  0
LINE
  8
_1-8_下地など
  6
CONTINUOUS
 62
   23
 10
87.186266281776213
 20
132.07461393009504
 11
87.286266281776278
 21
132.17461393009509
  0
LINE
  8
_1-8_下地など
  6
CONTINUOUS
 62
   23
 10
87.044844925539792
 20
132.07461393009521
 11
87.144844925539772
 21
132.17461393009518
  0
LINE
  8
_1-8_下地など
  6
CONTINUOUS
 62
   23
 10
86.90342356930131
 20
132.07461393009515
 11
87.003423569301376
 21
132.17461393009523
  0
LINE
  8
_1-8_下地など
  6
CONTINUOUS
 62
   23
 10
86.762002213064434
 20
132.0746139300949
 11
86.8620022130645
 21
132.17461393009495
  0
LINE
  8
_1-8_下地など
  6
CONTINUOUS
 62
   23
 10
86.62058085682844
 20
132.0746139300955
 11
86.720580856828505
 21
132.17461393009557
  0
LINE
  8
_1-8_下地など
  6
CONTINUOUS
 62
   23
 10
86.479159500589617
 20
132.0746139300951
 11
86.579159500589668
 21
132.17461393009515
  0
LINE
  8
_1-8_下地など
  6
CONTINUOUS
 62
   23
 10
86.337738144353182
 20
132.07461393009527
 11
86.437738144353148
 21
132.17461393009523
  0
LINE
  8
_1-8_下地など
  6
CONTINUOUS
 62
   23
 10
86.196316788114686
 20
132.07461393009521
 11
86.296316788114751
 21
132.17461393009526
  0
LINE
  8
_1-8_下地など
  6
CONTINUOUS
 62
   23
 10
86.054895431877839
 20
132.07461393009496
 11
86.15489543187789
 21
132.17461393009501
  0
LINE
  8
_1-8_下地など
  6
CONTINUOUS
 62
   23
 10
85.91347407564183
 20
132.07461393009555
 11
86.013474075641355
 21
132.17461393009506
  0
LINE
  8
_1-8_下地など
  6
CONTINUOUS
 62
   23
 10
85.772052719403007
 20
132.07461393009515
 11
85.872052719403058
 21
132.17461393009521
  0
LINE
  8
_1-8_下地など
  6
CONTINUOUS
 62
   23
 10
85.630631363166586
 20
132.07461393009532
 11
85.730631363166523
 21
132.17461393009529
  0
LINE
  8
_1-8_下地など
  6
CONTINUOUS
 62
   23
 10
85.489210006930037
 20
132.07461393009538
 11
85.589210006930088
 21
132.17461393009546
  0
LINE
  8
_1-8_下地など
  6
CONTINUOUS
 62
   23
 10
85.347788650691243
 20
132.07461393009504
 11
85.44778865069128
 21
132.17461393009506
  0
LINE
  8
_1-8_下地など
  6
CONTINUOUS
 62
   23
 10
85.206367294454807
 20
132.07461393009521
 11
85.306367294454731
 21
132.17461393009512
  0
LINE
  8
_1-8_下地など
  6
CONTINUOUS
 62
   23
 10
85.064945938216283
 20
132.0746139300951
 11
85.164945938216334
 21
132.17461393009515
  0
LINE
  8
_1-8_下地など
  6
CONTINUOUS
 62
   23
 10
84.92352458197945
 20
132.07461393009487
 11
85.023524581979899
 21
132.17461393009532
  0
LINE
  8
_1-8_下地など
  6
CONTINUOUS
 62
   23
 10
84.782103225743427
 20
132.07461393009544
 11
84.882103225743464
 21
132.17461393009549
  0
LINE
  8
_1-8_下地など
  6
CONTINUOUS
 62
   23
 10
84.640681869504633
 20
132.0746139300951
 11
84.74068186950467
 21
132.17461393009512
  0
LINE
  8
_1-8_下地など
  6
CONTINUOUS
 62
   23
 10
84.499260513268212
 20
132.07461393009527
 11
84.599260513268106
 21
132.17461393009518
  0
LINE
  8
_1-8_下地など
  6
CONTINUOUS
 62
   23
 10
84.357839157029673
 20
132.07461393009515
 11
84.45783915702971
 21
132.17461393009521
  0
LINE
  8
_1-8_下地など
  6
CONTINUOUS
 62
   23
 10
84.216417800792854
 20
132.07461393009496
 11
84.316417800792891
 21
132.17461393009498
  0
LINE
  8
_1-8_下地など
  6
CONTINUOUS
 62
   23
 10
84.074996444556803
 20
132.0746139300955
 11
84.174996444556314
 21
132.17461393009501
  0
LINE
  8
_1-8_下地など
  6
CONTINUOUS
 62
   23
 10
83.933575088318037
 20
132.07461393009515
 11
84.033575088318074
 21
132.17461393009518
  0
LINE
  8
_1-8_下地など
  6
CONTINUOUS
 62
   23
 10
83.792153732081601
 20
132.07461393009532
 11
83.892153732081482
 21
132.17461393009521
  0
LINE
  8
_1-8_下地など
  6
CONTINUOUS
 62
   23
 10
83.650732375845024
 20
132.07461393009535
 11
83.750732375845047
 21
132.17461393009538
  0
LINE
  8
_1-8_下地など
  6
CONTINUOUS
 62
   23
 10
83.509311019606258
 20
132.07461393009501
 11
83.609311019606281
 21
132.17461393009503
  0
LINE
  8
_1-8_下地など
  6
CONTINUOUS
 62
   23
 10
83.367889663369823
 20
132.07461393009518
 11
83.467889663369689
 21
132.17461393009506
  0
LINE
  8
_1-8_下地など
  6
CONTINUOUS
 62
   23
 10
83.22646830713127
 20
132.07461393009507
 11
83.326468307131293
 21
132.17461393009509
  0
LINE
  8
_1-8_下地など
  6
CONTINUOUS
 62
   23
 10
83.08504695089448
 20
132.07461393009487
 11
83.185046950894858
 21
132.17461393009526
  0
LINE
  8
_1-8_下地など
  6
CONTINUOUS
 62
   23
 10
82.9436255946584
 20
132.07461393009541
 11
83.043625594658437
 21
132.17461393009543
  0
LINE
  8
_1-8_下地など
  6
CONTINUOUS
 62
   23
 10
82.802204238419648
 20
132.07461393009507
 11
82.902204238419685
 21
132.17461393009512
  0
LINE
  8
_1-8_下地など
  6
CONTINUOUS
 62
   23
 10
82.660782882183227
 20
132.07461393009527
 11
82.760782882183065
 21
132.17461393009509
  0
LINE
  8
_1-8_下地など
  6
CONTINUOUS
 62
   23
 10
82.519361525944646
 20
132.0746139300951
 11
82.619361525944669
 21
132.17461393009512
  0
LINE
  8
_1-8_下地など
  6
CONTINUOUS
 62
   23
 10
82.37794016970787
 20
132.07461393009493
 11
82.477940169707892
 21
132.17461393009495
  0
LINE
  8
_1-8_下地など
  6
CONTINUOUS
 62
   23
 10
82.23651881347179
 20
132.07461393009547
 11
82.336518813471798
 21
132.17461393009546
  0
LINE
  8
_1-8_下地など
  6
CONTINUOUS
 62
   23
 10
82.095097457233052
 20
132.07461393009515
 11
82.195097457233075
 21
132.17461393009518
  0
LINE
  8
_1-8_下地など
  6
CONTINUOUS
 62
   23
 10
81.953676100996631
 20
132.07461393009532
 11
82.053676100996441
 21
132.17461393009515
  0
LINE
  8
_1-8_下地など
  6
CONTINUOUS
 62
   23
 10
81.812254744759997
 20
132.0746139300953
 11
81.91225474476002
 21
132.17461393009532
  0
LINE
  8
_1-8_下地など
  6
CONTINUOUS
 62
   23
 10
81.670833388521274
 20
132.07461393009501
 11
81.770833388521282
 21
132.17461393009501
  0
LINE
  8
_1-8_下地など
  6
CONTINUOUS
 62
   23
 10
81.529412032284853
 20
132.07461393009518
 11
81.629412032284662
 21
132.17461393009501
  0
LINE
  8
_1-8_下地など
  6
CONTINUOUS
 62
   23
 10
81.387990676046257
 20
132.07461393009501
 11
81.487990676046252
 21
132.17461393009501
  0
LINE
  8
_1-8_下地など
  6
CONTINUOUS
 62
   23
 10
81.246569319810035
 20
132.07461393009538
 11
81.346569319809831
 21
132.17461393009521
  0
LINE
  8
_1-8_下地など
  6
CONTINUOUS
 62
   23
 10
81.105147963573387
 20
132.07461393009535
 11
81.205147963573395
 21
132.17461393009535
  0
LINE
  8
_1-8_下地など
  6
CONTINUOUS
 62
   23
 10
80.963726607334678
 20
132.07461393009507
 11
81.063726607334686
 21
132.17461393009506
  0
LINE
  8
_1-8_下地など
  6
CONTINUOUS
 62
   23
 10
80.822305251098243
 20
132.07461393009524
 11
80.922305251098038
 21
132.17461393009503
  0
LINE
  8
_1-8_下地など
  6
CONTINUOUS
 62
   23
 10
80.680883894860614
 20
132.07461393009513
 11
80.780883894860622
 21
132.17461393009512
  0
LINE
  8
_1-8_下地など
  6
CONTINUOUS
 62
   23
 10
80.5394625386229
 20
132.07461393009493
 11
80.639462538623206
 21
132.17461393009523
  0
LINE
  8
_1-8_下地など
  6
CONTINUOUS
 62
   23
 10
80.398041182386777
 20
132.07461393009541
 11
80.498041182386771
 21
132.1746139300954
  0
LINE
  8
_1-8_下地など
  6
CONTINUOUS
 62
   23
 10
80.256619826148068
 20
132.07461393009513
 11
80.356619826148076
 21
132.17461393009512
  0
LINE
  8
_1-8_下地など
  6
CONTINUOUS
 62
   23
 10
80.115198469911647
 20
132.07461393009532
 11
80.215198469911414
 21
132.17461393009506
  0
LINE
  8
_1-8_下地など
  6
CONTINUOUS
 62
   23
 10
79.973777113674984
 20
132.07461393009527
 11
80.073777113674979
 21
132.17461393009523
  0
LINE
  8
_1-8_下地など
  6
CONTINUOUS
 62
   23
 10
79.832355757436289
 20
132.07461393009498
 11
79.932355757436298
 21
132.17461393009501
  0
LINE
  8
_1-8_下地など
  6
CONTINUOUS
 62
   23
 10
79.690934401200153
 20
132.07461393009547
 11
79.790934401199621
 21
132.17461393009492
  0
LINE
  8
_1-8_下地など
  6
CONTINUOUS
 62
   23
 10
79.549513044961486
 20
132.07461393009521
 11
79.649513044961466
 21
132.17461393009521
  0
LINE
  8
_1-8_下地など
  6
CONTINUOUS
 62
   23
 10
79.408091688725051
 20
132.07461393009538
 11
79.508091688724789
 21
132.17461393009512
  0
LINE
  8
_1-8_下地など
  6
CONTINUOUS
 62
   23
 10
79.26667033248836
 20
132.0746139300953
 11
79.366670332488354
 21
132.17461393009529
  0
LINE
  8
_1-8_下地など
  6
CONTINUOUS
 62
   23
 10
79.125248976249708
 20
132.07461393009507
 11
79.225248976249688
 21
132.17461393009506
  0
LINE
  8
_1-8_下地など
  6
CONTINUOUS
 62
   23
 10
78.983827620013273
 20
132.07461393009524
 11
79.083827620012997
 21
132.17461393009498
  0
LINE
  8
_1-8_下地など
  6
CONTINUOUS
 62
   23
 10
78.842406263776581
 20
132.07461393009515
 11
78.942406263776562
 21
132.17461393009515
  0
LINE
  8
_1-8_下地など
  6
CONTINUOUS
 62
   23
 10
78.700984907537929
 20
132.07461393009493
 11
78.800984907538165
 21
132.17461393009518
  0
LINE
  8
_1-8_下地など
  6
CONTINUOUS
 62
   23
 10
78.55956355130175
 20
132.07461393009535
 11
78.65956355130173
 21
132.17461393009535
  0
LINE
  8
_1-8_下地など
  6
CONTINUOUS
 62
   23
 10
78.418142195063098
 20
132.07461393009513
 11
78.518142195063092
 21
132.17461393009512
  0
LINE
  8
_1-8_下地など
  6
CONTINUOUS
 62
   23
 10
78.276720838826662
 20
132.0746139300953
 11
78.376720838826373
 21
132.17461393009501
  0
LINE
  8
_1-8_下地など
  6
CONTINUOUS
 62
   23
 10
78.135299482589957
 20
132.07461393009521
 11
78.235299482589937
 21
132.17461393009518
  0
LINE
  8
_1-8_下地など
  6
CONTINUOUS
 62
   23
 10
77.993878126351319
 20
132.07461393009498
 11
78.093878126351299
 21
132.17461393009495
  0
LINE
  8
_1-8_下地など
  6
CONTINUOUS
 62
   23
 10
77.85245677011514
 20
132.07461393009541
 11
77.952456770115106
 21
132.17461393009538
  0
LINE
  8
_1-8_下地など
  6
CONTINUOUS
 62
   23
 10
77.711035413876502
 20
132.07461393009521
 11
77.811035413876468
 21
132.17461393009518
  0
LINE
  8
_1-8_下地など
  6
CONTINUOUS
 62
   23
 10
77.569614057640067
 20
132.07461393009538
 11
77.669614057639748
 21
132.17461393009506
  0
LINE
  8
_1-8_下地など
  6
CONTINUOUS
 62
   23
 10
77.428192701403347
 20
132.07461393009527
 11
77.528192701403313
 21
132.17461393009523
  0
LINE
  8
_1-8_下地など
  6
CONTINUOUS
 62
   23
 10
77.286771345164723
 20
132.07461393009504
 11
77.386771345164689
 21
132.17461393009503
  0
LINE
  8
_1-8_下地など
  6
CONTINUOUS
 62
   23
 10
77.145349988928288
 20
132.07461393009524
 11
77.245349988927956
 21
132.17461393009489
  0
LINE
  8
_1-8_下地など
  6
CONTINUOUS
 62
   23
 10
77.003928632691554
 20
132.0746139300951
 11
77.10392863269152
 21
132.17461393009506
  0
LINE
  8
_1-8_下地など
  6
CONTINUOUS
 62
   23
 10
76.862507276453471
 20
132.07461393009544
 11
76.962507276453124
 21
132.17461393009509
  0
LINE
  8
_1-8_下地など
  6
CONTINUOUS
 62
   23
 10
76.721085920216723
 20
132.0746139300953
 11
76.821085920216689
 21
132.17461393009526
  0
LINE
  8
_1-8_下地など
  6
CONTINUOUS
 62
   23
 10
76.579664563978127
 20
132.07461393009513
 11
76.679664563978079
 21
132.17461393009509
  0
LINE
  8
_1-8_下地など
  6
CONTINUOUS
 62
   23
 10
76.438243207741692
 20
132.0746139300953
 11
76.538243207741331
 21
132.17461393009495
  0
LINE
  8
_1-8_下地など
  6
CONTINUOUS
 62
   23
 10
76.296821851504944
 20
132.07461393009515
 11
76.396821851504896
 21
132.17461393009512
  0
LINE
  8
_1-8_下地など
  6
CONTINUOUS
 62
   23
 10
76.155400495266335
 20
132.07461393009498
 11
76.2554004952665
 21
132.17461393009515
  0
LINE
  8
_1-8_下地など
  6
CONTINUOUS
 62
   23
 10
76.013979139030113
 20
132.07461393009535
 11
76.113979139030079
 21
132.17461393009532
  0
LINE
  8
_1-8_下地など
  6
CONTINUOUS
 62
   23
 10
75.872557782791517
 20
132.07461393009518
 11
75.972557782791483
 21
132.17461393009515
  0
LINE
  8
_1-8_下地など
  6
CONTINUOUS
 62
   23
 10
75.731136426555082
 20
132.07461393009535
 11
75.831136426554707
 21
132.17461393009498
  0
LINE
  8
_1-8_下地など
  6
CONTINUOUS
 62
   23
 10
75.589715070318334
 20
132.07461393009521
 11
75.689715070318286
 21
132.17461393009518
  0
LINE
  8
_1-8_下地など
  6
CONTINUOUS
 62
   23
 10
75.448293714079739
 20
132.07461393009504
 11
75.548293714079705
 21
132.17461393009501
  0
LINE
  8
_1-8_下地など
  6
CONTINUOUS
 62
   23
 10
75.306872357843488
 20
132.07461393009541
 11
75.406872357842929
 21
132.17461393009484
  0
LINE
  8
_1-8_下地など
  6
CONTINUOUS
 62
   23
 10
75.165451001606542
 20
132.07461393009507
 11
75.265451001606493
 21
132.17461393009501
  0
LINE
  8
_1-8_下地など
  6
CONTINUOUS
 62
   23
 10
75.024029645368486
 20
132.07461393009544
 11
75.124029645368097
 21
132.17461393009503
  0
LINE
  8
_1-8_下地など
  6
CONTINUOUS
 62
   23
 10
74.88260828913171
 20
132.07461393009527
 11
74.982608289131662
 21
132.17461393009521
  0
LINE
  8
_1-8_下地など
  6
CONTINUOUS
 62
   23
 10
74.741186932893143
 20
132.07461393009513
 11
74.841186932893095
 21
132.17461393009506
  0
LINE
  8
_1-8_下地など
  6
CONTINUOUS
 62
   23
 10
74.599765576656708
 20
132.0746139300953
 11
74.699765576656304
 21
132.17461393009489
  0
LINE
  8
_1-8_下地など
  6
CONTINUOUS
 62
   23
 10
74.458344220419917
 20
132.0746139300951
 11
74.558344220419869
 21
132.17461393009506
  0
LINE
  8
_1-8_下地など
  6
CONTINUOUS
 62
   23
 10
74.316922864181365
 20
132.07461393009498
 11
74.416922864181473
 21
132.17461393009506
  0
LINE
  8
_1-8_下地など
  6
CONTINUOUS
 62
   23
 10
74.175501507945086
 20
132.0746139300953
 11
74.275501507945037
 21
132.17461393009526
  0
LINE
  8
_1-8_下地など
  6
CONTINUOUS
 62
   23
 10
74.034080151708139
 20
132.07461393009496
 11
74.134080151708076
 21
132.17461393009489
  0
LINE
  8
_1-8_下地など
  6
CONTINUOUS
 62
   23
 10
73.892658795470112
 20
132.07461393009535
 11
73.99265879546968
 21
132.17461393009492
  0
LINE
  8
_1-8_下地など
  6
CONTINUOUS
 62
   23
 10
73.751237439233307
 20
132.07461393009515
 11
73.851237439233245
 21
132.17461393009509
  0
LINE
  8
_1-8_下地など
  6
CONTINUOUS
 62
   23
 10
73.609816082994769
 20
132.07461393009504
 11
73.709816082994692
 21
132.17461393009498
  0
LINE
  8
_1-8_下地など
  6
CONTINUOUS
 62
   23
 10
73.468394726758476
 20
132.07461393009535
 11
73.568394726757887
 21
132.17461393009478
  0
LINE
  8
_1-8_下地など
  6
CONTINUOUS
 62
   23
 10
73.326973370521529
 20
132.07461393009501
 11
73.426973370521452
 21
132.17461393009495
  0
LINE
  8
_1-8_下地など
  6
CONTINUOUS
 62
   23
 10
73.185552014283516
 20
132.07461393009544
 11
73.28555201428307
 21
132.17461393009498
  0
LINE
  8
_1-8_下地など
  6
CONTINUOUS
 62
   23
 10
73.044130658046697
 20
132.07461393009521
 11
73.14413065804662
 21
132.17461393009515
  0
LINE
  8
_1-8_下地など
  6
CONTINUOUS
 62
   23
 10
72.902709301808159
 20
132.0746139300951
 11
73.002709301808082
 21
132.17461393009503
  0
LINE
  8
_1-8_下地など
  6
CONTINUOUS
 62
   23
 10
72.761287945571738
 20
132.0746139300953
 11
72.861287945571263
 21
132.17461393009481
  0
LINE
  8
_1-8_下地など
  6
CONTINUOUS
 62
   23
 10
72.619866589334904
 20
132.07461393009507
 11
72.719866589334828
 21
132.17461393009498
  0
LINE
  8
_1-8_下地など
  6
CONTINUOUS
 62
   23
 10
72.47844523309692
 20
132.0746139300955
 11
72.578445233096431
 21
132.17461393009501
  0
LINE
  8
_1-8_下地など
  6
CONTINUOUS
 62
   23
 10
72.337023876860073
 20
132.07461393009527
 11
72.437023876859996
 21
132.17461393009518
  0
LINE
  8
_1-8_下地など
  6
CONTINUOUS
 62
   23
 10
72.195602520623112
 20
132.0746139300949
 11
72.295602520623035
 21
132.17461393009484
  0
LINE
  8
_1-8_下地など
  6
CONTINUOUS
 62
   23
 10
72.054181164385142
 20
132.07461393009535
 11
72.154181164384639
 21
132.17461393009486
  0
LINE
  8
_1-8_下地など
  6
CONTINUOUS
 62
   23
 10
71.91275980814828
 20
132.0746139300951
 11
72.012759808148203
 21
132.17461393009503
  0
LINE
  8
_1-8_下地など
  6
CONTINUOUS
 62
   23
 10
71.771338451909784
 20
132.07461393009504
 11
71.871338451909807
 21
132.17461393009506
  0
LINE
  8
_1-8_下地など
  6
CONTINUOUS
 62
   23
 10
71.629917095673463
 20
132.07461393009532
 11
71.729917095673372
 21
132.17461393009523
  0
LINE
  8
_1-8_下地など
  6
CONTINUOUS
 62
   23
 10
71.488495739436502
 20
132.07461393009496
 11
71.588495739436411
 21
132.17461393009486
  0
LINE
  8
_1-8_下地など
  6
CONTINUOUS
 62
   23
 10
71.347074383198532
 20
132.07461393009541
 11
71.447074383198014
 21
132.17461393009489
  0
LINE
  8
_1-8_下地など
  6
CONTINUOUS
 62
   23
 10
71.20565302696167
 20
132.07461393009515
 11
71.305653026961579
 21
132.17461393009506
  0
LINE
  8
_1-8_下地など
  6
CONTINUOUS
 62
   23
 10
71.064231670724169
 20
132.07461393009518
 11
71.164231670724078
 21
132.17461393009506
  0
LINE
  8
_1-8_下地など
  6
CONTINUOUS
 62
   23
 10
70.922810314486838
 20
132.07461393009535
 11
71.022810314486222
 21
132.17461393009475
  0
LINE
  8
_1-8_下地など
  6
CONTINUOUS
 62
   23
 10
70.781388958249892
 20
132.07461393009501
 11
70.881388958249786
 21
132.17461393009492
  0
LINE
  8
_1-8_下地など
  6
CONTINUOUS
 62
   23
 10
70.639967602011936
 20
132.0746139300955
 11
70.73996760201139
 21
132.17461393009495
  0
LINE
  8
_1-8_下地など
  6
CONTINUOUS
 62
   23
 10
70.49854624577506
 20
132.07461393009521
 11
70.598546245774955
 21
132.17461393009512
  0
LINE
  8
_1-8_下地など
  6
CONTINUOUS
 62
   23
 10
70.357124889538539
 20
132.0746139300953
 11
70.457124889538449
 21
132.17461393009521
  0
LINE
  8
_1-8_下地など
  6
CONTINUOUS
 62
   23
 10
70.215703533300157
 20
132.07461393009535
 11
70.315703533299597
 21
132.17461393009478
  0
LINE
  8
_1-8_下地など
  6
CONTINUOUS
 62
   23
 10
70.074282177063267
 20
132.07461393009507
 11
70.174282177063162
 21
132.17461393009495
  0
LINE
  8
_1-8_下地など
  6
CONTINUOUS
 62
   23
 10
69.9328608208248
 20
132.07461393009501
 11
70.032860820824766
 21
132.17461393009498
  0
LINE
  8
_1-8_下地など
  6
CONTINUOUS
 62
   23
 10
69.79143946458845
 20
132.07461393009527
 11
69.891439464588331
 21
132.17461393009515
  0
LINE
  8
_1-8_下地など
  6
CONTINUOUS
 62
   23
 10
69.650018108351475
 20
132.0746139300949
 11
69.750018108351384
 21
132.17461393009481
  0
LINE
  8
_1-8_下地など
  6
CONTINUOUS
 62
   23
 10
69.508596752113561
 20
132.07461393009541
 11
69.608596752112973
 21
132.17461393009484
  0
LINE
  8
_1-8_下地など
  6
CONTINUOUS
 62
   23
 10
69.367175395876643
 20
132.0746139300951
 11
69.467175395876552
 21
132.17461393009501
  0
LINE
  8
_1-8_下地など
  6
CONTINUOUS
 62
   23
 10
69.225754039640165
 20
132.07461393009524
 11
69.32575403964006
 21
132.17461393009512
  0
LINE
  8
_1-8_下地など
  6
CONTINUOUS
 62
   23
 10
69.084332683401826
 20
132.07461393009532
 11
69.184332683401195
 21
132.17461393009467
  0
LINE
  8
_1-8_下地など
  6
CONTINUOUS
 62
   23
 10
68.942911327164865
 20
132.07461393009496
 11
69.042911327164759
 21
132.17461393009486
  0
LINE
  8
_1-8_下地など
  6
CONTINUOUS
 62
   23
 10
68.801489970926951
 20
132.07461393009547
 11
68.901489970926363
 21
132.17461393009489
  0
LINE
  8
_1-8_下地など
  6
CONTINUOUS
 62
   23
 10
68.660068614690033
 20
132.07461393009515
 11
68.760068614689928
 21
132.17461393009506
  0
LINE
  8
_1-8_下地など
  6
CONTINUOUS
 62
   23
 10
68.518647258453569
 20
132.0746139300953
 11
68.61864725845345
 21
132.17461393009518
  0
LINE
  8
_1-8_下地など
  6
CONTINUOUS
 62
   23
 10
68.377225902215173
 20
132.07461393009532
 11
68.47722590221457
 21
132.17461393009472
  0
LINE
  8
_1-8_下地など
  6
CONTINUOUS
 62
   23
 10
68.235804545978255
 20
132.07461393009501
 11
68.335804545978135
 21
132.17461393009489
  0
LINE
  8
_1-8_下地など
  6
CONTINUOUS
 62
   23
 10
68.094383189740356
 20
132.07461393009555
 11
68.194383189739739
 21
132.17461393009492
  0
LINE
  8
_1-8_下地など
  6
CONTINUOUS
 62
   23
 10
67.952961833503423
 20
132.07461393009521
 11
68.052961833503304
 21
132.17461393009509
  0
LINE
  8
_1-8_下地など
  6
CONTINUOUS
 62
   23
 10
67.811540477266462
 20
132.07461393009487
 11
67.911540477266342
 21
132.17461393009475
  0
LINE
  8
_1-8_下地など
  6
CONTINUOUS
 62
   23
 10
67.670119121028577
 20
132.07461393009541
 11
67.770119121027946
 21
132.17461393009478
  0
LINE
  8
_1-8_下地など
  6
CONTINUOUS
 62
   23
 10
67.52869776479163
 20
132.07461393009507
 11
67.628697764791497
 21
132.17461393009495
  0
LINE
  8
_1-8_下地など
  6
CONTINUOUS
 62
   23
 10
67.387276408555181
 20
132.07461393009521
 11
67.487276408555061
 21
132.17461393009509
  0
LINE
  8
_1-8_下地など
  6
CONTINUOUS
 62
   23
 10
67.245855052316813
 20
132.07461393009527
 11
67.345855052316679
 21
132.17461393009515
  0
LINE
  8
_1-8_下地など
  6
CONTINUOUS
 62
   23
 10
67.104433696079838
 20
132.0746139300949
 11
67.204433696079718
 21
132.17461393009478
  0
LINE
  8
_1-8_下地など
  6
CONTINUOUS
 62
   23
 10
66.963012339841981
 20
132.07461393009547
 11
67.063012339841322
 21
132.17461393009481
  0
LINE
  8
_1-8_下地など
  6
CONTINUOUS
 62
   23
 10
113.03066250721217
 20
126.09920500213643
 11
113.11231219048528
 21
126.18085468540954
  0
LINE
  8
_1-8_下地など
  6
CONTINUOUS
 62
   23
 10
112.9191269496871
 20
126.12909080084796
 11
113.00077663295991
 21
126.21074048412078
  0
LINE
  8
_1-8_下地など
  6
CONTINUOUS
 62
   23
 10
112.80759139216053
 20
126.15897659955982
 11
112.88924107543332
 21
126.24062628283262
  0
LINE
  8
_1-8_下地など
  6
CONTINUOUS
 62
   23
 10
112.69605583463516
 20
126.18886239827106
 11
112.77770551790826
 21
126.27051208154415
  0
LINE
  8
_1-8_下地など
  6
CONTINUOUS
 62
   23
 10
112.58452027711039
 20
126.21874819698289
 11
112.6661699603829
 21
126.3003978802554
  0
LINE
  8
_1-8_下地など
  6
CONTINUOUS
 62
   23
 10
112.47298471958351
 20
126.24863399569443
 11
112.55463440285661
 21
126.33028367896753
  0
LINE
  8
_1-8_下地など
  6
CONTINUOUS
 62
   23
 10
112.36144916205815
 20
126.27851979440568
 11
112.44309884533126
 21
126.3601694776788
  0
LINE
  8
_1-8_下地など
  6
CONTINUOUS
 62
   23
 10
112.24991360453338
 20
126.30840559311751
 11
112.33156328780619
 21
126.39005527639033
  0
LINE
  8
_1-8_下地など
  6
CONTINUOUS
 62
   23
 10
112.13837804700648
 20
126.33829139182906
 11
112.22002773027961
 21
126.41994107510217
  0
LINE
  8
_1-8_下地など
  6
CONTINUOUS
 62
   23
 10
112.02684248948171
 20
126.36817719054089
 11
112.10849217275424
 21
126.44982687381341
  0
LINE
  8
_1-8_下地など
  6
CONTINUOUS
 62
   23
 10
111.91530693195485
 20
126.39806298925244
 11
111.99695661522796
 21
126.47971267252555
  0
LINE
  8
_1-8_下地など
  6
CONTINUOUS
 62
   23
 10
111.80377137442947
 20
126.42794878796367
 11
111.88542105770262
 21
126.50959847123681
  0
LINE
  8
_1-8_下地など
  6
CONTINUOUS
 62
   23
 10
111.69223581690471
 20
126.45783458667552
 11
111.77388550017754
 21
126.53948426994835
  0
LINE
  8
_1-8_下地など
  6
CONTINUOUS
 62
   23
 10
111.58070025937783
 20
126.48772038538706
 11
111.66234994265093
 21
126.56937006866018
  0
LINE
  8
_1-8_下地など
  6
CONTINUOUS
 62
   23
 10
111.46916470185276
 20
126.5176061840986
 11
111.55081438512559
 21
126.59925586737143
  0
LINE
  8
_1-8_下地など
  6
CONTINUOUS
 62
   23
 10
111.35762914432618
 20
126.54749198281044
 11
111.43927882759901
 21
126.62914166608327
  0
LINE
  8
_1-8_下地など
  6
CONTINUOUS
 62
   23
 10
111.24609358680081
 20
126.57737778152168
 11
111.32774327007392
 21
126.6590274647948
  0
LINE
  8
_1-8_下地など
  6
CONTINUOUS
 62
   23
 10
111.13455802927605
 20
126.60726358023352
 11
111.2162077125486
 21
126.68891326350607
  0
LINE
  8
_1-8_下地など
  6
CONTINUOUS
 62
   23
 10
111.02302247174917
 20
126.63714937894507
 11
111.10467215502229
 21
126.71879906221818
  0
LINE
  8
_1-8_下地など
  6
CONTINUOUS
 62
   23
 10
110.91148691422383
 20
126.66703517765633
 11
110.99313659749694
 21
126.74868486092944
  0
LINE
  8
_1-8_下地など
  6
CONTINUOUS
 62
   23
 10
110.79995135669752
 20
126.69692097636845
 11
110.88160103997036
 21
126.77857065964129
  0
LINE
  8
_1-8_下地など
  6
CONTINUOUS
 62
   23
 10
110.68841579917216
 20
126.72680677507969
 11
110.77006548244526
 21
126.80845645835279
  0
LINE
  8
_1-8_下地など
  6
CONTINUOUS
 62
   23
 10
110.57688024164736
 20
126.7566925737915
 11
110.65852992491993
 21
126.83834225706407
  0
LINE
  8
_1-8_下地など
  6
CONTINUOUS
 62
   23
 10
110.46534468412051
 20
126.78657837250307
 11
110.54699436739362
 21
126.86822805577619
  0
LINE
  8
_1-8_下地など
  6
CONTINUOUS
 62
   23
 10
110.35380912659518
 20
126.81646417121435
 11
110.43545880986829
 21
126.89811385448746
  0
LINE
  8
_1-8_下地など
  6
CONTINUOUS
 62
   23
 10
110.24227356907038
 20
126.84634996992615
 11
110.32392325234323
 21
126.92799965319901
  0
LINE
  8
_1-8_下地など
  6
CONTINUOUS
 62
   23
 10
110.13073801154349
 20
126.87623576863768
 11
110.21238769481661
 21
126.95788545191081
  0
LINE
  8
_1-8_下地など
  6
CONTINUOUS
 62
   23
 10
110.01920245401868
 20
126.90612156734949
 11
110.10085213729128
 21
126.98777125062209
  0
LINE
  8
_1-8_下地など
  6
CONTINUOUS
 62
   23
 10
109.90766689649185
 20
126.93600736606108
 11
109.98931657976496
 21
127.01765704933419
  0
LINE
  8
_1-8_下地など
  6
CONTINUOUS
 62
   23
 10
109.79613133896648
 20
126.96589316477231
 11
109.87778102223965
 21
127.04754284804548
  0
LINE
  8
_1-8_下地など
  6
CONTINUOUS
 62
   23
 10
109.68459578144171
 20
126.99577896348416
 11
109.76624546471432
 21
127.07742864675676
  0
LINE
  8
_1-8_下地など
  6
CONTINUOUS
 62
   23
 10
109.57306022391484
 20
127.0256647621957
 11
109.65470990718795
 21
127.10731444546882
  0
LINE
  8
_1-8_下地など
  6
CONTINUOUS
 62
   23
 10
109.46152466638976
 20
127.05555056090725
 11
109.54317434966262
 21
127.13720024418009
  0
LINE
  8
_1-8_下地など
  6
CONTINUOUS
 62
   23
 10
109.34998910886318
 20
127.08543635961908
 11
109.43163879213606
 21
127.16708604289195
  0
LINE
  8
_1-8_下地など
  6
CONTINUOUS
 62
   23
 10
109.23845355133781
 20
127.11532215833032
 11
109.32010323461094
 21
127.19697184160344
  0
LINE
  8
_1-8_下地など
  6
CONTINUOUS
 62
   23
 10
109.12691799381305
 20
127.14520795704216
 11
109.20856767708561
 21
127.22685764031473
  0
LINE
  8
_1-8_下地など
  6
CONTINUOUS
 62
   23
 10
109.01538243628616
 20
127.17509375575369
 11
109.09703211955929
 21
127.25674343902682
  0
LINE
  8
_1-8_下地など
  6
CONTINUOUS
 62
   23
 10
108.90384687876086
 20
127.204979554465
 11
108.98549656203397
 21
127.28662923773811
  0
LINE
  8
_1-8_下地など
  6
CONTINUOUS
 62
   23
 10
108.79231132123604
 20
127.23486535317679
 11
108.87396100450891
 21
127.31651503644966
  0
LINE
  8
_1-8_下地など
  6
CONTINUOUS
 62
   23
 10
108.68077576370916
 20
127.26475115188833
 11
108.76242544698226
 21
127.34640083516143
  0
LINE
  8
_1-8_下地など
  6
CONTINUOUS
 62
   23
 10
108.56924020618433
 20
127.29463695060011
 11
108.65088988945696
 21
127.37628663387275
  0
LINE
  8
_1-8_下地など
  6
CONTINUOUS
 62
   23
 10
108.45770464865751
 20
127.32452274931171
 11
108.53935433193062
 21
127.40617243258482
  0
LINE
  8
_1-8_下地など
  6
CONTINUOUS
 62
   23
 10
108.34616909113214
 20
127.35440854802295
 11
108.42781877440532
 21
127.43605823129613
  0
LINE
  8
_1-8_下地など
  6
CONTINUOUS
 62
   23
 10
108.23463353360738
 20
127.38429434673479
 11
108.31628321688027
 21
127.46594403000768
  0
LINE
  8
_1-8_下地など
  6
CONTINUOUS
 62
   23
 10
108.12309797608049
 20
127.41418014544632
 11
108.20474765935361
 21
127.49582982871945
  0
LINE
  8
_1-8_下地など
  6
CONTINUOUS
 62
   23
 10
108.01156241855543
 20
127.44406594415787
 11
108.09321210182831
 21
127.52571562743076
  0
LINE
  8
_1-8_下地など
  6
CONTINUOUS
 62
   23
 10
107.90002686102883
 20
127.4739517428697
 11
107.98167654430173
 21
127.5556014261426
  0
LINE
  8
_1-8_下地など
  6
CONTINUOUS
 62
   23
 10
107.78849130350348
 20
127.50383754158095
 11
107.87014098677659
 21
127.58548722485408
  0
LINE
  8
_1-8_下地など
  6
CONTINUOUS
 62
   23
 10
107.67695574597872
 20
127.5337233402928
 11
107.7586054292513
 21
127.61537302356538
  0
LINE
  8
_1-8_下地など
  6
CONTINUOUS
 62
   23
 10
107.56542018845182
 20
127.56360913900434
 11
107.64706987172495
 21
127.64525882227747
  0
LINE
  8
_1-8_下地など
  6
CONTINUOUS
 62
   23
 10
107.45388463092654
 20
127.59349493771565
 11
107.53553431419967
 21
127.67514462098877
  0
LINE
  8
_1-8_下地など
  6
CONTINUOUS
 62
   23
 10
107.34234907340019
 20
127.62338073642772
 11
107.42399875667309
 21
127.70503041970062
  0
LINE
  8
_1-8_下地など
  6
CONTINUOUS
 62
   23
 10
107.23081351587481
 20
127.65326653513895
 11
107.31246319914794
 21
127.73491621841208
  0
LINE
  8
_1-8_下地など
  6
CONTINUOUS
 62
   23
 10
107.11927795834997
 20
127.68315233385073
 11
107.20092764162266
 21
127.7648020171234
  0
LINE
  8
_1-8_下地など
  6
CONTINUOUS
 62
   23
 10
107.00774240082316
 20
127.71303813256233
 11
107.08939208409629
 21
127.79468781583546
  0
LINE
  8
_1-8_下地など
  6
CONTINUOUS
 62
   23
 10
106.89620684329788
 20
127.74292393127367
 11
106.977856526571
 21
127.82457361454678
  0
LINE
  8
_1-8_下地など
  6
CONTINUOUS
 62
   23
 10
106.78467128577304
 20
127.77280972998543
 11
106.86632096904594
 21
127.85445941325833
  0
LINE
  8
_1-8_下地など
  6
CONTINUOUS
 62
   23
 10
106.67313572824615
 20
127.80269552869696
 11
106.75478541151928
 21
127.88434521197009
  0
LINE
  8
_1-8_下地など
  6
CONTINUOUS
 62
   23
 10
106.56160017072131
 20
127.83258132740872
 11
106.64324985399401
 21
127.91423101068142
  0
LINE
  8
_1-8_下地など
  6
CONTINUOUS
 62
   23
 10
106.45006461319451
 20
127.86246712612035
 11
106.53171429646764
 21
127.94411680939348
  0
LINE
  8
_1-8_下地など
  6
CONTINUOUS
 62
   23
 10
106.33852905566914
 20
127.89235292483158
 11
106.42017873894235
 21
127.9740026081048
  0
LINE
  8
_1-8_下地など
  6
CONTINUOUS
 62
   23
 10
106.22699349814437
 20
127.92223872354342
 11
106.30864318141708
 21
128.00388840681615
  0
LINE
  8
_1-8_下地など
  6
CONTINUOUS
 62
   23
 10
106.11545794061749
 20
127.95212452225496
 11
106.19710762389062
 21
128.03377420552809
  0
LINE
  8
_1-8_下地など
  6
CONTINUOUS
 62
   23
 10
106.00392238309222
 20
127.9820103209663
 11
106.08557206636534
 21
128.06366000423944
  0
LINE
  8
_1-8_下地など
  6
CONTINUOUS
 62
   23
 10
105.89238682556584
 20
128.01189611967834
 11
105.97403650883876
 21
128.09354580295127
  0
LINE
  8
_1-8_下地など
  6
CONTINUOUS
 62
   23
 10
105.78085126804048
 20
128.04178191838957
 11
105.86250095131361
 21
128.12343160166273
  0
LINE
  8
_1-8_下地など
  6
CONTINUOUS
 62
   23
 10
105.66931571051572
 20
128.07166771710143
 11
105.75096539378833
 21
128.15331740037405
  0
LINE
  8
_1-8_下地など
  6
CONTINUOUS
 62
   23
 10
105.55778015298883
 20
128.10155351581298
 11
105.63942983626195
 21
128.18320319908611
  0
LINE
  8
_1-8_下地など
  6
CONTINUOUS
 62
   23
 10
105.44624459546357
 20
128.1314393145243
 11
105.5278942787367
 21
128.21308899779746
  0
LINE
  8
_1-8_下地など
  6
CONTINUOUS
 62
   23
 10
105.33470903793719
 20
128.16132511323636
 11
105.41635872121012
 21
128.24297479650929
  0
LINE
  8
_1-8_下地など
  6
CONTINUOUS
 62
   23
 10
105.22317348041182
 20
128.19121091194759
 11
105.30482316368494
 21
128.27286059522072
  0
LINE
  8
_1-8_下地など
  6
CONTINUOUS
 62
   23
 10
105.11163792288696
 20
128.22109671065934
 11
105.19328760615969
 21
128.30274639393207
  0
LINE
  8
_1-8_下地など
  6
CONTINUOUS
 62
   23
 10
105.00010236536016
 20
128.25098250937097
 11
105.08175204863331
 21
128.3326321926441
  0
LINE
  8
_1-8_下地など
  6
CONTINUOUS
 62
   23
 10
104.88856680783479
 20
128.2808683080822
 11
104.97021649110803
 21
128.36251799135545
  0
LINE
  8
_1-8_下地など
  6
CONTINUOUS
 62
   23
 10
104.77703125031005
 20
128.31075410679406
 11
104.85868093358279
 21
128.39240379006679
  0
LINE
  8
_1-8_下地など
  6
CONTINUOUS
 62
   23
 10
104.66549569278315
 20
128.34063990550561
 11
104.74714537605628
 21
128.42228958877874
  0
LINE
  8
_1-8_下地など
  6
CONTINUOUS
 62
   23
 10
104.55396013525808
 20
128.37052570421713
 11
104.63560981853104
 21
128.45217538749009
  0
LINE
  8
_1-8_下地など
  6
CONTINUOUS
 62
   23
 10
104.44242457773152
 20
128.40041150292899
 11
104.52407426100444
 21
128.48206118620192
  0
LINE
  8
_1-8_下地など
  6
CONTINUOUS
 62
   23
 10
104.33088902020614
 20
128.43029730164022
 11
104.41253870347927
 21
128.51194698491335
  0
LINE
  8
_1-8_下地など
  6
CONTINUOUS
 62
   23
 10
104.21935346268137
 20
128.46018310035205
 11
104.30100314595401
 21
128.5418327836247
  0
LINE
  8
_1-8_下地など
  6
CONTINUOUS
 62
   23
 10
104.10781790515449
 20
128.4900688990636
 11
104.18946758842762
 21
128.57171858233673
  0
LINE
  8
_1-8_下地など
  6
CONTINUOUS
 62
   23
 10
103.99628234762925
 20
128.51995469777495
 11
104.07793203090239
 21
128.60160438104811
  0
LINE
  8
_1-8_下地など
  6
CONTINUOUS
 62
   23
 10
103.88474679010284
 20
128.54984049648698
 11
103.9663964733758
 21
128.63149017975994
  0
LINE
  8
_1-8_下地など
  6
CONTINUOUS
 62
   23
 10
103.77321123257748
 20
128.57972629519821
 11
103.85486091585061
 21
128.66137597847137
  0
LINE
  8
_1-8_下地など
  6
CONTINUOUS
 62
   23
 10
103.66167567505258
 20
128.60961209390993
 11
103.74332535832536
 21
128.69126177718272
  0
LINE
  8
_1-8_下地など
  6
CONTINUOUS
 62
   23
 10
103.55014011752583
 20
128.63949789262159
 11
103.63178980079897
 21
128.72114757589475
  0
LINE
  8
_1-8_下地など
  6
CONTINUOUS
 62
   23
 10
103.43860456000058
 20
128.66938369133297
 11
103.52025424327373
 21
128.7510333746061
  0
LINE
  8
_1-8_下地など
  6
CONTINUOUS
 62
   23
 10
103.32706900247419
 20
128.699269490045
 11
103.40871868574715
 21
128.78091917331795
  0
LINE
  8
_1-8_下地など
  6
CONTINUOUS
 62
   23
 10
103.21553344494882
 20
128.72915528875623
 11
103.29718312822195
 21
128.81080497202936
  0
LINE
  8
_1-8_下地など
  6
CONTINUOUS
 62
   23
 10
103.10399788742392
 20
128.75904108746795
 11
103.18564757069672
 21
128.84069077074074
  0
LINE
  8
_1-8_下地など
  6
CONTINUOUS
 62
   23
 10
102.99246232989717
 20
128.78892688617961
 11
103.07411201317014
 21
128.87057656945257
  0
LINE
  8
_1-8_下地など
  6
CONTINUOUS
 62
   23
 10
102.88092677237179
 20
128.81881268489084
 11
102.96257645564494
 21
128.90046236816397
  0
LINE
  8
_1-8_下地など
  6
CONTINUOUS
 62
   23
 10
102.76939121484705
 20
128.8486984836027
 11
102.85104089811985
 21
128.93034816687549
  0
LINE
  8
_1-8_下地など
  6
CONTINUOUS
 62
   23
 10
102.65785565732014
 20
128.87858428231422
 11
102.7395053405933
 21
128.96023396558738
  0
LINE
  8
_1-8_下地など
  6
CONTINUOUS
 62
   23
 10
102.54632009979493
 20
128.9084700810256
 11
102.62796978306807
 21
128.99011976429875
  0
LINE
  8
_1-8_下地など
  6
CONTINUOUS
 62
   23
 10
102.4347845422685
 20
128.93835587973763
 11
102.51643422554149
 21
129.02000556301061
  0
LINE
  8
_1-8_下地など
  6
CONTINUOUS
 62
   23
 10
102.32324898474313
 20
128.96824167844886
 11
102.40489866801627
 21
129.04989136172199
  0
LINE
  8
_1-8_下地など
  6
CONTINUOUS
 62
   23
 10
102.21171342721837
 20
128.99812747716069
 11
102.29336311049106
 21
129.07977716043337
  0
LINE
  8
_1-8_下地など
  6
CONTINUOUS
 62
   23
 10
102.10017786969149
 20
129.02801327587224
 11
102.18182755296462
 21
129.10966295914537
  0
LINE
  8
_1-8_下地など
  6
CONTINUOUS
 62
   23
 10
101.98864231216626
 20
129.05789907458362
 11
102.07029199543942
 21
129.13954875785677
  0
LINE
  8
_1-8_下地など
  6
CONTINUOUS
 62
   23
 10
101.87710675463984
 20
129.08778487329562
 11
101.95875643791284
 21
129.1694345565686
  0
LINE
  8
_1-8_下地など
  6
CONTINUOUS
 62
   23
 10
101.76557119711447
 20
129.11767067200685
 11
101.84722088038762
 21
129.19932035528001
  0
LINE
  8
_1-8_下地など
  6
CONTINUOUS
 62
   23
 10
101.65403563958955
 20
129.14755647071854
 11
101.73568532286239
 21
129.22920615399138
  0
LINE
  8
_1-8_下地など
  6
CONTINUOUS
 62
   23
 10
101.54250008206283
 20
129.17744226943023
 11
101.62414976533597
 21
129.25909195270339
  0
LINE
  8
_1-8_下地など
  6
CONTINUOUS
 62
   23
 10
101.43096452453746
 20
129.20732806814146
 11
101.51261420781077
 21
129.28897775141479
  0
LINE
  8
_1-8_下地など
  6
CONTINUOUS
 62
   23
 10
101.3194289670127
 20
129.23721386685332
 11
101.40107865028556
 21
129.3188635501262
  0
LINE
  8
_1-8_下地など
  6
CONTINUOUS
 62
   23
 10
101.20789340948582
 20
129.26709966556487
 11
101.28954309275896
 21
129.348749348838
  0
LINE
  8
_1-8_下地など
  6
CONTINUOUS
 62
   23
 10
101.09635785196075
 20
129.29698546427642
 11
101.17800753523375
 21
129.3786351475494
  0
LINE
  8
_1-8_下地など
  6
CONTINUOUS
 62
   23
 10
100.98482229443417
 20
129.32687126298825
 11
101.06647197770717
 21
129.40852094626126
  0
LINE
  8
_1-8_下地など
  6
CONTINUOUS
 62
   23
 10
100.8732867369088
 20
129.35675706169948
 11
100.95493642018195
 21
129.43840674497264
  0
LINE
  8
_1-8_下地など
  6
CONTINUOUS
 62
   23
 10
100.76175117938404
 20
129.38664286041134
 11
100.84340086265675
 21
129.46829254368404
  0
LINE
  8
_1-8_下地など
  6
CONTINUOUS
 62
   23
 10
100.65021562185714
 20
129.41652865912286
 11
100.7318653051303
 21
129.49817834239602
  0
LINE
  8
_1-8_下地など
  6
CONTINUOUS
 62
   23
 10
100.53868006433196
 20
129.44641445783429
 11
100.6203297476051
 21
129.52806414110742
  0
LINE
  8
_1-8_下地など
  6
CONTINUOUS
 62
   23
 10
100.4271445068055
 20
129.47630025654627
 11
100.50879419007852
 21
129.55794993981928
  0
LINE
  8
_1-8_下地など
  6
CONTINUOUS
 62
   23
 10
100.31560894928013
 20
129.5061860552575
 11
100.39725863255329
 21
129.58783573853066
  0
LINE
  8
_1-8_下地など
  6
CONTINUOUS
 62
   23
 10
100.2040733917552
 20
129.53607185396916
 11
100.28572307502809
 21
129.61772153724206
  0
LINE
  8
_1-8_下地など
  6
CONTINUOUS
 62
   23
 10
100.09253783422849
 20
129.56595765268088
 11
100.17418751750164
 21
129.64760733595404
  0
LINE
  8
_1-8_下地など
  6
CONTINUOUS
 62
   23
 10
99.981002276703123
 20
129.59584345139211
 11
100.06265195997645
 21
129.67749313466544
  0
LINE
  8
_1-8_下地など
  6
CONTINUOUS
 62
   23
 10
99.869466719176842
 20
129.62572925010426
 11
99.95111640244987
 21
129.7073789333773
  0
LINE
  8
_1-8_下地など
  6
CONTINUOUS
 62
   23
 10
99.75793116165147
 20
129.65561504881549
 11
99.839580844924626
 21
129.73726473208865
  0
LINE
  8
_1-8_下地など
  6
CONTINUOUS
 62
   23
 10
99.646395604126411
 20
129.68550084752704
 11
99.728045287399439
 21
129.76715053080005
  0
LINE
  8
_1-8_下地など
  6
CONTINUOUS
 62
   23
 10
99.534860046599817
 20
129.71538664623887
 11
99.61650972987286
 21
129.79703632951191
  0
LINE
  8
_1-8_下地など
  6
CONTINUOUS
 62
   23
 10
99.423324489074446
 20
129.7452724449501
 11
99.504974172347602
 21
129.82692212822326
  0
LINE
  8
_1-8_下地など
  6
CONTINUOUS
 62
   23
 10
99.3117889315497
 20
129.77515824366196
 11
99.393438614822614
 21
129.85680792693489
  0
LINE
  8
_1-8_下地など
  6
CONTINUOUS
 62
   23
 10
99.200253374022807
 20
129.80504404237351
 11
99.281903057295963
 21
129.88669372564664
  0
LINE
  8
_1-8_下地など
  6
CONTINUOUS
 62
   23
 10
99.088717816497635
 20
129.83492984108494
 11
99.170367499770791
 21
129.9165795243581
  0
LINE
  8
_1-8_下地など
  6
CONTINUOUS
 62
   23
 10
98.977182258971169
 20
129.86481563979689
 11
99.058831942244211
 21
129.94646532306993
  0
LINE
  8
_1-8_下地など
  6
CONTINUOUS
 62
   23
 10
98.865646701445797
 20
129.89470143850812
 11
98.947296384718953
 21
129.97635112178128
  0
LINE
  8
_1-8_下地など
  6
CONTINUOUS
 62
   23
 10
98.754111143920838
 20
129.92458723721978
 11
98.835760827193781
 21
130.00623692049271
  0
LINE
  8
_1-8_下地など
  6
CONTINUOUS
 62
   23
 10
98.642575586394145
 20
129.9544730359315
 11
98.724225269667301
 21
130.03612271920466
  0
LINE
  8
_1-8_下地など
  6
CONTINUOUS
 62
   23
 10
98.531040028868972
 20
129.98435883464293
 11
98.612689712142128
 21
130.06600851791609
  0
LINE
  8
_1-8_下地など
  6
CONTINUOUS
 62
   23
 10
98.419504471342492
 20
130.01424463335491
 11
98.501154154615548
 21
130.09589431662795
  0
LINE
  8
_1-8_下地など
  6
CONTINUOUS
 62
   23
 10
98.307968913817135
 20
130.04413043206614
 11
98.389618597090291
 21
130.1257801153393
  0
LINE
  8
_1-8_下地など
  6
CONTINUOUS
 62
   23
 10
98.196433356292175
 20
130.07401623077777
 11
98.278083039565132
 21
130.15566591405073
  0
LINE
  8
_1-8_下地など
  6
CONTINUOUS
 62
   23
 10
98.084897798765482
 20
130.10390202948952
 11
98.166547482038638
 21
130.18555171276267
  0
LINE
  8
_1-8_下地など
  6
CONTINUOUS
 62
   23
 10
97.973362241240125
 20
130.13378782820075
 11
98.055011924513479
 21
130.21543751147411
  0
LINE
  8
_1-8_下地など
  6
CONTINUOUS
 62
   23
 10
97.861826683713844
 20
130.1636736269129
 11
97.9434763669869
 21
130.24532331018594
  0
LINE
  8
_1-8_下地など
  6
CONTINUOUS
 62
   23
 10
97.750291126188472
 20
130.19355942562413
 11
97.831940809461628
 21
130.27520910889729
  0
LINE
  8
_1-8_下地など
  6
CONTINUOUS
 62
   23
 10
97.638755568663413
 20
130.22344522433568
 11
97.720405251936469
 21
130.30509490760875
  0
LINE
  8
_1-8_下地など
  6
CONTINUOUS
 62
   23
 10
97.527220011136819
 20
130.25333102304751
 11
97.60886969440989
 21
130.33498070632058
  0
LINE
  8
_1-8_下地など
  6
CONTINUOUS
 62
   23
 10
97.415684453611448
 20
130.28321682175874
 11
97.497334136884618
 21
130.3648665050319
  0
LINE
  8
_1-8_下地など
  6
CONTINUOUS
 62
   23
 10
97.304148896086701
 20
130.3131026204706
 11
97.385798579359459
 21
130.39475230374336
  0
LINE
  8
_1-8_下地など
  6
CONTINUOUS
 62
   23
 10
97.192613338559809
 20
130.34298841918215
 11
97.274263021832979
 21
130.4246381024553
  0
LINE
  8
_1-8_下地など
  6
CONTINUOUS
 62
   23
 10
97.081077781034651
 20
130.37287421789358
 11
97.162727464307807
 21
130.45452390116674
  0
LINE
  8
_1-8_下地など
  6
CONTINUOUS
 62
   23
 10
96.969542223508171
 20
130.40276001660553
 11
97.051191906781241
 21
130.4844096998786
  0
LINE
  8
_1-8_下地など
  6
CONTINUOUS
 62
   23
 10
96.858006665982799
 20
130.43264581531676
 11
96.939656349255955
 21
130.51429549858992
  0
LINE
  8
_1-8_下地など
  6
CONTINUOUS
 62
   23
 10
96.746471108457811
 20
130.46253161402839
 11
96.828120791730811
 21
130.54418129730138
  0
LINE
  8
_1-8_下地など
  6
CONTINUOUS
 62
   23
 10
96.634935550931147
 20
130.49241741274014
 11
96.716585234204302
 21
130.57406709601329
  0
LINE
  8
_1-8_下地など
  6
CONTINUOUS
 62
   23
 10
96.523399993405775
 20
130.52230321145137
 11
96.605049676679158
 21
130.60395289472476
  0
LINE
  8
_1-8_下地など
  6
CONTINUOUS
 62
   23
 10
96.411864435879494
 20
130.55218901016352
 11
96.493514119152593
 21
130.63383869343662
  0
LINE
  8
_1-8_下地など
  6
CONTINUOUS
 62
   23
 10
96.300328878354136
 20
130.58207480887478
 11
96.381978561627307
 21
130.66372449214794
  0
LINE
  8
_1-8_下地など
  6
CONTINUOUS
 62
   23
 10
96.188793320829063
 20
130.6119606075863
 11
96.270443004102162
 21
130.6936102908594
  0
LINE
  8
_1-8_下地など
  6
CONTINUOUS
 62
   23
 10
96.077257763302484
 20
130.64184640629816
 11
96.158907446575569
 21
130.72349608957123
  0
LINE
  8
_1-8_下地など
  6
CONTINUOUS
 62
   23
 10
95.965722205777126
 20
130.67173220500939
 11
96.047371889050282
 21
130.75338188828255
  0
LINE
  8
_1-8_下地など
  6
CONTINUOUS
 62
   23
 10
95.854186648251599
 20
130.70161800372136
 11
95.935836331524683
 21
130.78326768699446
  0
LINE
  8
_1-8_下地など
  6
CONTINUOUS
 62
   23
 10
95.742651090725474
 20
130.73150380243277
 11
95.82430077399863
 21
130.81315348570593
  0
LINE
  8
_1-8_下地など
  6
CONTINUOUS
 62
   23
 10
95.631115533200344
 20
130.76138960114423
 11
95.712765216473514
 21
130.84303928441742
  0
LINE
  8
_1-8_下地など
  6
CONTINUOUS
 62
   23
 10
95.519579975673821
 20
130.79127539985615
 11
95.60122965894692
 21
130.87292508312925
  0
LINE
  8
_1-8_下地など
  6
CONTINUOUS
 62
   23
 10
95.408044418148449
 20
130.82116119856738
 11
95.48969410142162
 21
130.90281088184054
  0
LINE
  8
_1-8_下地など
  6
CONTINUOUS
 62
   23
 10
95.296508860623447
 20
130.85104699727898
 11
95.37815854389649
 21
130.93269668055203
  0
LINE
  8
_1-8_下地など
  6
CONTINUOUS
 62
   23
 10
95.184973303096811
 20
130.88093279599076
 11
95.266622986369981
 21
130.96258247926394
  0
LINE
  8
_1-8_下地など
  6
CONTINUOUS
 62
   23
 10
95.073437745571681
 20
130.91081859470225
 11
95.155087428844851
 21
130.99246827797543
  0
LINE
  8
_1-8_下地など
  6
CONTINUOUS
 62
   23
 10
94.961902188045173
 20
130.94070439341417
 11
95.043551871318272
 21
131.02235407668726
  0
LINE
  8
_1-8_下地など
  6
CONTINUOUS
 62
   23
 10
94.850366630519801
 20
130.9705901921254
 11
94.932016313792957
 21
131.05223987539856
  0
LINE
  8
_1-8_下地など
  6
CONTINUOUS
 62
   23
 10
94.738831072994785
 20
131.000475990837
 11
94.820480756267841
 21
131.08212567411005
  0
LINE
  8
_1-8_下地など
  6
CONTINUOUS
 62
   23
 10
94.627295515468148
 20
131.03036178954878
 11
94.708945198741304
 21
131.11201147282193
  0
LINE
  8
_1-8_下地など
  6
CONTINUOUS
 62
   23
 10
94.515759957942777
 20
131.06024758826001
 11
94.597409641216203
 21
131.14189727153342
  0
LINE
  8
_1-8_下地など
  6
CONTINUOUS
 62
   23
 10
94.404224400416496
 20
131.09013338697216
 11
94.485874083689623
 21
131.17178307024528
  0
LINE
  8
_1-8_下地など
  6
CONTINUOUS
 62
   23
 10
94.292688842891138
 20
131.12001918568342
 11
94.374338526164308
 21
131.20166886895657
  0
LINE
  8
_1-8_下地など
  6
CONTINUOUS
 62
   23
 10
94.181153285366065
 20
131.14990498439494
 11
94.262802968639193
 21
131.23155466766806
  0
LINE
  8
_1-8_下地など
  6
CONTINUOUS
 62
   23
 10
94.069617727839486
 20
131.1797907831068
 11
94.151267411112599
 21
131.2614404663799
  0
LINE
  8
_1-8_下地など
  6
CONTINUOUS
 62
   23
 10
93.958082170314114
 20
131.20967658181803
 11
94.039731853587284
 21
131.29132626509119
  0
LINE
  8
_1-8_下地など
  6
CONTINUOUS
 62
   23
 10
93.846546612789354
 20
131.23956238052986
 11
93.928196296062168
 21
131.32121206380268
  0
LINE
  8
_1-8_下地など
  6
CONTINUOUS
 62
   23
 10
93.735011055262476
 20
131.26944817924141
 11
93.816660738535631
 21
131.35109786251456
  0
LINE
  8
_1-8_下地など
  6
CONTINUOUS
 62
   23
 10
93.62347549773736
 20
131.2993339779529
 11
93.70512518101053
 21
131.38098366122608
  0
LINE
  8
_1-8_下地など
  6
CONTINUOUS
 62
   23
 10
93.511939940210823
 20
131.32921977666479
 11
93.59358962348395
 21
131.41086945993794
  0
LINE
  8
_1-8_下地など
  6
CONTINUOUS
 62
   23
 10
93.400404382685451
 20
131.35910557537602
 11
93.482054065958636
 21
131.4407552586492
  0
LINE
  8
_1-8_下地など
  6
CONTINUOUS
 62
   23
 10
93.288868825160421
 20
131.3889913740876
 11
93.37051850843352
 21
131.47064105736069
  0
LINE
  8
_1-8_下地など
  6
CONTINUOUS
 62
   23
 10
93.177333267633799
 20
131.4188771727994
 11
93.258982950906983
 21
131.50052685607258
  0
LINE
  8
_1-8_下地など
  6
CONTINUOUS
 62
   23
 10
93.065797710108441
 20
131.44876297151063
 11
93.147447393381881
 21
131.5304126547841
  0
LINE
  8
_1-8_下地など
  6
CONTINUOUS
 62
   23
 10
92.95426215258216
 20
131.4786487702228
 11
93.035911835855302
 21
131.56029845349593
  0
LINE
  8
_1-8_下地など
  6
CONTINUOUS
 62
   23
 10
92.842726595056803
 20
131.50853456893404
 11
92.924376278329959
 21
131.59018425220719
  0
LINE
  8
_1-8_下地など
  6
CONTINUOUS
 62
   23
 10
92.73119103753173
 20
131.53842036764559
 11
92.812840720804871
 21
131.62007005091871
  0
LINE
  8
_1-8_下地など
  6
CONTINUOUS
 62
   23
 10
92.61965548000515
 20
131.56830616635742
 11
92.701305163278292
 21
131.64995584963057
  0
LINE
  8
_1-8_下地など
  6
CONTINUOUS
 62
   23
 10
92.508119922479779
 20
131.59819196506865
 11
92.589769605752963
 21
131.67984164834184
  0
LINE
  8
_1-8_下地など
  6
CONTINUOUS
 62
   23
 10
92.396584364953497
 20
131.62807776378079
 11
92.478234048226653
 21
131.70972744705395
  0
LINE
  8
_1-8_下地など
  6
CONTINUOUS
 62
   23
 10
92.285048807428126
 20
131.65796356249203
 11
92.36669849070131
 21
131.73961324576521
  0
LINE
  8
_1-8_下地など
  6
CONTINUOUS
 62
   23
 10
92.173513249903053
 20
131.68784936120358
 11
92.255162933176223
 21
131.76949904447673
  0
LINE
  8
_1-8_下地など
  6
CONTINUOUS
 62
   23
 10
92.061977692376487
 20
131.71773515991543
 11
92.143627375649643
 21
131.79938484318859
  0
LINE
  8
_1-8_下地など
  6
CONTINUOUS
 62
   23
 10
91.950442134851116
 20
131.74762095862667
 11
92.032091818124286
 21
131.82927064189983
  0
LINE
  8
_1-8_下地など
  6
CONTINUOUS
 62
   23
 10
91.838906577326071
 20
131.77750675733822
 11
91.920556260599213
 21
131.85915644061137
  0
LINE
  8
_1-8_下地など
  6
CONTINUOUS
 62
   23
 10
91.727371019799477
 20
131.80739255605005
 11
91.809020703072648
 21
131.8890422393232
  0
LINE
  8
_1-8_下地など
  6
CONTINUOUS
 62
   23
 10
91.61583546227439
 20
131.83727835476157
 11
91.697485145547574
 21
131.91892803803475
  0
LINE
  8
_1-8_下地など
  6
CONTINUOUS
 62
   23
 10
91.504299904747825
 20
131.86716415347342
 11
91.585949588020981
 21
131.94881383674658
  0
LINE
  8
_1-8_下地など
  6
CONTINUOUS
 62
   23
 10
91.392764347222453
 20
131.89704995218466
 11
91.474414030495637
 21
131.97869963545784
  0
LINE
  8
_1-8_下地など
  6
CONTINUOUS
 62
   23
 10
91.281228789697394
 20
131.92693575089621
 11
91.36287847297055
 21
132.00858543416936
  0
LINE
  8
_1-8_下地など
  6
CONTINUOUS
 62
   23
 10
91.1696932321708
 20
131.95682154960804
 11
91.251342915443985
 21
132.03847123288122
  0
LINE
  8
_1-8_下地など
  6
CONTINUOUS
 62
   23
 10
91.058157674645443
 20
131.98670734831927
 11
91.139807357918926
 21
132.06835703159277
  0
LINE
  8
_1-8_下地など
  6
CONTINUOUS
 62
   23
 10
90.946622117119162
 20
132.01659314703141
 11
91.028271800392332
 21
132.0982428303046
  0
LINE
  8
_1-8_下地など
  6
CONTINUOUS
 62
   23
 10
90.83508655959379
 20
132.04647894574268
 11
90.916736242866975
 21
132.12812862901586
  0
LINE
  8
_1-8_下地など
  6
CONTINUOUS
 62
   23
 10
90.723551002068575
 20
132.07636474445405
 11
90.805200685341759
 21
132.15801442772724
  0
LINE
  8
_e-e_
  6
CONTINUOUS
 62
    7
 10
156.92950325752412
 20
168.34827946491859
 11
161.92950325752409
 21
168.34827946491859
  0
TEXT
  8
_e-e_
 62
    7
 10
161.92950325752409
 20
166.34827946491859
 40
4
 41
1
 50
0
  1
ストレーナー
  0
LINE
  8
_e-e_
  6
CONTINUOUS
 62
    7
 10
156.92950325752412
 20
168.34827946491859
 11
146.92950325752412
 21
151.02777138922983
  0
LINE
  8
_e-e_
  6
CONTINUOUS
 62
    7
 10
80.103721427654762
 20
140.73723249042524
 11
85.103721427654762
 21
140.73723249042524
  0
LINE
  8
_e-e_
  6
CONTINUOUS
 62
    7
 10
85.10372142765479
 20
149.39748652826964
 11
80.103721427654762
 21
140.73723249042524
  0
LINE
  8
_e-e_
  6
CONTINUOUS
 62
    7
 10
85.10372142765479
 20
149.39748652826964
 11
90.10372142765479
 21
149.39748652826964
  0
TEXT
  8
_e-e_
 62
    7
 10
90.10372142765479
 20
147.39748652826964
 40
4
 41
1
 50
0
  1
リベットルーフ
  0
TEXT
  8
_e-e_
 62
    7
 10
85.103721427654762
 20
138.73723249042524
 40
4
 41
1
 50
0
  1
ＡＹボンド５８０ＮＦ
  0
LINE
  8
_e-e_
  6
CONTINUOUS
 62
    7
 10
80.103721427654762
 20
140.73723249042524
 11
75.103721427654762
 21
132.07697845258087
  0
LINE
  8
_1-b_その他
  6
CONTINUOUS
 62
    5
 10
160.60619191104232
 20
120.89523662394569
 11
160.68784179863113
 21
120.81358673635688
  0
LINE
  8
_1-b_その他
  6
CONTINUOUS
 62
    5
 10
160.71772787719712
 20
120.92512201402749
 11
160.79937776478619
 21
120.84347212643841
  0
LINE
  8
_1-b_その他
  6
CONTINUOUS
 62
    5
 10
160.82926384335192
 20
120.9550074041093
 11
160.91091373094073
 21
120.8733575165205
  0
LINE
  8
_1-b_その他
  6
CONTINUOUS
 62
    5
 10
160.94079980950849
 20
120.98489279419117
 11
161.02244969709727
 21
120.90324290660236
  0
LINE
  8
_1-b_その他
  6
CONTINUOUS
 62
    5
 10
161.05233577566329
 20
121.01477818427296
 11
161.1339856632521
 21
120.93312829668416
  0
LINE
  8
_1-b_その他
  6
CONTINUOUS
 62
    5
 10
161.16387174181958
 20
121.04466357435511
 11
161.24552162940839
 21
120.96301368676627
  0
LINE
  8
_1-b_その他
  6
CONTINUOUS
 62
    5
 10
161.27540770797438
 20
121.0745489644369
 11
161.35705759556345
 21
120.99289907684782
  0
LINE
  8
_1-b_その他
  6
CONTINUOUS
 62
    5
 10
161.38694367412918
 20
121.10443435451869
 11
161.46859356171828
 21
121.02278446692961
  0
LINE
  8
_1-b_その他
  6
CONTINUOUS
 62
    5
 10
161.49847964028575
 20
121.13431974460057
 11
161.58012952787456
 21
121.05266985701174
  0
LINE
  8
_1-b_その他
  6
CONTINUOUS
 62
    5
 10
161.61001560644056
 20
121.16420513468236
 11
161.69166549402962
 21
121.08255524709328
  0
LINE
  8
_1-b_その他
  6
CONTINUOUS
 62
    5
 10
161.72155157259539
 20
121.19409052476415
 11
161.80320146018417
 21
121.11244063717534
  0
LINE
  8
_1-b_その他
  6
CONTINUOUS
 62
    5
 10
161.83308753875164
 20
121.22397591484631
 11
161.91473742634071
 21
121.14232602725724
  0
LINE
  8
_1-b_その他
  6
CONTINUOUS
 62
    5
 10
161.94462350490647
 20
121.25386130492808
 11
162.02627339249554
 21
121.17221141733901
  0
LINE
  8
_1-b_その他
  6
CONTINUOUS
 62
    5
 10
162.05615947106298
 20
121.28374669500998
 11
162.13780935865185
 21
121.20209680742114
  0
LINE
  8
_1-b_その他
  6
CONTINUOUS
 62
    5
 10
162.16769543721782
 20
121.31363208509177
 11
162.24934532480688
 21
121.2319821975027
  0
LINE
  8
_1-b_その他
  6
CONTINUOUS
 62
    5
 10
162.27923140337265
 20
121.34351747517354
 11
162.36088129096146
 21
121.26186758758473
  0
LINE
  8
_1-b_その他
  6
CONTINUOUS
 62
    5
 10
162.39076736952916
 20
121.37340286525544
 11
162.47241725711797
 21
121.29175297766665
  0
LINE
  8
_1-b_その他
  6
CONTINUOUS
 62
    5
 10
162.50230333568399
 20
121.40328825533722
 11
162.5839532232728
 21
121.32163836774842
  0
LINE
  8
_1-b_その他
  6
CONTINUOUS
 62
    5
 10
162.61383930184024
 20
121.43317364541939
 11
162.69548918942911
 21
121.35152375783053
  0
LINE
  8
_1-b_その他
  6
CONTINUOUS
 62
    5
 10
162.72537526799508
 20
121.46305903550116
 11
162.80702515558414
 21
121.38140914791211
  0
LINE
  8
_1-b_その他
  6
CONTINUOUS
 62
    5
 10
162.83691123414994
 20
121.49294442558293
 11
162.91856112173872
 21
121.41129453799414
  0
LINE
  8
_1-b_その他
  6
CONTINUOUS
 62
    5
 10
162.94844720030642
 20
121.52282981566486
 11
163.03009708789523
 21
121.44117992807605
  0
LINE
  8
_1-b_その他
  6
CONTINUOUS
 62
    5
 10
163.05998316646128
 20
121.55271520574662
 11
163.14163305405032
 21
121.47106531815757
  0
LINE
  8
_1-b_その他
  6
CONTINUOUS
 62
    5
 10
163.1715191326175
 20
121.58260059582881
 11
163.25316902020643
 21
121.50095070823988
  0
LINE
  8
_1-b_その他
  6
CONTINUOUS
 62
    5
 10
163.28305509877237
 20
121.61248598591057
 11
163.3647049863614
 21
121.53083609832152
  0
LINE
  8
_1-b_その他
  6
CONTINUOUS
 62
    5
 10
163.3945910649272
 20
121.64237137599233
 11
163.47624095251624
 21
121.56072148840327
  0
LINE
  8
_1-b_その他
  6
CONTINUOUS
 62
    5
 10
163.50612703108368
 20
121.67225676607427
 11
163.58777691867255
 21
121.5906068784854
  0
LINE
  8
_1-b_その他
  6
CONTINUOUS
 62
    5
 10
163.61766299723854
 20
121.70214215615601
 11
163.69931288482758
 21
121.62049226856698
  0
LINE
  8
_1-b_その他
  6
CONTINUOUS
 62
    5
 10
163.72919896339337
 20
121.73202754623779
 11
163.81084885098218
 21
121.65037765864898
  0
LINE
  8
_1-b_その他
  6
CONTINUOUS
 62
    5
 10
163.84073492954963
 20
121.76191293631996
 11
163.92238481713866
 21
121.68026304873092
  0
LINE
  8
_1-b_その他
  6
CONTINUOUS
 62
    5
 10
163.95227089570449
 20
121.79179832640172
 11
164.03392078329352
 21
121.71014843881268
  0
LINE
  8
_1-b_その他
  6
CONTINUOUS
 62
    5
 10
164.06380686186094
 20
121.82168371648368
 11
164.14545674944981
 21
121.74003382889479
  0
LINE
  8
_1-b_その他
  6
CONTINUOUS
 62
    5
 10
164.1753428280158
 20
121.85156910656542
 11
164.25699271560484
 21
121.76991921897638
  0
LINE
  8
_1-b_その他
  6
CONTINUOUS
 62
    5
 10
164.28687879417066
 20
121.88145449664717
 11
164.36852868175947
 21
121.79980460905837
  0
LINE
  8
_1-b_その他
  6
CONTINUOUS
 62
    5
 10
164.39841476032711
 20
121.91133988672914
 11
164.48006464791592
 21
121.82968999914033
  0
LINE
  8
_1-b_その他
  6
CONTINUOUS
 62
    5
 10
164.50995072648197
 20
121.94122527681088
 11
164.59160061407079
 21
121.85957538922207
  0
LINE
  8
_1-b_その他
  6
CONTINUOUS
 62
    5
 10
164.6214866926382
 20
121.97111066689308
 11
164.70313658022707
 21
121.8894607793042
  0
LINE
  8
_1-b_その他
  6
CONTINUOUS
 62
    5
 10
164.73302265879306
 20
122.00099605697483
 11
164.8146725463821
 21
121.91934616938579
  0
LINE
  8
_1-b_その他
  6
CONTINUOUS
 62
    5
 10
164.84455862494792
 20
122.03088144705657
 11
164.92620851253696
 21
121.94923155946753
  0
LINE
  8
_1-b_その他
  6
CONTINUOUS
 62
    5
 10
164.95609459110437
 20
122.06076683713854
 11
165.03774447869327
 21
121.97911694954966
  0
LINE
  8
_1-b_その他
  6
CONTINUOUS
 62
    5
 10
165.06763055725924
 20
122.09065222722029
 11
165.14928044484827
 21
122.00900233963125
  0
LINE
  8
_1-b_その他
  6
CONTINUOUS
 62
    5
 10
165.17916652341546
 20
122.12053761730249
 11
165.26081641100444
 21
122.03888772971351
  0
LINE
  8
_1-b_その他
  6
CONTINUOUS
 62
    5
 10
165.29070248957032
 20
122.15042300738422
 11
165.37235237715936
 21
122.06877311979521
  0
LINE
  8
_1-b_その他
  6
CONTINUOUS
 62
    5
 10
165.40223845572521
 20
122.18030839746595
 11
165.48388834331422
 21
122.09865850987694
  0
LINE
  8
_1-b_その他
  6
CONTINUOUS
 62
    5
 10
165.51377442188164
 20
122.21019378754795
 11
165.59542430947053
 21
122.12854389995906
  0
LINE
  8
_1-b_その他
  6
CONTINUOUS
 62
    5
 10
165.6253103880365
 20
122.2400791776297
 11
165.70696027562553
 21
122.15842929004067
  0
LINE
  8
_1-b_その他
  6
CONTINUOUS
 62
    5
 10
165.73684635419139
 20
122.26996456771141
 11
165.8184962417802
 21
122.1883146801226
  0
LINE
  8
_1-b_その他
  6
CONTINUOUS
 62
    5
 10
165.84838232034781
 20
122.29984995779341
 11
165.93003220793662
 21
122.21820007020462
  0
LINE
  8
_1-b_その他
  6
CONTINUOUS
 62
    5
 10
165.95991828650267
 20
122.32973534787514
 11
166.04156817409148
 21
122.24808546028635
  0
LINE
  8
_1-b_その他
  6
CONTINUOUS
 62
    5
 10
166.0714542526589
 20
122.35962073795736
 11
166.15310414024779
 21
122.27797085036846
  0
LINE
  8
_1-b_その他
  6
CONTINUOUS
 62
    5
 10
166.18299021881376
 20
122.38950612803909
 11
166.26464010640279
 21
122.30785624045008
  0
LINE
  8
_1-b_その他
  6
CONTINUOUS
 62
    5
 10
166.29452618496867
 20
122.4193915181208
 11
166.37617607255766
 21
122.33774163053181
  0
LINE
  8
_1-b_その他
  6
CONTINUOUS
 62
    5
 10
166.40606215112507
 20
122.44927690820283
 11
166.48771203871388
 21
122.36762702061402
  0
LINE
  8
_1-b_その他
  6
CONTINUOUS
 62
    5
 10
166.51759811727996
 20
122.47916229828455
 11
166.59924800486897
 21
122.39751241069554
  0
LINE
  8
_1-b_その他
  6
CONTINUOUS
 62
    5
 10
166.62913408343616
 20
122.50904768836678
 11
166.71078397102517
 21
122.42739780077775
  0
LINE
  8
_1-b_その他
  6
CONTINUOUS
 62
    5
 10
166.74067004959105
 20
122.53893307844848
 11
166.82231993718005
 21
122.45728319085948
  0
LINE
  8
_1-b_その他
  6
CONTINUOUS
 62
    5
 10
166.85220601574594
 20
122.5688184685302
 11
166.93385590333492
 21
122.4871685809412
  0
LINE
  8
_1-b_その他
  6
CONTINUOUS
 62
    5
 10
166.96374198190233
 20
122.59870385861224
 11
167.04539186949123
 21
122.51705397102333
  0
LINE
  8
_1-b_その他
  6
CONTINUOUS
 62
    5
 10
167.07527794805722
 20
122.62858924869394
 11
167.1569278356462
 21
122.54693936110496
  0
LINE
  8
_1-b_その他
  6
CONTINUOUS
 62
    5
 10
167.18681391421342
 20
122.65847463877618
 11
167.26846380180243
 21
122.57682475118715
  0
LINE
  8
_1-b_その他
  6
CONTINUOUS
 62
    5
 10
167.29834988036831
 20
122.68836002885789
 11
167.37999976795729
 21
122.60671014126891
  0
LINE
  8
_1-b_その他
  6
CONTINUOUS
 62
    5
 10
167.4098858465232
 20
122.71824541893959
 11
167.4915357341122
 21
122.63659553135059
  0
LINE
  8
_1-b_その他
  6
CONTINUOUS
 62
    5
 10
167.52142181267959
 20
122.74813080902165
 11
167.60307170026852
 21
122.66648092143272
  0
LINE
  8
_1-b_その他
  6
CONTINUOUS
 62
    5
 10
167.63295777883448
 20
122.77801619910335
 11
167.71460766642346
 21
122.69636631151437
  0
LINE
  8
_1-b_その他
  6
CONTINUOUS
 62
    5
 10
167.7444937449894
 20
122.80790158918505
 11
167.82614363257818
 21
122.72625170159624
  0
LINE
  8
_1-b_その他
  6
CONTINUOUS
 62
    5
 10
167.85602971114577
 20
122.83778697926711
 11
167.93767959873455
 21
122.75613709167831
  0
LINE
  8
_1-b_その他
  6
CONTINUOUS
 62
    5
 10
167.96756567730066
 20
122.86767236934881
 11
168.04921556488947
 21
122.78602248176
  0
LINE
  8
_1-b_その他
  6
CONTINUOUS
 62
    5
 10
168.07910164345685
 20
122.89755775943105
 11
168.16075153104589
 21
122.815907871842
  0
LINE
  8
_1-b_その他
  6
CONTINUOUS
 62
    5
 10
168.19063760961174
 20
122.92744314951275
 11
168.27228749720072
 21
122.84579326192377
  0
LINE
  8
_1-b_その他
  6
CONTINUOUS
 62
    5
 10
168.30217357576666
 20
122.95732853959444
 11
168.38382346335564
 21
122.87567865200546
  0
LINE
  8
_1-b_その他
  6
CONTINUOUS
 62
    5
 10
168.413709541923
 20
122.98721392967653
 11
168.49535942951195
 21
122.90556404208758
  0
LINE
  8
_1-b_その他
  6
CONTINUOUS
 62
    5
 10
168.52524550807792
 20
123.01709931975822
 11
168.6068953956669
 21
122.93544943216924
  0
LINE
  8
_1-b_その他
  6
CONTINUOUS
 62
    5
 10
168.63678147423408
 20
123.04698470984047
 11
168.71843136182318
 21
122.96533482225138
  0
LINE
  8
_1-b_その他
  6
CONTINUOUS
 62
    5
 10
168.748317440389
 20
123.07687009992215
 11
168.82996732797798
 21
122.99522021233318
  0
LINE
  8
_1-b_その他
  6
CONTINUOUS
 62
    5
 10
168.85985340654395
 20
123.10675549000383
 11
168.9415032941329
 21
123.02510560241487
  0
LINE
  8
_1-b_その他
  6
CONTINUOUS
 62
    5
 10
168.97138937270026
 20
123.13664088008593
 11
169.05303926028921
 21
123.05499099249698
  0
LINE
  8
_1-b_その他
  6
CONTINUOUS
 62
    5
 10
169.0829253388552
 20
123.16652627016761
 11
169.16457522644416
 21
123.08487638257864
  0
LINE
  8
_1-b_その他
  6
CONTINUOUS
 62
    5
 10
169.19446130501012
 20
123.19641166024928
 11
169.27611119259893
 21
123.11476177266049
  0
LINE
  8
_1-b_その他
  6
CONTINUOUS
 62
    5
 10
169.30599727116643
 20
123.2262970503314
 11
169.38764715875524
 21
123.14464716274259
  0
LINE
  8
_1-b_その他
  6
CONTINUOUS
 62
    5
 10
169.41753323732138
 20
123.25618244041307
 11
169.49918312491019
 21
123.17453255282426
  0
LINE
  8
_1-b_その他
  6
CONTINUOUS
 62
    5
 10
169.52906920347752
 20
123.28606783049534
 11
169.61071909106647
 21
123.20441794290639
  0
LINE
  8
_1-b_その他
  6
CONTINUOUS
 62
    5
 10
169.64060516963247
 20
123.31595322057701
 11
169.72225505722142
 21
123.23430333298805
  0
LINE
  8
_1-b_その他
  6
CONTINUOUS
 62
    5
 10
169.75214113578738
 20
123.34583861065867
 11
169.83379102337636
 21
123.26418872306972
  0
LINE
  8
_1-b_その他
  6
CONTINUOUS
 62
    5
 10
169.86367710194369
 20
123.3757240007408
 11
169.9453269895325
 21
123.29407411315199
  0
LINE
  8
_1-b_その他
  6
CONTINUOUS
 62
    5
 10
169.97521306809864
 20
123.40560939082246
 11
170.05686295568759
 21
123.32395950323351
  0
LINE
  8
_1-b_その他
  6
CONTINUOUS
 62
    5
 10
170.08674903425478
 20
123.43549478090475
 11
170.1683989218439
 21
123.35384489331562
  0
LINE
  8
_1-b_その他
  6
CONTINUOUS
 62
    5
 10
170.19828500040973
 20
123.46538017098641
 11
170.27993488799868
 21
123.38373028339745
  0
LINE
  8
_1-b_その他
  6
CONTINUOUS
 62
    5
 10
170.30982096656467
 20
123.49526556106807
 11
170.39147085415362
 21
123.41361567347913
  0
LINE
  8
_1-b_その他
  6
CONTINUOUS
 62
    5
 10
170.42135693272095
 20
123.52515095115021
 11
170.50300682030991
 21
123.44350106356124
  0
LINE
  8
_1-b_その他
  6
CONTINUOUS
 62
    5
 10
170.5328928988759
 20
123.55503634123187
 11
170.61454278646485
 21
123.47338645364292
  0
LINE
  8
_1-b_その他
  6
CONTINUOUS
 62
    5
 10
170.64442886503204
 20
123.58492173131415
 11
170.72607875262116
 21
123.50327184372503
  0
LINE
  8
_1-b_その他
  6
CONTINUOUS
 62
    5
 10
170.75596483118699
 20
123.61480712139581
 11
170.83761471877594
 21
123.53315723380688
  0
LINE
  8
_1-b_その他
  6
CONTINUOUS
 62
    5
 10
170.86750079734193
 20
123.64469251147747
 11
170.94915068493088
 21
123.56304262388852
  0
LINE
  8
_1-b_その他
  6
CONTINUOUS
 62
    5
 10
170.97903676349821
 20
123.67457790155962
 11
171.0606866510872
 21
123.59292801397065
  0
LINE
  8
_1-b_その他
  6
CONTINUOUS
 62
    5
 10
171.09057272965316
 20
123.70446329164128
 11
171.17222261724211
 21
123.62281340405234
  0
LINE
  8
_1-b_その他
  6
CONTINUOUS
 62
    5
 10
171.20210869580814
 20
123.73434868172292
 11
171.28375858339695
 21
123.65269879413411
  0
LINE
  8
_1-b_その他
  6
CONTINUOUS
 62
    5
 10
171.31364466196439
 20
123.76423407180508
 11
171.3952945495532
 21
123.68258418421628
  0
LINE
  8
_1-b_その他
  6
CONTINUOUS
 62
    5
 10
171.42518062811934
 20
123.79411946188674
 11
171.50683051570815
 21
123.71246957429793
  0
LINE
  8
_1-b_その他
  6
CONTINUOUS
 62
    5
 10
171.53671659427548
 20
123.82400485196902
 11
171.61836648186463
 21
123.74235496437987
  0
LINE
  8
_1-b_その他
  6
CONTINUOUS
 62
    5
 10
171.64825256043042
 20
123.85389024205067
 11
171.72990244801935
 21
123.77224035446174
  0
LINE
  8
_1-b_その他
  6
CONTINUOUS
 62
    5
 10
171.7597885265854
 20
123.88377563213231
 11
171.84143841417432
 21
123.80212574454339
  0
LINE
  8
_1-b_その他
  6
CONTINUOUS
 62
    5
 10
171.87132449274165
 20
123.91366102221448
 11
171.95297438033063
 21
123.8320111346255
  0
LINE
  8
_1-b_その他
  6
CONTINUOUS
 62
    5
 10
171.9828604588966
 20
123.94354641229613
 11
172.06451034648552
 21
123.86189652470721
  0
LINE
  8
_1-b_その他
  6
CONTINUOUS
 62
    5
 10
172.09439642505274
 20
123.97343180237843
 11
172.17604631264192
 21
123.89178191478926
  0
LINE
  8
_1-b_その他
  6
CONTINUOUS
 62
    5
 10
172.20593239120768
 20
124.00331719246007
 11
172.28758227879661
 21
123.92166730487115
  0
LINE
  8
_1-b_その他
  6
CONTINUOUS
 62
    5
 10
172.31746835736266
 20
124.0332025825417
 11
172.39911824495158
 21
123.95155269495278
  0
LINE
  8
_1-b_その他
  6
CONTINUOUS
 62
    5
 10
172.42900432351888
 20
124.0630879726239
 11
172.51065421110789
 21
123.98143808503491
  0
LINE
  8
_1-b_その他
  6
CONTINUOUS
 62
    5
 10
172.54054028967388
 20
124.09297336270552
 11
172.62219017726278
 21
124.01132347511661
  0
LINE
  8
_1-b_その他
  6
CONTINUOUS
 62
    5
 10
172.65207625583017
 20
124.12285875278765
 11
172.73372614341918
 21
124.04120886519866
  0
LINE
  8
_1-b_その他
  6
CONTINUOUS
 62
    5
 10
172.76361222198506
 20
124.15274414286937
 11
172.84526210957387
 21
124.07109425528057
  0
LINE
  8
_1-b_その他
  6
CONTINUOUS
 62
    5
 10
172.87514818814006
 20
124.18262953295098
 11
172.95679807572887
 21
124.10097964536219
  0
LINE
  8
_1-b_その他
  6
CONTINUOUS
 62
    5
 10
172.98668415429614
 20
124.21251492303331
 11
173.06833404188515
 21
124.13086503544432
  0
LINE
  8
_1-b_その他
  6
CONTINUOUS
 62
    5
 10
173.09822012045115
 20
124.24240031311493
 11
173.17987000804004
 21
124.16075042552603
  0
LINE
  8
_1-b_その他
  6
CONTINUOUS
 62
    5
 10
173.20975608660612
 20
124.27228570319656
 11
173.29140597419504
 21
124.19063581560765
  0
LINE
  8
_1-b_その他
  6
CONTINUOUS
 62
    5
 10
173.32129205276232
 20
124.30217109327877
 11
173.40294194035135
 21
124.22052120568976
  0
LINE
  8
_1-b_その他
  6
CONTINUOUS
 62
    5
 10
173.43282801891732
 20
124.33205648336039
 11
173.51447790650622
 21
124.25040659577149
  0
LINE
  8
_1-b_その他
  6
CONTINUOUS
 62
    5
 10
173.5443639850734
 20
124.36194187344272
 11
173.62601387266264
 21
124.28029198585349
  0
LINE
  8
_1-b_その他
  6
CONTINUOUS
 62
    5
 10
173.65589995122841
 20
124.39182726352433
 11
173.7375498388173
 21
124.31017737593544
  0
LINE
  8
_1-b_その他
  6
CONTINUOUS
 62
    5
 10
173.76743591738341
 20
124.42171265360594
 11
173.8490858049723
 21
124.34006276601704
  0
LINE
  8
_1-b_その他
  6
CONTINUOUS
 62
    5
 10
173.87897188353958
 20
124.45159804368818
 11
173.96062177112861
 21
124.36994815609917
  0
LINE
  8
_1-b_その他
  6
CONTINUOUS
 62
    5
 10
173.99050784969458
 20
124.4814834337698
 11
174.07215773728348
 21
124.3998335461809
  0
LINE
  8
_1-b_その他
  6
CONTINUOUS
 62
    5
 10
174.10204381585066
 20
124.51136882385214
 11
174.1836937034399
 21
124.4297189362629
  0
LINE
  8
_1-b_その他
  6
CONTINUOUS
 62
    5
 10
174.21357978200575
 20
124.54125421393366
 11
174.29522966959456
 21
124.45960432634485
  0
LINE
  8
_1-b_その他
  6
CONTINUOUS
 62
    5
 10
174.32511574816075
 20
124.57113960401526
 11
174.40676563574957
 21
124.48948971642645
  0
LINE
  8
_1-b_その他
  6
CONTINUOUS
 62
    5
 10
174.43665171431684
 20
124.6010249940976
 11
174.51830160190588
 21
124.51937510650856
  0
LINE
  8
_1-b_その他
  6
CONTINUOUS
 62
    5
 10
174.54818768047184
 20
124.6309103841792
 11
174.62983756806074
 21
124.54926049659031
  0
LINE
  8
_1-b_その他
  6
CONTINUOUS
 62
    5
 10
174.65972364662684
 20
124.66079577426079
 11
174.74137353421565
 21
124.57914588667199
  0
LINE
  8
_1-b_その他
  6
CONTINUOUS
 62
    5
 10
174.77125961278301
 20
124.69068116434306
 11
174.85290950037182
 21
124.60903127675425
  0
LINE
  8
_1-b_その他
  6
CONTINUOUS
 62
    5
 10
174.88279557893804
 20
124.72056655442465
 11
174.96444546652683
 21
124.63891666683585
  0
LINE
  8
_1-b_その他
  6
CONTINUOUS
 62
    5
 10
174.9943315450941
 20
124.75045194450701
 11
175.07598143268336
 21
124.66880205691774
  0
LINE
  8
_1-b_その他
  6
CONTINUOUS
 62
    5
 10
175.10586751124913
 20
124.78033733458859
 11
175.187517398838
 21
124.69868744699971
  0
LINE
  8
_1-b_その他
  6
CONTINUOUS
 62
    5
 10
175.21740347740413
 20
124.81022272467018
 11
175.299053364993
 21
124.72857283708132
  0
LINE
  8
_1-b_その他
  6
CONTINUOUS
 62
    5
 10
175.32893944356027
 20
124.84010811475247
 11
175.41058933114931
 21
124.75845822716343
  0
LINE
  8
_1-b_その他
  6
CONTINUOUS
 62
    5
 10
175.4404754097153
 20
124.86999350483406
 11
175.52212529730417
 21
124.78834361724518
  0
LINE
  8
_1-b_その他
  6
CONTINUOUS
 62
    5
 10
175.55201137587136
 20
124.89987889491641
 11
175.63366126346062
 21
124.81822900732713
  0
LINE
  8
_1-b_その他
  6
CONTINUOUS
 62
    5
 10
175.66354734202639
 20
124.929764284998
 11
175.74519722961526
 21
124.84811439740912
  0
LINE
  8
_1-b_その他
  6
CONTINUOUS
 62
    5
 10
175.77508330818139
 20
124.95964967507958
 11
175.85673319577029
 21
124.87799978749071
  0
LINE
  8
_1-b_その他
  6
CONTINUOUS
 62
    5
 10
175.88661927433753
 20
124.98953506516187
 11
175.96826916192657
 21
124.90788517757284
  0
LINE
  8
_1-b_その他
  6
CONTINUOUS
 62
    5
 10
175.99815524049257
 20
125.01942045524345
 11
176.07980512808143
 21
124.93777056765458
  0
LINE
  8
_1-b_その他
  6
CONTINUOUS
 62
    5
 10
176.1096912066491
 20
125.04930584532534
 11
176.19134109423791
 21
124.96765595773653
  0
LINE
  8
_1-b_その他
  6
CONTINUOUS
 62
    5
 10
176.22122717280371
 20
125.07919123540734
 11
176.30287706039252
 21
124.99754134781854
  0
LINE
  8
_1-b_その他
  6
CONTINUOUS
 62
    5
 10
176.33276313895874
 20
125.10907662548891
 11
176.41441302654755
 21
125.02742673790011
  0
LINE
  8
_1-b_その他
  6
CONTINUOUS
 62
    5
 10
176.44429910511479
 20
125.13896201557128
 11
176.52594899270383
 21
125.05731212798223
  0
LINE
  8
_1-b_その他
  6
CONTINUOUS
 62
    5
 10
176.55583507126983
 20
125.16884740565285
 11
176.63748495885869
 21
125.087197518064
  0
LINE
  8
_1-b_その他
  6
CONTINUOUS
 62
    5
 10
176.66737103742486
 20
125.19873279573443
 11
176.74902092501372
 21
125.11708290814556
  0
LINE
  8
_1-b_その他
  6
CONTINUOUS
 62
    5
 10
176.77890700358097
 20
125.22861818581674
 11
176.86055689117003
 21
125.14696829822769
  0
LINE
  8
_1-b_その他
  6
CONTINUOUS
 62
    5
 10
176.890442969736
 20
125.25850357589832
 11
176.97209285732487
 21
125.17685368830946
  0
LINE
  8
_1-b_その他
  6
CONTINUOUS
 62
    5
 10
177.00197893589205
 20
125.28838896598069
 11
177.08362882348138
 21
125.20673907839138
  0
LINE
  8
_1-b_その他
  6
CONTINUOUS
 62
    5
 10
177.11351490204709
 20
125.31827435606226
 11
177.19516478963595
 21
125.23662446847341
  0
LINE
  8
_1-b_その他
  6
CONTINUOUS
 62
    5
 10
177.22505086820215
 20
125.34815974614382
 11
177.30670075579098
 21
125.26650985855497
  0
LINE
  8
_1-b_その他
  6
CONTINUOUS
 62
    5
 10
177.33658683435823
 20
125.37804513622615
 11
177.4182367219473
 21
125.29639524863708
  0
LINE
  8
_1-b_その他
  6
CONTINUOUS
 62
    5
 10
177.44812280051326
 20
125.40793052630772
 11
177.52977268810213
 21
125.32628063871887
  0
LINE
  8
_1-b_その他
  6
CONTINUOUS
 62
    5
 10
177.55965876666932
 20
125.43781591639011
 11
177.64130865425864
 21
125.35616602880077
  0
LINE
  8
_1-b_その他
  6
CONTINUOUS
 62
    5
 10
177.6711947328244
 20
125.46770130647162
 11
177.75284462041321
 21
125.38605141888281
  0
LINE
  8
_1-b_その他
  6
CONTINUOUS
 62
    5
 10
177.78273069897944
 20
125.49758669655317
 11
177.86438058656825
 21
125.41593680896437
  0
LINE
  8
_1-b_その他
  6
CONTINUOUS
 62
    5
 10
177.89426666513549
 20
125.52747208663557
 11
177.97591655272456
 21
125.44582219904649
  0
LINE
  8
_1-b_その他
  6
CONTINUOUS
 62
    5
 10
178.00580263129052
 20
125.55735747671712
 11
178.08745251887936
 21
125.47570758912828
  0
LINE
  8
_1-b_その他
  6
CONTINUOUS
 62
    5
 10
178.11733859744712
 20
125.58724286679896
 11
178.1989884850359
 21
125.50559297921016
  0
LINE
  8
_1-b_その他
  6
CONTINUOUS
 62
    5
 10
178.22887456360166
 20
125.61712825688103
 11
178.31052445119045
 21
125.53547836929222
  0
LINE
  8
_1-b_その他
  6
CONTINUOUS
 62
    5
 10
178.3404105297567
 20
125.64701364696258
 11
178.42206041734551
 21
125.56536375937378
  0
LINE
  8
_1-b_その他
  6
CONTINUOUS
 62
    5
 10
178.45194649591275
 20
125.67689903704498
 11
178.5335963835021
 21
125.59524914945561
  0
LINE
  8
_1-b_その他
  6
CONTINUOUS
 62
    5
 10
178.56348246206781
 20
125.70678442712652
 11
178.64513234965662
 21
125.6251345395377
  0
LINE
  8
_1-b_その他
  6
CONTINUOUS
 62
    5
 10
178.67501842822287
 20
125.73666981720805
 11
178.75666831581168
 21
125.65501992961923
  0
LINE
  8
_1-b_その他
  6
CONTINUOUS
 62
    5
 10
178.78655439437892
 20
125.76655520729044
 11
178.86820428196799
 21
125.68490531970136
  0
LINE
  8
_1-b_その他
  6
CONTINUOUS
 62
    5
 10
178.89809036053398
 20
125.79644059737197
 11
178.97974024812279
 21
125.71479070978316
  0
LINE
  8
_1-b_その他
  6
CONTINUOUS
 62
    5
 10
179.00962632669001
 20
125.82632598745438
 11
179.09127621427936
 21
125.744676099865
  0
LINE
  8
_1-b_その他
  6
CONTINUOUS
 62
    5
 10
179.12116229284507
 20
125.85621137753591
 11
179.20281218043388
 21
125.7745614899471
  0
LINE
  8
_1-b_その他
  6
CONTINUOUS
 62
    5
 10
179.23269825900013
 20
125.88609676761746
 11
179.31434814658897
 21
125.80444688002864
  0
LINE
  8
_1-b_その他
  6
CONTINUOUS
 62
    5
 10
179.34423422515616
 20
125.91598215769984
 11
179.42588411274525
 21
125.83433227011075
  0
LINE
  8
_1-b_その他
  6
CONTINUOUS
 62
    5
 10
179.45577019131125
 20
125.94586754778138
 11
179.53742007890006
 21
125.86421766019257
  0
LINE
  8
_1-b_その他
  6
CONTINUOUS
 62
    5
 10
179.56730615746784
 20
125.97575293786321
 11
179.64895604505665
 21
125.8941030502744
  0
LINE
  8
_1-b_その他
  6
CONTINUOUS
 62
    5
 10
179.67884212362233
 20
126.00563832794532
 11
179.76049201121114
 21
125.92398844035651
  0
LINE
  8
_1-b_その他
  6
CONTINUOUS
 62
    5
 10
179.79037808977742
 20
126.03552371802684
 11
179.87202797736623
 21
125.95387383043803
  0
LINE
  8
_1-b_その他
  6
CONTINUOUS
 62
    5
 10
179.90191405593342
 20
126.06540910810926
 11
179.98356394352254
 21
125.98375922052016
  0
LINE
  8
_1-b_その他
  6
CONTINUOUS
 62
    5
 10
180.01345002208851
 20
126.09529449819078
 11
180.09509990967732
 21
126.01364461060197
  0
LINE
  8
_1-b_その他
  6
CONTINUOUS
 62
    5
 10
180.1249859882451
 20
126.1251798882726
 11
180.20663587583391
 21
126.0435300006838
  0
LINE
  8
_1-b_その他
  6
CONTINUOUS
 62
    5
 10
180.23652195439959
 20
126.15506527835473
 11
180.31817184198871
 21
126.07341539076562
  0
LINE
  8
_1-b_その他
  6
CONTINUOUS
 62
    5
 10
160.64054854476902
 20
120.80091479394571
 11
180.34437240111265
 21
126.08043567271363
  0
LINE
  8
_1-b_その他
  6
CONTINUOUS
 62
    5
 10
160.61466711050218
 20
120.89750750257473
 11
180.31849096684579
 21
126.17702838134264
  0
LINE
  8
_1-b_その他
  6
CONTINUOUS
 62
    5
 10
132.88440581371825
 20
120.77948358085304
 11
113.12243072663556
 21
126.07458573151268
  0
LINE
  8
_1-b_その他
  6
CONTINUOUS
 62
    5
 10
132.91028724798511
 20
120.87607628948206
 11
113.14831216090241
 21
126.17117844014172
  0
LINE
  8
_1-b_その他
  6
CONTINUOUS
 62
    5
 10
113.20073133906948
 20
126.15713303719899
 11
113.34215150283093
 21
126.01571287343754
  0
LINE
  8
_1-b_その他
  6
CONTINUOUS
 62
    5
 10
113.39391512737394
 20
126.10537060513295
 11
113.53533529113359
 21
125.9639504413733
  0
LINE
  8
_1-b_その他
  6
CONTINUOUS
 62
    5
 10
113.58709891567477
 20
126.05360817306874
 11
113.72851907943532
 21
125.9121880093082
  0
LINE
  8
_1-b_その他
  6
CONTINUOUS
 62
    5
 10
113.78028270397562
 20
126.0018457410045
 11
113.92170286773617
 21
125.86042557724394
  0
LINE
  8
_1-b_その他
  6
CONTINUOUS
 62
    5
 10
113.97346649228005
 20
125.95008330893849
 11
114.11488665603969
 21
125.80866314517885
  0
LINE
  8
_1-b_その他
  6
CONTINUOUS
 62
    5
 10
114.16665028058
 20
125.89832087687513
 11
114.30807044434141
 21
125.75690071311372
  0
LINE
  8
_1-b_その他
  6
CONTINUOUS
 62
    5
 10
114.35983406888442
 20
125.84655844480913
 11
114.50125423264497
 21
125.70513828104859
  0
LINE
  8
_1-b_その他
  6
CONTINUOUS
 62
    5
 10
114.55301785718525
 20
125.79479601274492
 11
114.6944380209458
 21
125.65337584898438
  0
LINE
  8
_1-b_その他
  6
CONTINUOUS
 62
    5
 10
114.74620164548614
 20
125.74303358068065
 11
114.8876218092467
 21
125.60161341692009
  0
LINE
  8
_1-b_その他
  6
CONTINUOUS
 62
    5
 10
114.93938543379053
 20
125.69127114861467
 11
115.08080559755017
 21
125.54985098485504
  0
LINE
  8
_1-b_その他
  6
CONTINUOUS
 62
    5
 10
115.13256922209054
 20
125.63950871655128
 11
115.27398938585191
 21
125.49808855278991
  0
LINE
  8
_1-b_その他
  6
CONTINUOUS
 62
    5
 10
115.32575301039502
 20
125.58774628448522
 11
115.46717317415556
 21
125.44632612072468
  0
LINE
  8
_1-b_その他
  6
CONTINUOUS
 62
    5
 10
115.51893679869653
 20
125.53598385242032
 11
115.66035696245628
 21
125.39456368866057
  0
LINE
  8
_1-b_その他
  6
CONTINUOUS
 62
    5
 10
115.71212058699666
 20
125.48422142035677
 11
115.85354075075722
 21
125.34280125659623
  0
LINE
  8
_1-b_その他
  6
CONTINUOUS
 62
    5
 10
115.90530437530103
 20
125.43245898829085
 11
116.04672453906079
 21
125.29103882453109
  0
LINE
  8
_1-b_その他
  6
CONTINUOUS
 62
    5
 10
116.09848816360184
 20
125.38069655622664
 11
116.23990832736239
 21
125.2392763924661
  0
LINE
  8
_1-b_その他
  6
CONTINUOUS
 62
    5
 10
116.2916719519028
 20
125.32893412416229
 11
116.43309211566336
 21
125.18751396040173
  0
LINE
  8
_1-b_その他
  6
CONTINUOUS
 62
    5
 10
116.48485574020712
 20
125.27717169209637
 11
116.62627590396676
 21
125.13575152833675
  0
LINE
  8
_1-b_その他
  6
CONTINUOUS
 62
    5
 10
116.6780395285072
 20
125.22540926003292
 11
116.8194596922685
 21
125.08398909627162
  0
LINE
  8
_1-b_その他
  6
CONTINUOUS
 62
    5
 10
116.87122331681149
 20
125.17364682796703
 11
117.01264348057205
 21
125.03222666420649
  0
LINE
  8
_1-b_その他
  6
CONTINUOUS
 62
    5
 10
117.06440710511232
 20
125.12188439590282
 11
117.20582726887287
 21
124.98046423214227
  0
LINE
  8
_1-b_その他
  6
CONTINUOUS
 62
    5
 10
117.25759089341334
 20
125.07012196383842
 11
117.39901105717388
 21
124.92870180007786
  0
LINE
  8
_1-b_その他
  6
CONTINUOUS
 62
    5
 10
117.45077468171762
 20
125.01835953177256
 11
117.59219484547724
 21
124.87693936801293
  0
LINE
  8
_1-b_その他
  6
CONTINUOUS
 62
    5
 10
117.64395847001772
 20
124.96659709970905
 11
117.78537863377898
 21
124.82517693594781
  0
LINE
  8
_1-b_その他
  6
CONTINUOUS
 62
    5
 10
117.8371422583222
 20
124.91483466764301
 11
117.97856242208275
 21
124.77341450388245
  0
LINE
  8
_1-b_その他
  6
CONTINUOUS
 62
    5
 10
118.03032604662349
 20
124.86307223557831
 11
118.17174621038335
 21
124.72165207181845
  0
LINE
  8
_1-b_その他
  6
CONTINUOUS
 62
    5
 10
118.22350983492386
 20
124.81130980351455
 11
118.36492999868442
 21
124.669889639754
  0
LINE
  8
_1-b_その他
  6
CONTINUOUS
 62
    5
 10
118.4166936232281
 20
124.75954737144875
 11
118.55811378698772
 21
124.61812720768911
  0
LINE
  8
_1-b_その他
  6
CONTINUOUS
 62
    5
 10
118.60987741152891
 20
124.70778493938454
 11
118.75129757528946
 21
124.56636477562398
  0
LINE
  8
_1-b_その他
  6
CONTINUOUS
 62
    5
 10
118.80306119983274
 20
124.65602250731914
 11
118.94448136359328
 21
124.51460234355859
  0
LINE
  8
_1-b_その他
  6
CONTINUOUS
 62
    5
 10
118.99624498813421
 20
124.60426007525427
 11
119.13766515189383
 21
124.46283991149465
  0
LINE
  8
_1-b_その他
  6
CONTINUOUS
 62
    5
 10
119.18942877643438
 20
124.55249764319069
 11
119.33084894019557
 21
124.41107747942951
  0
LINE
  8
_1-b_その他
  6
CONTINUOUS
 62
    5
 10
119.38261256473858
 20
124.50073521112493
 11
119.52403272849912
 21
124.35931504736439
  0
LINE
  8
_1-b_その他
  6
CONTINUOUS
 62
    5
 10
119.57579635303939
 20
124.44897277906071
 11
119.71721651679994
 21
124.30755261530017
  0
LINE
  8
_1-b_その他
  6
CONTINUOUS
 62
    5
 10
119.76898014134052
 20
124.39721034699619
 11
119.91040030510108
 21
124.25579018323565
  0
LINE
  8
_1-b_その他
  6
CONTINUOUS
 62
    5
 10
119.96216392964469
 20
124.34544791493046
 11
120.10358409340432
 21
124.20402775117083
  0
LINE
  8
_1-b_その他
  6
CONTINUOUS
 62
    5
 10
120.15534771794492
 20
124.29368548286683
 11
120.29676788170605
 21
124.15226531910571
  0
LINE
  8
_1-b_その他
  6
CONTINUOUS
 62
    5
 10
120.34853150624906
 20
124.24192305080112
 11
120.4899516700096
 21
124.10050288704058
  0
LINE
  8
_1-b_その他
  6
CONTINUOUS
 62
    5
 10
120.54171529454987
 20
124.1901606187369
 11
120.68313545831042
 21
124.04874045497635
  0
LINE
  8
_1-b_その他
  6
CONTINUOUS
 62
    5
 10
120.73489908285106
 20
124.13839818667233
 11
120.8763192466116
 21
123.99697802291178
  0
LINE
  8
_1-b_その他
  6
CONTINUOUS
 62
    5
 10
120.92808287115517
 20
124.08663575460665
 11
121.0695030349148
 21
123.94521559084701
  0
LINE
  8
_1-b_その他
  6
CONTINUOUS
 62
    5
 10
121.12126665945544
 20
124.03487332254298
 11
121.26268682321654
 21
123.89345315878188
  0
LINE
  8
_1-b_その他
  6
CONTINUOUS
 62
    5
 10
121.31445044775992
 20
123.98311089047692
 11
121.45587061152048
 21
123.84169072671637
  0
LINE
  8
_1-b_その他
  6
CONTINUOUS
 62
    5
 10
121.50763423606089
 20
123.93134845841256
 11
121.64905439982091
 21
123.78992829465254
  0
LINE
  8
_1-b_その他
  6
CONTINUOUS
 62
    5
 10
121.70081802436158
 20
123.87958602634848
 11
121.84223818812212
 21
123.73816586258792
  0
LINE
  8
_1-b_その他
  6
CONTINUOUS
 62
    5
 10
121.89400181266566
 20
123.82782359428282
 11
122.0354219764257
 21
123.68640343052279
  0
LINE
  8
_1-b_その他
  6
CONTINUOUS
 62
    5
 10
122.08718560096648
 20
123.77606116221861
 11
122.22860576472701
 21
123.63464099845807
  0
LINE
  8
_1-b_その他
  6
CONTINUOUS
 62
    5
 10
122.28036938926772
 20
123.72429873015398
 11
122.42178955302828
 21
123.58287856639342
  0
LINE
  8
_1-b_その他
  6
CONTINUOUS
 62
    5
 10
122.47355317757176
 20
123.67253629808835
 11
122.61497334133139
 21
123.53111613432873
  0
LINE
  8
_1-b_その他
  6
CONTINUOUS
 62
    5
 10
122.6667369658721
 20
123.62077386602462
 11
122.80815712963313
 21
123.47935370226359
  0
LINE
  8
_1-b_その他
  6
CONTINUOUS
 62
    5
 10
122.85992075417613
 20
123.56901143395901
 11
123.00134091793669
 21
123.42759127019846
  0
LINE
  8
_1-b_その他
  6
CONTINUOUS
 62
    5
 10
123.05310454247696
 20
123.5172490018948
 11
123.1945247062375
 21
123.37582883813425
  0
LINE
  8
_1-b_その他
  6
CONTINUOUS
 62
    5
 10
123.24628833077824
 20
123.46548656983012
 11
123.3877084945388
 21
123.32406640606956
  0
LINE
  8
_1-b_その他
  6
CONTINUOUS
 62
    5
 10
123.43947211908224
 20
123.41372413776453
 11
123.58089228284187
 21
123.2723039740049
  0
LINE
  8
_1-b_その他
  6
CONTINUOUS
 62
    5
 10
123.63265590738264
 20
123.36196170570075
 11
123.77407607114361
 21
123.22054154193978
  0
LINE
  8
_1-b_その他
  6
CONTINUOUS
 62
    5
 10
123.82583969568711
 20
123.31019927363471
 11
123.96725985944767
 21
123.16877910987415
  0
LINE
  8
_1-b_その他
  6
CONTINUOUS
 62
    5
 10
124.01902348398785
 20
123.25843684157057
 11
124.16044364774798
 21
123.11701667781044
  0
LINE
  8
_1-b_その他
  6
CONTINUOUS
 62
    5
 10
124.21220727228877
 20
123.20667440950626
 11
124.35362743604932
 21
123.06525424574571
  0
LINE
  8
_1-b_その他
  6
CONTINUOUS
 62
    5
 10
124.40539106059273
 20
123.15491197744072
 11
124.54681122435235
 21
123.0134918136811
  0
LINE
  8
_1-b_その他
  6
CONTINUOUS
 62
    5
 10
124.59857484889355
 20
123.10314954537651
 11
124.73999501265409
 21
122.96172938161597
  0
LINE
  8
_1-b_その他
  6
CONTINUOUS
 62
    5
 10
124.79175863719765
 20
123.05138711331084
 11
124.93317880095819
 21
122.9099669495503
  0
LINE
  8
_1-b_その他
  6
CONTINUOUS
 62
    5
 10
124.98494242549884
 20
122.99962468124625
 11
125.12636258925846
 21
122.85820451748663
  0
LINE
  8
_1-b_その他
  6
CONTINUOUS
 62
    5
 10
125.1781262137993
 20
122.94786224918239
 11
125.3195463775602
 21
122.80644208542149
  0
LINE
  8
_1-b_その他
  6
CONTINUOUS
 62
    5
 10
125.37131000210321
 20
122.89609981711691
 11
125.51273016586376
 21
122.75467965335636
  0
LINE
  8
_1-b_その他
  6
CONTINUOUS
 62
    5
 10
125.56449379040403
 20
122.84433738505268
 11
125.70591395416457
 21
122.70291722129215
  0
LINE
  8
_1-b_その他
  6
CONTINUOUS
 62
    5
 10
125.75767757870543
 20
122.79257495298789
 11
125.89909774246598
 21
122.65115478922735
  0
LINE
  8
_1-b_その他
  6
CONTINUOUS
 62
    5
 10
125.95086136700932
 20
122.74081252092243
 11
126.09228153076896
 21
122.5993923571628
  0
LINE
  8
_1-b_その他
  6
CONTINUOUS
 62
    5
 10
126.14404515530983
 20
122.68905008885852
 11
126.28546531907068
 21
122.54762992509768
  0
LINE
  8
_1-b_その他
  6
CONTINUOUS
 62
    5
 10
126.3372289436137
 20
122.63728765679309
 11
126.47864910737424
 21
122.49586749303255
  0
LINE
  8
_1-b_その他
  6
CONTINUOUS
 62
    5
 10
126.53041273191481
 20
122.58552522472857
 11
126.67183289567507
 21
122.44410506096833
  0
LINE
  8
_1-b_その他
  6
CONTINUOUS
 62
    5
 10
126.72359652021596
 20
122.53376279266404
 11
126.86501668397651
 21
122.39234262890348
  0
LINE
  8
_1-b_その他
  6
CONTINUOUS
 62
    5
 10
126.9167803085198
 20
122.48200036059862
 11
127.05820047227942
 21
122.34058019683899
  0
LINE
  8
_1-b_その他
  6
CONTINUOUS
 62
    5
 10
127.10996409682036
 20
122.43023792853467
 11
127.25138426058116
 21
122.28881776477385
  0
LINE
  8
_1-b_その他
  6
CONTINUOUS
 62
    5
 10
127.30314788512483
 20
122.37847549646861
 11
127.44456804888539
 21
122.23705533270807
  0
LINE
  8
_1-b_その他
  6
CONTINUOUS
 62
    5
 10
127.49633167342525
 20
122.3267130644048
 11
127.63775183718553
 21
122.18529290064451
  0
LINE
  8
_1-b_その他
  6
CONTINUOUS
 62
    5
 10
127.6895154617265
 20
122.27495063234016
 11
127.83093562548704
 21
122.13353046857962
  0
LINE
  8
_1-b_その他
  6
CONTINUOUS
 62
    5
 10
127.88269925003029
 20
122.22318820027481
 11
128.0241194137906
 21
122.08176803651449
  0
LINE
  8
_1-b_その他
  6
CONTINUOUS
 62
    5
 10
128.07588303833111
 20
122.17142576821058
 11
128.21730320209164
 21
122.03000560445004
  0
LINE
  8
_1-b_その他
  6
CONTINUOUS
 62
    5
 10
128.26906682663264
 20
122.11966333614568
 11
128.41048699039317
 21
121.97824317238512
  0
LINE
  8
_1-b_その他
  6
CONTINUOUS
 62
    5
 10
128.46225061493641
 20
122.06790090408033
 11
128.60367077869603
 21
121.9264807403207
  0
LINE
  8
_1-b_その他
  6
CONTINUOUS
 62
    5
 10
128.65543440323702
 20
122.01613847201631
 11
128.79685456699775
 21
121.87471830825557
  0
LINE
  8
_1-b_その他
  6
CONTINUOUS
 62
    5
 10
128.84861819154077
 20
121.96437603995099
 11
128.99003835530132
 21
121.82295587619043
  0
LINE
  8
_1-b_その他
  6
CONTINUOUS
 62
    5
 10
129.04180197984158
 20
121.91261360788677
 11
129.18322214360214
 21
121.77119344412623
  0
LINE
  8
_1-b_その他
  6
CONTINUOUS
 62
    5
 10
129.23498576814316
 20
121.86085117582181
 11
129.37640593190372
 21
121.71943101206126
  0
LINE
  8
_1-b_その他
  6
CONTINUOUS
 62
    5
 10
129.42816955644687
 20
121.80908874375652
 11
129.56958972020652
 21
121.66766857999689
  0
LINE
  8
_1-b_その他
  6
CONTINUOUS
 62
    5
 10
129.62135334474755
 20
121.75732631169245
 11
129.76277350850825
 21
121.61590614793175
  0
LINE
  8
_1-b_その他
  6
CONTINUOUS
 62
    5
 10
129.81453713305203
 20
121.7055638796264
 11
129.95595729681258
 21
121.56414371586585
  0
LINE
  8
_1-b_その他
  6
CONTINUOUS
 62
    5
 10
130.00772092135222
 20
121.65380144756281
 11
130.1491410851126
 21
121.51238128380241
  0
LINE
  8
_1-b_その他
  6
CONTINUOUS
 62
    5
 10
130.20090470965368
 20
121.60203901549795
 11
130.34232487341424
 21
121.46061885173739
  0
LINE
  8
_1-b_その他
  6
CONTINUOUS
 62
    5
 10
130.39408849795737
 20
121.55027658343269
 11
130.53550866171778
 21
121.40885641967226
  0
LINE
  8
_1-b_その他
  6
CONTINUOUS
 62
    5
 10
130.58727228625818
 20
121.49851415136848
 11
130.72869245001871
 21
121.35709398760794
  0
LINE
  8
_1-b_その他
  6
CONTINUOUS
 62
    5
 10
130.78045607456255
 20
121.44675171930254
 11
130.92187623832311
 21
121.30533155554198
  0
LINE
  8
_1-b_その他
  6
CONTINUOUS
 62
    5
 10
130.97363986286348
 20
121.39498928723822
 11
131.1150600266231
 21
121.2535691234786
  0
LINE
  8
_1-b_その他
  6
CONTINUOUS
 62
    5
 10
131.16682365116421
 20
121.34322685517409
 11
131.30824381492482
 21
121.20180669141347
  0
LINE
  8
_1-b_その他
  6
CONTINUOUS
 62
    5
 10
131.36000743946784
 20
121.29146442310888
 11
131.50142760322839
 21
121.15004425934833
  0
LINE
  8
_1-b_その他
  6
CONTINUOUS
 62
    5
 10
131.55319122776865
 20
121.23970199104467
 11
131.69461139152921
 21
121.09828182728413
  0
LINE
  8
_1-b_その他
  6
CONTINUOUS
 62
    5
 10
131.74637501607035
 20
121.18793955897959
 11
131.8877951798309
 21
121.04651939521904
  0
LINE
  8
_1-b_その他
  6
CONTINUOUS
 62
    5
 10
131.93955880437395
 20
121.1361771269144
 11
132.08097896813359
 21
120.99475696315477
  0
LINE
  8
_1-b_その他
  6
CONTINUOUS
 62
    5
 10
132.13274259267473
 20
121.08441469485022
 11
132.27416275643532
 21
120.94299453108965
  0
LINE
  8
_1-b_その他
  6
CONTINUOUS
 62
    5
 10
132.32592638097833
 20
121.03265226278506
 11
132.46734654473977
 21
120.89123209902363
  0
LINE
  8
_1-b_その他
  6
CONTINUOUS
 62
    5
 10
132.51911016927917
 20
120.98088983072083
 11
132.6605303330397
 21
120.8394696669603
  0
LINE
  8
_1-b_その他
  6
CONTINUOUS
 62
    5
 10
132.71229395758087
 20
120.92912739865574
 11
132.85371412134143
 21
120.78770723489518
  0
LINE
  8
_1-4_リベットル__フ
  6
CONTINUOUS
 62
    6
 10
132.83004706253487
 20
120.89751483839538
 11
90.743250366760037
 21
132.17461393009529
  0
LINE
  8
_1-4_リベットル__フ
  6
CONTINUOUS
 62
    6
 10
132.90769262127924
 20
121.18729262775695
 11
132.83004706253487
 21
120.89751483839538
  0
LINE
  8
_1-4_リベットル__フ
  6
CONTINUOUS
 62
    6
 10
160.60779192159072
 20
120.88926534286801
 11
202.72500704902666
 21
132.17461393009529
  0
LINE
  8
_1-4_リベットル__フ
  6
CONTINUOUS
 62
    6
 10
160.53014572784986
 20
121.17904296208241
 11
160.60619191104232
 21
120.89523662394569
  0
LINE
  8
_1-2_ハッチング
  6
CONTINUOUS
 62
    4
 10
160.34880179863103
 20
121.19454673635697
 11
160.59800179863106
 21
121.44366673635697
  0
LINE
  8
_1-2_ハッチング
  6
CONTINUOUS
 62
    4
 10
160.74427386651047
 20
121.23641880423644
 11
161.001121798631
 21
121.49326673635697
  0
LINE
  8
_1-2_ハッチング
  6
CONTINUOUS
 62
    4
 10
160.98579971207928
 20
121.30113588849335
 11
161.12968179863105
 21
121.44510673635698
  0
ARC
  8
_1-2_ハッチング
  6
CONTINUOUS
 62
    4
 10
160.86520179863101
 20
120.93462673635698
 40
0.57496
 50
49.155744766332965
 51
139.26200000000003
  0
ARC
  8
_1-2_ハッチング
  6
CONTINUOUS
 62
    4
 10
132.67635412134095
 20
120.9087472348956
 40
0.57496
 50
40.738000000000007
 51
130.10392761348606
  0
LINE
  8
_1-2_ハッチング
  6
CONTINUOUS
 62
    4
 10
132.3689380563527
 20
121.33165116990735
 11
132.48995412134096
 21
121.4526672348956
  0
LINE
  8
_1-2_ハッチング
  6
CONTINUOUS
 62
    4
 10
132.50837588310819
 20
121.29428899666286
 11
132.69739412134095
 21
121.48330723489561
  0
LINE
  8
_1-2_ハッチング
  6
CONTINUOUS
 62
    4
 10
132.64774983725138
 20
121.25694393799668
 11
132.84827412134095
 21
121.45738723489561
  0
LINE
  8
_1-2_ハッチング
  6
CONTINUOUS
 62
    4
 10
132.78725200230176
 20
121.21956452539489
 11
132.97043412134096
 21
121.4028272348956
  0
LINE
  8
_1-2_ハッチング
  6
CONTINUOUS
 62
    4
 10
132.89890551425029
 20
121.15449862780495
 11
133.07115412134095
 21
121.32674723489561
  0
LINE
  8
_1-2_ハッチング
  6
CONTINUOUS
 62
    4
 10
132.83418327196378
 20
120.91295141511692
 11
133.15035412134097
 21
121.2292272348956
  0
LINE
  8
_1-2_ハッチング
  6
CONTINUOUS
 62
    4
 10
132.87895179329206
 20
120.78094495276355
 11
133.22315412134097
 21
121.1252272348956
  0
LINE
  8
_1-2_ハッチング
  6
CONTINUOUS
 62
    4
 10
133.01838988745368
 20
120.74358335560407
 11
133.29595412134097
 21
121.0212272348956
  0
LINE
  8
_1-2_ハッチング
  6
CONTINUOUS
 62
    4
 10
133.15776473282745
 20
120.70623870557621
 11
133.36875412134097
 21
120.9173072348956
  0
LINE
  8
_1-2_ハッチング
  6
CONTINUOUS
 62
    4
 10
133.43657899140484
 20
120.63153210495952
 11
133.51435412134097
 21
120.7093072348956
  0
LINE
  8
_1-2_ハッチング
  6
CONTINUOUS
 62
    4
 10
133.29720232613505
 20
120.66887724261755
 11
133.44155412134097
 21
120.8133072348956
  0
LINE
  8
_1-2_ハッチング
  6
CONTINUOUS
 62
    4
 10
133.57599674480076
 20
120.59417595798566
 11
133.58715412134097
 21
120.6053872348956
  0
LINE
  8
_1-2_ハッチング
  6
CONTINUOUS
 62
    4
 10
133.11203412134097
 20
121.28394723489561
 11
133.5993876029948
 21
120.58790851847198
  0
LINE
  8
_1-2_ハッチング
  6
CONTINUOUS
 62
    4
 10
159.94582208818784
 20
120.61476702591376
 11
160.84008179863105
 21
121.50902673635697
  0
LINE
  8
_1-2_ハッチング
  6
CONTINUOUS
 62
    4
 10
160.42952179863101
 20
121.30982673635698
 11
159.94216831697716
 21
120.61378801993332
  0
LINE
  8
_1-2_ハッチング
  6
CONTINUOUS
 62
    4
 10
160.18733365815535
 20
120.67947859588129
 11
160.56327155898742
 21
121.05541649671339
  0
LINE
  8
_1-2_ハッチング
  6
CONTINUOUS
 62
    4
 10
160.4288452281229
 20
120.74419016584882
 11
160.60063399051566
 21
120.91597892824161
  0
LINE
  8
_1-2_ハッチング
  6
CONTINUOUS
 62
    4
 10
160.67024751683698
 20
120.80887245456296
 11
160.68140179863101
 21
120.82002673635699
  0
LINE
  8
_1-4_リベットル__フ
  6
CONTINUOUS
 62
    6
 10
201.52640722394995
 20
132.4746139300953
 11
226.56039530303025
 21
132.4746139300953
  0
LINE
  8
_1-4_リベットル__フ
  6
CONTINUOUS
 62
    6
 10
91.941859336758355
 20
132.4746139300953
 11
66.923115303030144
 21
132.4746139300953
  0
LINE
  8
_1-4_リベットル__フ
  6
CONTINUOUS
 62
    6
 10
160.53014572784986
 20
121.17904296208241
 11
201.56590322610973
 21
132.17461393009529
  0
LINE
  8
_1-4_リベットル__フ
  6
CONTINUOUS
 62
    6
 10
201.56590322610973
 20
132.17461393009529
 11
226.56039530303025
 21
132.17461393009529
  0
LINE
  8
_1-4_リベットル__フ
  6
CONTINUOUS
 62
    6
 10
91.902363668994184
 20
132.17461393009529
 11
66.923115303030144
 21
132.17461393009529
  0
LINE
  8
_1-4_リベットル__フ
  6
CONTINUOUS
 62
    6
 10
132.90769262127924
 20
121.18729262775695
 11
91.902363668994184
 21
132.17461393009529
  0
LINE
  8
_1-4_リベットル__フ
  6
CONTINUOUS
 62
    6
 10
92.902363668994184
 20
131.59608250049979
 11
92.981717819669484
 21
131.88540247501146
  0
LINE
  8
_1-4_リベットル__フ
  6
CONTINUOUS
 62
    6
 10
101.90236366899418
 20
129.49512773084459
 11
101.98171781966948
 21
129.78444770535623
  0
LINE
  8
_1-4_リベットル__フ
  6
CONTINUOUS
 62
    6
 10
101.98171781966948
 20
129.78444770535623
 11
91.941859336758355
 21
132.4746139300953
  0
LINE
  8
_1-4_リベットル__フ
  6
CONTINUOUS
 62
    6
 10
200.56590322610973
 20
131.90666296151676
 11
200.64399756886823
 21
131.61700542426573
  0
LINE
  8
_1-4_リベットル__フ
  6
CONTINUOUS
 62
    6
 10
191.48780888335119
 20
129.78476178156092
 11
191.56590322610973
 21
129.49510424430989
  0
LINE
  8
_1-4_リベットル__フ
  6
CONTINUOUS
 62
    6
 10
191.48780888335119
 20
129.78476178156092
 11
201.52640722394995
 21
132.4746139300953
  0
ARC
  8
_1-2_ハッチング
  6
CONTINUOUS
 62
    4
 10
191.7722088833512
 20
129.52036178156089
 40
0.57496
 50
50.643000000000008
 51
139.26200000000003
  0
LINE
  8
_1-2_ハッチング
  6
CONTINUOUS
 62
    4
 10
191.33652888335121
 20
129.8955617815609
 11
190.93308888335116
 21
129.31948178156091
  0
LINE
  8
_1-4_リベットル__フ
  6
CONTINUOUS
 62
    6
 10
191.48780888335119
 20
129.78476178156092
 11
191.56804888335117
 21
129.49572178156092
  0
ARC
  8
_1-2_ハッチング
  6
CONTINUOUS
 62
    4
 10
101.69739781966948
 20
129.52004770535626
 40
0.57496
 50
40.738000000000007
 51
129.35700000000003
  0
LINE
  8
_1-2_ハッチング
  6
CONTINUOUS
 62
    4
 10
102.13299781966947
 20
129.89524770535624
 11
102.53643781966946
 21
129.31916770535622
  0
LINE
  8
_1-d_設備②
  6
CONTINUOUS
 62
   83
 10
138.76601950379481
 20
125.78059173985119
 11
138.46606269971812
 21
124.66495457995134
  0
LINE
  8
_1-d_設備②
  6
CONTINUOUS
 62
   83
 10
138.76601950379481
 20
125.78059173985119
 11
140.34476143018688
 21
148.35728107043457
  0
LINE
  8
_1-d_設備②
  6
CONTINUOUS
 62
   83
 10
142.92246752635
 20
152.38928715226973
 11
142.32247464319062
 21
149.98315198791312
  0
LINE
  8
_1-d_設備②
  6
CONTINUOUS
 62
   83
 10
141.38817905959081
 20
143.2092513630451
 11
152.05679136522096
 21
143.2092513630451
  0
LINE
  8
_1-d_設備②
  6
CONTINUOUS
 62
   83
 10
141.23436572913565
 20
141.00923121437384
 11
152.21062451442762
 21
141.00923121437384
  0
LINE
  8
_1-d_設備②
  6
CONTINUOUS
 62
   83
 10
142.24621208738705
 20
142.99144328396994
 11
141.38817905959081
 21
143.2092513630451
  0
LINE
  8
_1-d_設備②
  6
CONTINUOUS
 62
   83
 10
142.47860676757227
 20
141.60034529685754
 11
142.54682291026347
 21
142.5758440648429
  0
LINE
  8
_1-d_設備②
  6
CONTINUOUS
 62
   83
 10
142.17480512570302
 20
141.23976293191726
 11
141.23436572913565
 21
141.00923121437384
  0
LINE
  8
_1-d_設備②
  6
CONTINUOUS
 62
   83
 10
142.40603049954922
 20
142.90924501208966
 11
151.03892010651106
 21
142.90924501208966
  0
LINE
  8
_1-d_設備②
  6
CONTINUOUS
 62
   83
 10
142.32088914306996
 20
141.30921774657776
 11
151.12406146299031
 21
141.30921774657776
  0
LINE
  8
_1-d_設備②
  6
CONTINUOUS
 62
   83
 10
140.248402660354
 20
126.90923000074044
 11
153.19658758320935
 21
126.90923000074044
  0
LINE
  8
_1-d_設備②
  6
CONTINUOUS
 62
   83
 10
140.12247431327089
 20
125.10925135126226
 11
153.32251593029247
 21
125.10925135126226
  0
LINE
  8
_1-d_設備②
  6
CONTINUOUS
 62
   83
 10
140.16445042896521
 20
125.70926405317316
 11
153.28050017709506
 21
125.70926405317316
  0
LINE
  8
_1-d_設備②
  6
CONTINUOUS
 62
   83
 10
140.16445042896521
 20
126.30923711758103
 11
153.28050017709506
 21
126.30923711758103
  0
LINE
  8
_1-d_設備②
  6
CONTINUOUS
 62
   83
 10
140.12247431327089
 20
125.10877570122607
 11
140.16445042896521
 21
125.70926405317316
  0
LINE
  8
_1-d_設備②
  6
CONTINUOUS
 62
   83
 10
140.20642654465959
 20
126.30923711758103
 11
141.74138884897008
 21
148.25962417237787
  0
LINE
  8
_1-d_設備②
  6
CONTINUOUS
 62
   83
 10
160.72252064343192
 20
124.16124119161881
 11
160.42250438310072
 21
122.96121578779702
  0
LINE
  8
_1-d_設備②
  6
CONTINUOUS
 62
   83
 10
160.42250438310072
 20
122.96121578779702
 11
159.82251149994136
 21
123.36713354681231
  0
LINE
  8
_1-d_設備②
  6
CONTINUOUS
 62
   83
 10
154.678911283514
 20
125.78059173985119
 11
154.97890772509368
 21
124.66495457995134
  0
LINE
  8
_1-d_設備②
  6
CONTINUOUS
 62
   83
 10
159.82251149994136
 20
123.36713354681231
 11
153.32251593029247
 21
125.10877570122607
  0
LINE
  8
_1-d_設備②
  6
CONTINUOUS
 62
   83
 10
154.678911283514
 20
125.78059173985119
 11
153.1001891758734
 21
148.35728107043457
  0
LINE
  8
_1-d_設備②
  6
CONTINUOUS
 62
   83
 10
150.52248307971027
 20
152.38928715226973
 11
151.12249578162118
 21
149.98315198791312
  0
LINE
  8
_1-d_設備②
  6
CONTINUOUS
 62
   83
 10
151.19877815617625
 20
142.99144328396994
 11
152.05679136522096
 21
143.2092513630451
  0
LINE
  8
_1-d_設備②
  6
CONTINUOUS
 62
   83
 10
150.96634383848806
 20
141.60034529685754
 11
150.89816733329982
 21
142.5758440648429
  0
LINE
  8
_1-d_設備②
  6
CONTINUOUS
 62
   83
 10
151.27016529910881
 20
141.23976293191726
 11
152.21062451442762
 21
141.00923121437384
  0
LINE
  8
_1-d_設備②
  6
CONTINUOUS
 62
   83
 10
153.32251593029247
 20
125.10877570122607
 11
153.28050017709506
 21
125.70926405317316
  0
LINE
  8
_1-d_設備②
  6
CONTINUOUS
 62
   83
 10
162.92252097335168
 20
124.16124119161881
 11
162.72249031437937
 21
124.3612520318396
  0
LINE
  8
_1-d_設備②
  6
CONTINUOUS
 62
   83
 10
160.72252064343192
 20
124.16124119161881
 11
160.52247016570809
 21
124.3612520318396
  0
LINE
  8
_1-d_設備②
  6
CONTINUOUS
 62
   83
 10
153.23852406140068
 20
126.30923711758103
 11
151.70364103209627
 21
148.25962417237787
  0
LINE
  8
_1-d_設備②
  6
CONTINUOUS
 62
   83
 10
162.72249031437937
 20
124.3612520318396
 11
159.97610682412991
 21
124.3612520318396
  0
LINE
  8
_1-d_設備②
  6
CONTINUOUS
 62
   83
 10
159.97610682412991
 20
124.3612520318396
 11
154.678911283514
 21
125.78059173985119
  0
LINE
  8
_1-d_設備②
  6
CONTINUOUS
 62
   83
 10
162.67926561733998
 20
123.18845759259008
 11
162.92252097335168
 21
124.16124119161881
  0
LINE
  8
_1-d_設備②
  6
CONTINUOUS
 62
   83
 10
132.72248941888287
 20
124.16124119161881
 11
133.02248586046258
 21
122.96121578779702
  0
LINE
  8
_1-d_設備②
  6
CONTINUOUS
 62
   83
 10
130.52248908896311
 20
124.16124119161881
 11
130.7224602916809
 21
124.3612520318396
  0
LINE
  8
_1-d_設備②
  6
CONTINUOUS
 62
   83
 10
132.72248941888287
 20
124.16124119161881
 11
132.92252007785518
 21
124.3612520318396
  0
LINE
  8
_1-d_設備②
  6
CONTINUOUS
 62
   83
 10
130.7656849887203
 20
123.18845759259008
 11
130.52248908896311
 21
124.16124119161881
  0
LINE
  8
_1-d_設備②
  6
CONTINUOUS
 62
   83
 10
159.42248981949973
 20
124.50957556812702
 11
159.12247355916853
 21
123.55467839233444
  0
LINE
  8
_1-d_設備②
  6
CONTINUOUS
 62
   83
 10
134.02246078656057
 20
124.50957556812702
 11
134.32247704689175
 21
123.55467839233444
  0
LINE
  8
_1-d_設備②
  6
CONTINUOUS
 62
   83
 10
130.7224602916809
 20
124.3612520318396
 11
133.46890323818488
 21
124.3612520318396
  0
LINE
  8
_1-d_設備②
  6
CONTINUOUS
 62
   83
 10
133.02248586046258
 20
122.96121578779702
 11
133.62247874362197
 21
123.36713354681231
  0
LINE
  8
_1-d_設備②
  6
CENTER1
 62
   83
 10
161.92250640975072
 20
125.57019587384008
 11
161.92250640975072
 21
121.54109323910086
  0
LINE
  8
_1-d_設備②
  6
CENTER1
 62
   83
 10
131.5224838338126
 20
125.57019587384008
 11
131.5224838338126
 21
121.54109323910086
  0
LINE
  8
_1-d_設備②
  6
CONTINUOUS
 62
   83
 10
133.46890323818488
 20
124.3612520318396
 11
134.92248974880266
 21
124.75073013647884
  0
LINE
  8
_1-d_設備②
  6
CONTINUOUS
 62
   83
 10
136.52247737681151
 20
125.17942955035281
 11
138.76601950379481
 21
125.78059173985119
  0
LINE
  8
_1-d_設備②
  6
CONTINUOUS
 62
   83
 10
133.62247874362197
 20
123.36713354681231
 11
134.92248974880266
 21
123.71545801394475
  0
LINE
  8
_1-d_設備②
  6
CONTINUOUS
 62
   83
 10
136.52247737681151
 20
124.14416733719449
 11
140.12247431327089
 21
125.10877570122607
  0
LINE
  8
_1-d_設備②
  6
CONTINUOUS
 62
   83
 10
132.75842081536726
 20
122.96121578779702
 11
133.02248586046258
 21
122.96121578779702
  0
LINE
  8
_1-d_設備②
  6
CONTINUOUS
 62
   83
 10
137.22247568008129
 20
122.96121578779702
 11
160.68654960944454
 21
122.96121578779702
  0
ARC
  8
_1-d_設備②
  6
CONTINUOUS
 62
   83
 10
145.33258625975978
 20
148.00850077201744
 40
3.6000003428072533
 50
102.5430908203125
 51
175.99998474121094
  0
ARC
  8
_1-d_設備②
  6
CONTINUOUS
 62
   83
 10
146.72247530303017
 20
141.76123392160116
 40
10.00000071138949
 50
77.456924438476563
 51
102.54307556152345
  0
ARC
  8
_1-d_設備②
  6
CONTINUOUS
 62
   83
 10
146.72247530303017
 20
141.76123392160116
 40
11.400001033944973
 50
77.456924438476563
 51
102.54307556152345
  0
ARC
  8
_1-d_設備②
  6
CONTINUOUS
 62
   83
 10
145.33258625975978
 20
148.00850077201744
 40
5.0000003556947448
 50
102.5430908203125
 51
175.99998474121094
  0
ARC
  8
_1-d_設備②
  6
CONTINUOUS
 62
   83
 10
142.14783180490031
 20
142.60374886696644
 40
0.4000000036821402
 50
356.00018310546875
 51
75.757965087890625
  0
ARC
  8
_1-d_設備②
  6
CONTINUOUS
 62
   83
 10
142.07961566220908
 20
141.62826000835685
 40
0.4000000036821402
 50
283.77217102050781
 51
355.99978637695312
  0
ARC
  8
_1-d_設備②
  6
CONTINUOUS
 62
   83
 10
140.16445042896521
 20
126.00920103849833
 40
0.3000000027616052
 50
90
 51
270
  0
ARC
  8
_1-d_設備②
  6
CONTINUOUS
 62
   83
 10
148.11240398380355
 20
148.00850077201744
 40
3.6000003428072533
 50
4.0000152587890625
 51
77.4569091796875
  0
ARC
  8
_1-d_設備②
  6
CONTINUOUS
 62
   83
 10
148.11240398380355
 20
148.00850077201744
 40
5.0000003556947448
 50
4.0000152587890625
 51
77.4569091796875
  0
ARC
  8
_1-d_設備②
  6
CONTINUOUS
 62
   83
 10
151.29713861991149
 20
142.60374886696644
 40
0.4000000036821402
 50
104.24203491210937
 51
183.99981689453125
  0
ARC
  8
_1-d_設備②
  6
CONTINUOUS
 62
   83
 10
151.36537458135422
 20
141.62826000835685
 40
0.4000000036821402
 50
184.00021362304687
 51
256.22782897949219
  0
ARC
  8
_1-d_設備②
  6
CONTINUOUS
 62
   83
 10
153.28050017709506
 20
126.00920103849833
 40
0.3000000027616052
 50
270
 51
90
  0
ARC
  8
_1-d_設備②
  6
CONTINUOUS
 62
   83
 10
162.38824707019353
 20
123.26123204812822
 40
0.3000000027616052
 50
296.58119201660156
 51
345.96376037597656
  0
ARC
  8
_1-d_設備②
  6
CONTINUOUS
 62
   83
 10
131.0567431733698
 20
123.26123204812822
 40
0.3000000027616052
 50
194.03623962402347
 51
243.41880798339847
  0
LINE
  8
_1-9_下地鋼板
  6
CONTINUOUS
 62
    3
 10
136.92245941975008
 20
121.86119580408564
 11
136.72244857952927
 21
121.0612218088327
  0
LINE
  8
_1-9_下地鋼板
  6
CONTINUOUS
 62
    3
 10
162.52249929291008
 20
122.1525611793835
 11
162.52249929291008
 21
121.7192043589051
  0
LINE
  8
_1-9_下地鋼板
  6
CONTINUOUS
 62
    3
 10
161.32247388908829
 20
122.1525611793835
 11
161.32247388908829
 21
121.39767484381173
  0
LINE
  8
_1-9_下地鋼板
  6
CONTINUOUS
 62
    3
 10
162.34849065466804
 20
121.97856245051722
 11
162.34849065466804
 21
121.67259065535779
  0
LINE
  8
_1-9_下地鋼板
  6
CONTINUOUS
 62
    3
 10
161.49652216483335
 20
121.97856245051722
 11
161.49652216483335
 21
121.44428854735904
  0
LINE
  8
_1-9_下地鋼板
  6
CONTINUOUS
 62
    3
 10
132.12247671697196
 20
122.1525611793835
 11
132.12247671697196
 21
121.39767484381173
  0
LINE
  8
_1-9_下地鋼板
  6
CONTINUOUS
 62
    3
 10
130.92247113190166
 20
122.1525611793835
 11
130.92247113190166
 21
121.7192043589051
  0
LINE
  8
_1-9_下地鋼板
  6
CONTINUOUS
 62
    3
 10
131.94846807872995
 20
121.97856245051722
 11
131.94846807872995
 21
121.44428854735904
  0
LINE
  8
_1-9_下地鋼板
  6
CONTINUOUS
 62
    3
 10
131.09649958889523
 20
121.97856245051722
 11
131.09649958889523
 21
121.67259065535779
  0
LINE
  8
_1-9_下地鋼板
  6
CONTINUOUS
 62
    3
 10
119.22249099778458
 20
125.06123051635788
 11
119.3224765991435
 21
125.26803918834599
  0
LINE
  8
_1-9_下地鋼板
  6
CONTINUOUS
 62
    3
 10
120.76886890296376
 20
125.26803918834599
 11
119.3224765991435
 21
125.26803918834599
  0
LINE
  8
_1-9_下地鋼板
  6
CONTINUOUS
 62
    3
 10
136.72244857952927
 20
121.0612218088327
 11
136.82245399963969
 21
120.86122087798765
  0
LINE
  8
_1-9_下地鋼板
  6
CONTINUOUS
 62
    3
 10
134.52252752461555
 20
121.86119580408564
 11
134.72253836483634
 21
121.0612218088327
  0
LINE
  8
_1-9_下地鋼板
  6
CONTINUOUS
 62
    3
 10
134.72253836483634
 20
121.0612218088327
 11
134.62255276347747
 21
120.86122087798765
  0
LINE
  8
_1-9_下地鋼板
  6
CONTINUOUS
 62
    3
 10
174.22249924577866
 20
125.06123051635788
 11
174.12249382566827
 21
125.26803918834599
  0
LINE
  8
_1-9_下地鋼板
  6
CONTINUOUS
 62
    3
 10
172.67608170309649
 20
125.26803918834599
 11
174.12249382566827
 21
125.26803918834599
  0
LINE
  8
_1-9_下地鋼板
  6
PHANTOM2
 62
    3
 10
174.01832646774116
 20
124.79946444643753
 11
174.27422618721511
 21
124.86803732665591
  0
LINE
  8
_1-9_下地鋼板
  6
PHANTOM2
 62
    3
 10
119.42664395707061
 20
124.79946444643753
 11
119.17072441884514
 21
124.86803732665591
  0
LINE
  8
_1-9_下地鋼板
  6
CONTINUOUS
 62
    3
 10
138.1793051841459
 20
121.63396390866831
 11
138.32249566379267
 21
121.0612218088327
  0
LINE
  8
_1-9_下地鋼板
  6
CONTINUOUS
 62
    3
 10
138.32249566379267
 20
121.0612218088327
 11
157.72251659013193
 21
121.0612218088327
  0
LINE
  8
_1-9_下地鋼板
  6
CONTINUOUS
 62
    3
 10
137.88826681824793
 20
121.86119580408564
 11
133.48354929554941
 21
121.86119580408564
  0
LINE
  8
_1-9_下地鋼板
  6
CONTINUOUS
 62
    3
 10
134.12464626933684
 20
120.86122087798765
 11
119.60267410796646
 21
124.75229581784799
  0
LINE
  8
_1-9_下地鋼板
  6
CONTINUOUS
 62
    3
 10
134.92248974880263
 20
120.86122087798765
 11
134.12464626933684
 21
120.86122087798765
  0
LINE
  8
_1-9_下地鋼板
  6
CONTINUOUS
 62
    3
 10
159.32032415547494
 20
120.86122087798765
 11
173.84229631684528
 21
124.75229581784799
  0
LINE
  8
_1-9_下地鋼板
  6
CONTINUOUS
 62
    3
 10
136.52247737681148
 20
120.86122087798765
 11
159.32032415547494
 21
120.86122087798765
  0
LINE
  8
_1-9_下地鋼板
  6
CONTINUOUS
 62
    3
 10
129.52249434411362
 20
124.16121146349155
 11
130.12248722727298
 21
124.16121146349155
  0
LINE
  8
_1-9_下地鋼板
  6
CONTINUOUS
 62
    3
 10
129.43223974974526
 20
123.62657091343047
 11
129.52249434411362
 21
124.16121146349155
  0
LINE
  8
_1-9_下地鋼板
  6
CONTINUOUS
 62
    3
 10
128.68533046165555
 20
123.14686794255013
 11
120.76886890296376
 21
125.26803918834599
  0
LINE
  8
_1-9_下地鋼板
  6
CONTINUOUS
 62
    3
 10
163.92249589944964
 20
124.16121146349155
 11
163.32246337878726
 21
124.16121146349155
  0
LINE
  8
_1-9_下地鋼板
  6
CONTINUOUS
 62
    3
 10
164.01271085631498
 20
123.62657091343047
 11
163.92249589944964
 21
124.16121146349155
  0
LINE
  8
_1-9_下地鋼板
  6
CONTINUOUS
 62
    3
 10
164.75963996315622
 20
123.14686794255013
 11
172.67608170309649
 21
125.26803918834599
  0
LINE
  8
_1-9_下地鋼板
  6
CONTINUOUS
 62
    3
 10
130.31702809207755
 20
123.20161724359153
 11
130.12248722727298
 21
124.16121146349155
  0
LINE
  8
_1-9_下地鋼板
  6
CONTINUOUS
 62
    3
 10
133.07387588312332
 20
122.20178104875413
 11
132.95454718029242
 21
122.80031725367766
  0
LINE
  8
_1-9_下地鋼板
  6
CONTINUOUS
 62
    3
 10
133.36257563634337
 20
121.89362919092881
 11
133.48354929554941
 21
121.86119580408564
  0
LINE
  8
ADD_LINE
  6
DOT
 62
    3
 10
133.09371445338303
 20
122.10227109743143
 11
133.14383607594729
 21
121.85081077829534
  0
LINE
  8
_1-9_下地鋼板
  6
CONTINUOUS
 62
    3
 10
160.37109454168842
 20
122.20178104875413
 11
160.49040342576779
 21
122.80031725367766
  0
LINE
  8
_1-9_下地鋼板
  6
CONTINUOUS
 62
    3
 10
163.12796215148572
 20
123.20161724359153
 11
163.32246337878726
 21
124.16121146349155
  0
LINE
  8
_1-9_下地鋼板
  6
CONTINUOUS
 62
    3
 10
160.08235515096538
 20
121.89361928155306
 11
159.21502712871182
 21
121.66120478261634
  0
LINE
  8
_1-9_下地鋼板
  6
CONTINUOUS
 62
    3
 10
132.75842081536723
 20
122.96121578779702
 11
131.94846807872995
 21
122.96121578779702
  0
LINE
  8
_1-9_下地鋼板
  6
CONTINUOUS
 62
    3
 10
131.09649958889523
 20
122.96121578779702
 11
130.61103927070175
 21
122.96121578779702
  0
LINE
  8
_1-9_下地鋼板
  6
CONTINUOUS
 62
    3
 10
160.68654960944451
 20
122.96121578779702
 11
161.49652216483335
 21
122.96121578779702
  0
LINE
  8
_1-9_下地鋼板
  6
CONTINUOUS
 62
    3
 10
162.34849065466804
 20
122.96121578779702
 11
162.83393115410996
 21
122.96121578779702
  0
LINE
  8
_1-9_下地鋼板
  6
CONTINUOUS
 62
    3
 10
157.87694430188387
 20
121.52445539720972
 11
157.72251659013193
 21
121.0612218088327
  0
LINE
  8
_1-9_下地鋼板
  6
CONTINUOUS
 62
    3
 10
138.1711002210215
 20
121.66120478261634
 11
159.21502712871182
 21
121.66120478261634
  0
ARC
  8
_1-9_下地鋼板
  6
CONTINUOUS
 62
    3
 10
119.75795402603325
 20
125.33184565882667
 40
0.6000000055232104
 50
206.81094360351565
 51
255.00013732910159
  0
ARC
  8
_1-9_下地鋼板
  6
CONTINUOUS
 62
    3
 10
173.686996580027
 20
125.33184565882667
 40
0.6000000055232104
 50
284.99986267089844
 51
333.18905639648437
  0
ARC
  8
_1-9_下地鋼板
  6
CONTINUOUS
 62
    3
 10
137.88826681824793
 20
121.56119936250593
 40
0.3000000027616052
 50
14.037155151367189
 51
90.000000000000014
  0
ARC
  8
_1-9_下地鋼板
  6
CONTINUOUS
 62
    3
 10
158.16972671791461
 20
121.46121376114705
 40
0.6000000055232104
 50
221.81031799316406
 51
270
  0
ARC
  8
_1-9_下地鋼板
  6
CONTINUOUS
 62
    3
 10
137.87528553601004
 20
121.46121376114705
 40
0.6000000055232104
 50
270
 51
318.1893310546875
  0
ARC
  8
_1-9_下地鋼板
  6
CONTINUOUS
 62
    3
 10
128.84061037972234
 20
123.72642769290456
 40
0.6000000055232104
 50
255.00025939941406
 51
350.41975402832031
  0
ARC
  8
_1-9_下地鋼板
  6
CONTINUOUS
 62
    3
 10
164.60434022633791
 20
123.72642769290456
 40
0.6000000055232104
 50
189.58024597167969
 51
284.99974060058594
  0
ARC
  8
_1-9_下地鋼板
  6
CONTINUOUS
 62
    3
 10
130.61103927070175
 20
123.26122213875247
 40
0.3000000027616052
 50
191.46025085449219
 51
270
  0
ARC
  8
_1-9_下地鋼板
  6
CONTINUOUS
 62
    3
 10
132.75842081536723
 20
122.76121485695198
 40
0.2000000018410701
 50
11.274307250976563
 51
90
  0
ARC
  8
_1-9_下地鋼板
  6
CONTINUOUS
 62
    3
 10
133.46614843172523
 20
122.27998584220551
 40
0.4000000036821402
 50
191.27415466308597
 51
254.99461364746097
  0
ARC
  8
_1-9_下地鋼板
  6
CONTINUOUS
 62
    3
 10
162.83393115410996
 20
123.26122213875247
 40
0.3000000027616052
 50
270
 51
348.53974914550781
  0
ARC
  8
_1-9_下地鋼板
  6
CONTINUOUS
 62
    3
 10
160.68654960944451
 20
122.76121485695198
 40
0.2000000018410701
 50
90
 51
168.72569274902344
  0
ARC
  8
_1-9_下地鋼板
  6
CONTINUOUS
 62
    3
 10
159.97882199308654
 20
122.27998584220551
 40
0.4000000036821402
 50
285.00538635253912
 51
348.72584533691412
  0
ARC
  8
_1-9_下地鋼板
  6
CONTINUOUS
 62
    3
 10
158.06666921007192
 20
121.46121376114705
 40
0.2000000018410701
 50
90
 51
161.56460571289062
  0
LINE
  8
_1-6_アンカ__類
  6
CONTINUOUS
 62
    4
 10
134.92248974880263
 20
119.8239767896785
 11
135.05775272784612
 21
119.68867417313199
  0
LINE
  8
_1-6_アンカ__類
  6
CONTINUOUS
 62
    4
 10
136.38717476026497
 20
119.68867417313199
 11
136.52247737681148
 21
119.8239767896785
  0
LINE
  8
_1-6_アンカ__類
  6
CONTINUOUS
 62
    4
 10
134.22247162678133
 20
123.01684702328055
 11
134.22247162678133
 21
121.86119580408563
  0
LINE
  8
_1-6_アンカ__類
  6
CONTINUOUS
 62
    4
 10
137.22247568008126
 20
123.01684702328055
 11
137.22247568008126
 21
121.86119580408563
  0
LINE
  8
_1-6_アンカ__類
  6
CONTINUOUS
 62
    4
 10
134.22247162678133
 20
121.86119580408563
 11
137.22247568008126
 21
121.86119580408563
  0
LINE
  8
_1-6_アンカ__類
  6
CONTINUOUS
 62
    4
 10
134.97304738390005
 20
123.01684702328055
 11
134.97304738390005
 21
121.86119580408563
  0
LINE
  8
_1-6_アンカ__類
  6
CONTINUOUS
 62
    4
 10
136.47193956046556
 20
123.01684702328055
 11
136.47193956046556
 21
121.86119580408563
  0
LINE
  8
_1-6_アンカ__類
  6
CONTINUOUS
 62
    4
 10
134.59779914284371
 20
123.1612068092663
 11
136.84720762027342
 21
123.1612068092663
  0
LINE
  8
_1-6_アンカ__類
  6
CONTINUOUS
 62
    4
 10
132.72248941888287
 20
124.88124652453612
 11
132.72248941888287
 21
124.3612520318396
  0
LINE
  8
_1-6_アンカ__類
  6
CONTINUOUS
 62
    4
 10
130.3224782487423
 20
124.88124652453612
 11
130.3224782487423
 21
124.3612520318396
  0
LINE
  8
_1-6_アンカ__類
  6
CONTINUOUS
 62
    4
 10
131.42667998902192
 20
125.15473538597359
 11
131.61828767860325
 21
125.15473538597359
  0
LINE
  8
_1-6_アンカ__類
  6
CONTINUOUS
 62
    4
 10
131.61828767860325
 20
125.27895932042702
 11
131.61828767860325
 21
125.15473538597359
  0
LINE
  8
_1-6_アンカ__類
  6
CONTINUOUS
 62
    4
 10
131.42667998902192
 20
125.27895932042702
 11
131.42667998902192
 21
125.15473538597359
  0
LINE
  8
_1-6_アンカ__類
  6
CONTINUOUS
 62
    4
 10
131.09649958889523
 20
121.96123095232329
 11
130.92247113190166
 21
122.13522968118957
  0
LINE
  8
_1-6_アンカ__類
  6
CONTINUOUS
 62
    4
 10
131.94846807872995
 20
121.96123095232329
 11
132.12247671697196
 21
122.13522968118957
  0
LINE
  8
_1-6_アンカ__類
  6
CONTINUOUS
 62
    4
 10
131.94846807872995
 20
121.96123095232329
 11
131.09649958889523
 21
121.96123095232329
  0
LINE
  8
_1-6_アンカ__類
  6
CONTINUOUS
 62
    4
 10
132.12247671697196
 20
122.13522968118957
 11
130.92247113190166
 21
122.13522968118957
  0
LINE
  8
_1-6_アンカ__類
  6
CONTINUOUS
 62
    4
 10
130.3224782487423
 20
124.3612520318396
 11
130.72246029168087
 21
124.3612520318396
  0
LINE
  8
_1-6_アンカ__類
  6
CONTINUOUS
 62
    4
 10
134.92248974880263
 20
123.1612068092663
 11
134.92248974880263
 21
127.55337906226011
  0
LINE
  8
_1-6_アンカ__類
  6
CONTINUOUS
 62
    4
 10
134.92248974880263
 20
127.55337906226011
 11
135.05775272784612
 21
127.6886816788066
  0
LINE
  8
_1-6_アンカ__類
  6
CONTINUOUS
 62
    4
 10
135.05775272784612
 20
123.1612068092663
 11
135.05775272784612
 21
127.6886816788066
  0
LINE
  8
_1-6_アンカ__類
  6
CONTINUOUS
 62
    4
 10
136.38717476026497
 20
123.1612068092663
 11
136.38717476026497
 21
127.6886816788066
  0
LINE
  8
_1-6_アンカ__類
  6
CONTINUOUS
 62
    4
 10
136.38717476026497
 20
127.6886816788066
 11
136.52247737681148
 21
127.55337906226011
  0
LINE
  8
_1-6_アンカ__類
  6
CONTINUOUS
 62
    4
 10
136.52247737681148
 20
123.1612068092663
 11
136.52247737681148
 21
127.55337906226011
  0
LINE
  8
_1-6_アンカ__類
  6
CONTINUOUS
 62
    4
 10
136.38717476026497
 20
121.86119580408563
 11
136.38717476026497
 21
119.68867417313199
  0
LINE
  8
_1-6_アンカ__類
  6
CONTINUOUS
 62
    4
 10
135.05775272784612
 20
119.68867417313199
 11
136.38717476026497
 21
119.68867417313199
  0
LINE
  8
_1-6_アンカ__類
  6
CONTINUOUS
 62
    4
 10
135.05775272784612
 20
121.86119580408563
 11
135.05775272784612
 21
119.68867417313199
  0
LINE
  8
_1-6_アンカ__類
  6
CONTINUOUS
 62
    4
 10
134.92248974880263
 20
121.86119580408563
 11
134.92248974880263
 21
119.8239767896785
  0
LINE
  8
_1-6_アンカ__類
  6
CONTINUOUS
 62
    4
 10
136.52247737681148
 20
119.8239767896785
 11
134.92248974880263
 21
119.8239767896785
  0
LINE
  8
_1-6_アンカ__類
  6
CONTINUOUS
 62
    4
 10
136.52247737681148
 20
121.86119580408563
 11
136.52247737681148
 21
119.8239767896785
  0
LINE
  8
_1-6_アンカ__類
  6
CENTER1
 62
    4
 10
135.7225132909343
 20
128.16181473356198
 11
135.7225132909343
 21
119.00326247097223
  0
LINE
  8
_1-6_アンカ__類
  6
CONTINUOUS
 62
    4
 10
135.56233814124502
 20
127.28870954524379
 11
135.5623183224935
 21
127.68867176943084
  0
LINE
  8
_1-6_アンカ__類
  6
CONTINUOUS
 62
    4
 10
135.8623345828247
 20
127.28869963586803
 11
135.56233814124502
 21
127.28870954524379
  0
LINE
  8
_1-6_アンカ__類
  6
CONTINUOUS
 62
    4
 10
135.8623345828247
 20
127.28869963586803
 11
135.86231476407318
 21
127.68869158818235
  0
LINE
  8
_1-6_アンカ__類
  6
CONTINUOUS
 62
    4
 10
136.52247737681148
 20
127.55337906226011
 11
135.86231476407318
 21
127.55337906226011
  0
LINE
  8
_1-6_アンカ__類
  6
CONTINUOUS
 62
    4
 10
135.5623183224935
 20
127.55337906226011
 11
134.92248974880263
 21
127.55337906226011
  0
LINE
  8
_1-6_アンカ__類
  6
CONTINUOUS
 62
    4
 10
135.05775272784612
 20
127.6886816788066
 11
135.5623183224935
 21
127.6886816788066
  0
LINE
  8
_1-6_アンカ__類
  6
CONTINUOUS
 62
    4
 10
135.86231476407318
 20
127.6886816788066
 11
136.38717476026497
 21
127.6886816788066
  0
LINE
  8
_1-6_アンカ__類
  6
CONTINUOUS
 62
    4
 10
130.92247113190166
 20
124.3612520318396
 11
130.92247113190166
 21
122.13522968118957
  0
LINE
  8
_1-6_アンカ__類
  6
CONTINUOUS
 62
    4
 10
131.09649958889523
 20
124.3612520318396
 11
131.09649958889523
 21
121.96123095232329
  0
LINE
  8
_1-6_アンカ__類
  6
CONTINUOUS
 62
    4
 10
131.94846807872995
 20
124.3612520318396
 11
131.94846807872995
 21
121.96123095232329
  0
LINE
  8
_1-6_アンカ__類
  6
CONTINUOUS
 62
    4
 10
132.12247671697196
 20
124.3612520318396
 11
132.12247671697196
 21
122.13522968118957
  0
LINE
  8
_1-6_アンカ__類
  6
CONTINUOUS
 62
    4
 10
160.7224611871774
 20
124.88124652453612
 11
160.7224611871774
 21
124.3612520318396
  0
LINE
  8
_1-6_アンカ__類
  6
CONTINUOUS
 62
    4
 10
163.12247235731795
 20
124.88124652453612
 11
163.12247235731795
 21
124.3612520318396
  0
LINE
  8
_1-6_アンカ__類
  6
CONTINUOUS
 62
    4
 10
162.01827061703833
 20
125.15473538597359
 11
161.82666292745702
 21
125.15473538597359
  0
LINE
  8
_1-6_アンカ__類
  6
CONTINUOUS
 62
    4
 10
161.82666292745702
 20
125.27895932042702
 11
161.82666292745702
 21
125.15473538597359
  0
LINE
  8
_1-6_アンカ__類
  6
CONTINUOUS
 62
    4
 10
162.01827061703833
 20
125.27895932042702
 11
162.01827061703833
 21
125.15473538597359
  0
LINE
  8
_1-6_アンカ__類
  6
CONTINUOUS
 62
    4
 10
162.34845101716505
 20
121.96123095232329
 11
162.52247947415859
 21
122.13522968118957
  0
LINE
  8
_1-6_アンカ__類
  6
CONTINUOUS
 62
    4
 10
161.4964825273303
 20
121.96123095232329
 11
161.32247388908829
 21
122.13522968118957
  0
LINE
  8
_1-6_アンカ__類
  6
CONTINUOUS
 62
    4
 10
161.4964825273303
 20
121.96123095232329
 11
162.34845101716505
 21
121.96123095232329
  0
LINE
  8
_1-6_アンカ__類
  6
CONTINUOUS
 62
    4
 10
161.32247388908829
 20
122.13522968118957
 11
162.52247947415859
 21
122.13522968118957
  0
LINE
  8
_1-6_アンカ__類
  6
CONTINUOUS
 62
    4
 10
163.12247235731795
 20
124.3612520318396
 11
162.72249031437937
 21
124.3612520318396
  0
LINE
  8
_1-6_アンカ__類
  6
CONTINUOUS
 62
    4
 10
162.52247947415859
 20
124.3612520318396
 11
162.52247947415859
 21
122.13522968118957
  0
LINE
  8
_1-6_アンカ__類
  6
CONTINUOUS
 62
    4
 10
162.34845101716505
 20
124.3612520318396
 11
162.34845101716505
 21
121.96123095232329
  0
LINE
  8
_1-6_アンカ__類
  6
CONTINUOUS
 62
    4
 10
161.4964825273303
 20
124.3612520318396
 11
161.4964825273303
 21
121.96123095232329
  0
LINE
  8
_1-6_アンカ__類
  6
CONTINUOUS
 62
    4
 10
161.32247388908829
 20
124.3612520318396
 11
161.32247388908829
 21
122.13522968118957
  0
ARC
  8
_1-6_アンカ__類
  6
CONTINUOUS
 62
    4
 10
134.59779914284371
 20
122.60116852914746
 40
0.5600347189369349
 50
47.925567626953132
 51
132.07463073730469
  0
ARC
  8
_1-6_アンカ__類
  6
CONTINUOUS
 62
    4
 10
135.7225132909343
 20
121.14330116820392
 40
2.0178819514609674
 50
68.197860717773438
 51
111.80213928222658
  0
ARC
  8
_1-6_アンカ__類
  6
CONTINUOUS
 62
    4
 10
136.84720762027342
 20
122.60116852914746
 40
0.5600379704508542
 50
47.925720214843743
 51
132.07427978515622
  0
ARC
  8
_1-6_アンカ__類
  6
CONTINUOUS
 62
    4
 10
131.52248383381257
 20
123.28120934964849
 40
2.000000018410701
 50
53.130126953125
 51
87.254302978515625
  0
ARC
  8
_1-6_アンカ__類
  6
CONTINUOUS
 62
    4
 10
131.52248383381257
 20
123.28120934964849
 40
2.000000018410701
 50
92.74591064453125
 51
126.86987304687501
  0
ARC
  8
_1-6_アンカ__類
  6
CONTINUOUS
 62
    4
 10
161.9224667722477
 20
123.28120934964849
 40
2.000000018410701
 50
92.745697021484375
 51
126.86987304687501
  0
ARC
  8
_1-6_アンカ__類
  6
CONTINUOUS
 62
    4
 10
161.9224667722477
 20
123.28120934964849
 40
2.000000018410701
 50
53.130126953125007
 51
87.254089355468764
  0
LINE
  8
_e-e_
  6
CONTINUOUS
 62
    7
 10
182.21385505277567
 20
148.75305722529225
 11
187.21385505277564
 21
148.75305722529225
  0
LINE
  8
_e-e_
  6
CONTINUOUS
 62
    7
 10
182.21385505277567
 20
148.75305722529225
 11
167.16386679644489
 21
122.68571291201243
  0
TEXT
  8
_e-e_
 62
    7
 10
187.21385505277564
 20
146.75305722529225
 40
4
 41
1
 50
0
  1
ボンドエフレックスにて貼り付け
  0
LINE
  8
_e-e_
  6
CONTINUOUS
 62
    7
 10
197.5551667771513
 20
140.23882494082659
 11
191.60004969541228
 21
129.92425959023328
  0
LINE
  8
_e-e_
  6
CONTINUOUS
 62
    7
 10
197.5551667771513
 20
140.23882494082659
 11
202.55516677715127
 21
140.23882494082659
  0
TEXT
  8
_e-e_
 62
    7
 10
202.55516677715127
 20
138.23882494082656
 40
4
 41
1
 50
0
  1
ＦＬシール
  0
TEXT
  8
_e-e_
 62
    7
 10
258.5
 20
20
 40
4
 41
1
 50
0
  1
2020.05.18
  0
ENDSEC
  0
EOF
