  0
SECTION
  2
HEADER
  9
$ACADVER
  1
AC1009
  9
$INSBASE
 10
0
 20
0
 30
0
  9
$EXTMIN
 10
0
 20
0
  9
$EXTMAX
 10
297
 20
210
  9
$LIMMIN
 10
0
 20
0
  9
$LIMMAX
 10
297
 20
210
  9
$LTSCALE
 40
1
  0
ENDSEC
  0
SECTION
  2
TABLES
  0
TABLE
  2
LTYPE
 70
     9
  0
LTYPE
  2
CONTINUOUS
 70
    64
  3
実線
 72
    65
 73
     0
 40
0.0
  0
LTYPE
  2
DASHED1
 70
    64
  3
--  --  --  --  --  --  --  --  
 72
    65
 73
     2
 40
2.5
 49
1.25
 49
-1.25
  0
LTYPE
  2
DASHED2
 70
    64
  3
----    ----    ----    ----    
 72
    65
 73
     2
 40
5.0
 49
2.5
 49
-2.5
  0
LTYPE
  2
DASHED3
 70
    64
  3
------  ------  ------  ------  
 72
    65
 73
     2
 40
5.0
 49
3.75
 49
-1.25
  0
LTYPE
  2
CENTER1
 70
    64
  3
----- - ----- - ----- - ----- - 
 72
    65
 73
     4
 40
10.0
 49
6.25
 49
-1.25
 49
1.25
 49
-1.25
  0
LTYPE
  2
CENTER2
 70
    64
  3
----------  --  ----------  --  
 72
    65
 73
     4
 40
20.0
 49
12.5
 49
-2.5
 49
2.5
 49
-2.5
  0
LTYPE
  2
PHANTOM1
 70
    64
  3
--- - - --- - - --- - - --- - - 
 72
    65
 73
     6
 40
10.0
 49
3.25
 49
-1.25
 49
1.25
 49
-1.25
 49
1.25
 49
-1.25
  0
LTYPE
  2
PHANTOM2
 70
    64
  3
--------  -  -  --------  -  -  
 72
    65
 73
     6
 40
20.0
 49
10.0
 49
-2.5
 49
1.25
 49
-2.5
 49
1.25
 49
-2.5
  0
LTYPE
  2
DOT
 70
    64
  3
-   -   -   -   -   -   -   -   
 72
    65
 73
     2
 40
2.5
 49
0.625
 49
-1.875
  0
LTYPE
  2
DUMMY
 70
    64
  3
ダミー
 72
    65
 73
     0
 40
0.0
  0
LTYPE
  2
RAND1
 70
    64
  3
ランダム線1
 72
    65
 73
     4
 40
10.0
 49
1.0
 49
-2.0
 49
3.0
 49
-4.0
  0
LTYPE
  2
RAND2
 70
    64
  3
ランダム線2
 72
    65
 73
     4
 40
14.0
 49
2.0
 49
-3.0
 49
4.0
 49
-5.0
  0
LTYPE
  2
RAND3
 70
    64
  3
ランダム線3
 72
    65
 73
     4
 40
18.0
 49
3.0
 49
-4.0
 49
5.0
 49
-6.0
  0
LTYPE
  2
RAND4
 70
    64
  3
ランダム線4
 72
    65
 73
     4
 40
22.0
 49
4.0
 49
-5.0
 49
6.0
 49
-7.0
  0
LTYPE
  2
RAND5
 70
    64
  3
ランダム線5
 72
    65
 73
     4
 40
26.0
 49
5.0
 49
-6.0
 49
7.0
 49
-8.0
  0
LTYPE
  2
LONG1
 70
    64
  3
----------  --  ----------  --  
 72
    65
 73
     4
 40
40.0
 49
32.5
 49
-2.5
 49
2.5
 49
-2.5
  0
LTYPE
  2
LONG2
 70
    64
  3
--------  -  -  --------  -  -  
 72
    65
 73
     6
 40
40.0
 49
30.0
 49
-2.5
 49
1.25
 49
-2.5
 49
1.25
 49
-2.5
  0
LTYPE
  2
LONG3
 70
    64
  3
+++++++++++++++..+++++++++++++++
 72
    65
 73
     2
 40
40.0
 49
37.5
 49
-2.5
  0
LTYPE
  2
LONG4
 70
    64
  3
+++++++++++++++..+++++++++++++++
 72
    65
 73
     2
 40
80.0
 49
75.0
 49
-5.0
  0
LTYPE
  2
LONG5
 70
    64
  3
----------  --  ----------  --  
 72
    65
 73
     4
 40
60.0
 49
37.5
 49
-7.5
 49
7.5
 49
-7.5
  0
LTYPE
  2
dashed
 70
   64
  3
-------   -------------   ------
 72
   65
 73
    2
 40
7.5
 49
6
 49
-1.5
  0
LTYPE
  2
dashed_spaced
 70
   64
  3
----        --------        ----
 72
   65
 73
    2
 40
12
 49
6
 49
-6
  0
LTYPE
  2
long_dashed_dotted
 70
   64
  3
------------- --- --------------
 72
   65
 73
    4
 40
15.25
 49
12
 49
-1.5
 49
0.25
 49
-1.5
  0
LTYPE
  2
long_dashed_double-dotted
 70
   64
  3
----------- --- --- ------------
 72
   65
 73
    6
 40
17
 49
12
 49
-1.5
 49
0.25
 49
-1.5
 49
0.25
 49
-1.5
  0
LTYPE
  2
long_dashed_triplicate-dotted
 70
   64
  3
--------- --- --- --- ----------
 72
   65
 73
    8
 40
18.75
 49
12
 49
-1.5
 49
0.25
 49
-1.5
 49
0.25
 49
-1.5
 49
0.25
 49
-1.5
  0
LTYPE
  2
dotted
 70
   64
  3
   -       -       -       -    
 72
   65
 73
    2
 40
1.75
 49
0.25
 49
-1.5
  0
LTYPE
  2
chain
 70
   64
  3
-------------- -- --------------
 72
   65
 73
    4
 40
18.5
 49
12
 49
-1.5
 49
3.5
 49
-1.5
  0
LTYPE
  2
chain_double_dash
 70
   64
  3
------------ -- -- -------------
 72
   65
 73
    6
 40
23.5
 49
12
 49
-1.5
 49
3.5
 49
-1.5
 49
3.5
 49
-1.5
  0
LTYPE
  2
dashed_dotted
 70
   64
  3
-----------     -     ----------
 72
   65
 73
    4
 40
9.25
 49
6
 49
-1.5
 49
0.25
 49
-1.5
  0
LTYPE
  2
double-dashed_dotted
 70
   64
  3
------   -----------   -   -----
 72
   65
 73
    6
 40
16.75
 49
6
 49
-1.5
 49
6
 49
-1.5
 49
0.25
 49
-1.5
  0
LTYPE
  2
dashed_double-dotted
 70
   64
  3
---------    -    -    ---------
 72
   65
 73
    6
 40
11
 49
6
 49
-1.5
 49
0.25
 49
-1.5
 49
0.25
 49
-1.5
  0
LTYPE
  2
double-dashed_double-dotted
 70
   64
  3
-----   ---------   -   -   ----
 72
   65
 73
    8
 40
18.5
 49
6
 49
-1.5
 49
6
 49
-1.5
 49
0.25
 49
-1.5
 49
0.25
 49
-1.5
  0
LTYPE
  2
dashed_triplicate-dotted
 70
   64
  3
-------    -    -    -    ------
 72
   65
 73
    8
 40
12.75
 49
6
 49
-1.5
 49
0.25
 49
-1.5
 49
0.25
 49
-1.5
 49
0.25
 49
-1.5
  0
LTYPE
  2
double-dashed_triplicate-dotted
 70
   64
  3
-----  ---------  -  -  -  -----
 72
   65
 73
   10
 40
20.25
 49
6
 49
-1.5
 49
6
 49
-1.5
 49
0.25
 49
-1.5
 49
0.25
 49
-1.5
 49
0.25
 49
-1.5
  0
LTYPE
  2
undefined
 70
   64
  3
--------------------------------
 72
   65
 73
    0
 40
0
  0
LTYPE
  2
AIGENLINE001
 70
   64
  3
                                
 72
   65
 73
    4
 40
4.2333600000000002
 49
2.1166800000000001
 49
-0.7055599999999999
 49
0.7055599999999999
 49
-0.7055599999999999
  0
LTYPE
  2
2-AXIS
 70
   64
  3
                                
 72
   65
 73
    0
 40
0
  0
LTYPE
  2
BORDER
 70
   64
  3
                                
 72
   65
 73
    0
 40
0
  0
LTYPE
  2
BORDER2
 70
   64
  3
                                
 72
   65
 73
    0
 40
0
  0
LTYPE
  2
BORDERX2
 70
   64
  3
                                
 72
   65
 73
    0
 40
0
  0
LTYPE
  2
CENTER
 70
   64
  3
                                
 72
   65
 73
    0
 40
0
  0
LTYPE
  2
CENTER2_23
 70
   64
  3
                                
 72
   65
 73
    0
 40
0
  0
LTYPE
  2
CENTERX2
 70
   64
  3
                                
 72
   65
 73
    0
 40
0
  0
LTYPE
  2
DASHDOT
 70
   64
  3
                                
 72
   65
 73
    0
 40
0
  0
LTYPE
  2
DASHDOT2
 70
   64
  3
                                
 72
   65
 73
    0
 40
0
  0
LTYPE
  2
DASHDOTX2
 70
   64
  3
                                
 72
   65
 73
    0
 40
0
  0
LTYPE
  2
DASHED
 70
   64
  3
                                
 72
   65
 73
    0
 40
0
  0
LTYPE
  2
DASHED2_29
 70
   64
  3
                                
 72
   65
 73
    0
 40
0
  0
LTYPE
  2
DASHEDX2
 70
   64
  3
                                
 72
   65
 73
    0
 40
0
  0
LTYPE
  2
DIVIDE
 70
   64
  3
                                
 72
   65
 73
    0
 40
0
  0
LTYPE
  2
DIVIDE2
 70
   64
  3
                                
 72
   65
 73
    0
 40
0
  0
ENDTAB
  0
TABLE
  2
STYLE
  5
3
100
AcDbSymbolTable
 70
     1
  0
STYLE
  5
10
100
AcDbSymbolTableRecord
100
AcDbTextStyleTableRecord
  2
STANDARD
 70
     0
 40
0.0
 41
1.0
 50
0.0
 71
     0
 42
0.2
  3
txt
  4
bigfont.shx
  0
STYLE
  5
26
100
AcDbSymbolTableRecord
100
AcDbTextStyleTableRecord
  2
TATEGAKI
 70
    68
 40
0.0
 41
1.0
 50
0.0
 71
     0
 42
1.0
  3
txt
  4
bigfont.shx
  0
ENDTAB
  0
TABLE
  2
LAYER
 70
   11
  0
LAYER
  2
_1-2_ハッチング
 70
   64
 62
    7
  6
CONTINUOUS
  0
LAYER
  2
_1-4_リベットル__フ
 70
   64
 62
    7
  6
CONTINUOUS
  0
LAYER
  2
_1-5_ＦＬ鋼板__ディスク
 70
   64
 62
    7
  6
CONTINUOUS
  0
LAYER
  2
_1-6_アンカ__類
 70
   64
 62
    7
  6
CONTINUOUS
  0
LAYER
  2
_1-7_設備
 70
   64
 62
    7
  6
CONTINUOUS
  0
LAYER
  2
_1-a_元図__躯体
 70
   64
 62
    7
  6
CONTINUOUS
  0
LAYER
  2
_1-b_その他
 70
   64
 62
    7
  6
CONTINUOUS
  0
LAYER
  2
_1-c_アンカ__類②
 70
   64
 62
    7
  6
CONTINUOUS
  0
LAYER
  2
_e-e_
 70
   64
 62
    7
  6
CONTINUOUS
  0
LAYER
  2
_f-f_
 70
   64
 62
    7
  6
CONTINUOUS
  0
LAYER
  2
ADD_LINE
 70
   64
 62
    7
  6
CONTINUOUS
  0
ENDTAB
  0
ENDSEC
  0
SECTION
  2
BLOCKS
  0
ENDSEC
  0
SECTION
  2
ENTITIES
  0
LINE
  8
_f-f_
  6
CONTINUOUS
 62
    7
 10
13.5
 20
197
 11
13.5
 21
17
  0
LINE
  8
_f-f_
  6
CONTINUOUS
 62
    7
 10
13.5
 20
197
 11
283.5
 21
197
  0
LINE
  8
_f-f_
  6
CONTINUOUS
 62
    7
 10
283.5
 20
197
 11
283.5
 21
17
  0
LINE
  8
_f-f_
  6
CONTINUOUS
 62
    7
 10
283.5
 20
17
 11
13.5
 21
17
  0
SOLID
  8
_f-f_
  6
CONTINUOUS
 62
    5
 10
236.97536482015869
 20
15.135014055698207
 11
235.41260194015859
 21
14.597233959698244
 12
233.7490795136022
 22
12.030232905347191
 13
233.7490795136022
 23
12.030232905347191
  0
SOLID
  8
_f-f_
  6
CONTINUOUS
 62
    5
 10
236.97536482015869
 20
15.135014055698207
 11
235.44783384279719
 21
14.653922266010412
 12
235.41260194015859
 22
14.597233959698244
 13
235.41260194015859
 23
14.597233959698244
  0
SOLID
  8
_f-f_
  6
CONTINUOUS
 62
    5
 10
236.97536482015869
 20
15.135014055698207
 11
235.44348964523115
 21
14.814711211354776
 12
235.44783384279719
 22
14.653922266010412
 13
235.44783384279719
 23
14.653922266010412
  0
SOLID
  8
_f-f_
  6
CONTINUOUS
 62
    5
 10
236.97536482015869
 20
15.135014055698207
 11
235.37802752940809
 21
14.882325091646777
 12
235.44348964523115
 22
14.814711211354776
 13
235.44348964523115
 23
14.814711211354776
  0
SOLID
  8
_f-f_
  6
CONTINUOUS
 62
    5
 10
236.97536482015869
 20
15.135014055698207
 11
235.23671672676957
 21
14.943561152901822
 12
235.37802752940809
 22
14.882325091646777
 13
235.37802752940809
 23
14.882325091646777
  0
SOLID
  8
_f-f_
  6
CONTINUOUS
 62
    5
 10
236.97536482015869
 20
15.135014055698207
 11
231.75858153825016
 21
14.827104307519747
 12
235.23671672676957
 22
14.943561152901822
 13
235.23671672676957
 23
14.943561152901822
  0
SOLID
  8
_f-f_
  6
CONTINUOUS
 62
    5
 10
236.97536482015869
 20
15.135014055698207
 11
232.06580002015863
 21
15.134816487698203
 12
231.75858153825016
 22
14.827104307519747
 13
231.75858153825016
 23
14.827104307519747
  0
SOLID
  8
_f-f_
  6
CONTINUOUS
 62
    5
 10
233.7490795136022
 20
12.030232905347191
 11
237.28752157062101
 21
14.827697368205875
 12
236.97536482015869
 22
15.135014055698207
 13
236.97536482015869
 23
15.135014055698207
  0
SOLID
  8
_f-f_
  6
CONTINUOUS
 62
    5
 10
233.7490795136022
 20
12.030232905347191
 11
237.23911742342443
 21
14.662629348534509
 12
237.28752157062101
 22
14.827697368205875
 13
237.28752157062101
 23
14.827697368205875
  0
SOLID
  8
_f-f_
  6
CONTINUOUS
 62
    5
 10
233.7490795136022
 20
12.030232905347191
 11
234.52749735533226
 21
10.733752628573797
 12
234.7892749001586
 22
10.88042668929819
 13
234.7892749001586
 23
10.88042668929819
  0
SOLID
  8
_f-f_
  6
CONTINUOUS
 62
    5
 10
233.7490795136022
 20
12.030232905347191
 11
234.31609954015863
 21
10.81863729729821
 12
234.52749735533226
 22
10.733752628573797
 13
234.52749735533226
 23
10.733752628573797
  0
SOLID
  8
_f-f_
  6
CONTINUOUS
 62
    5
 10
233.7490795136022
 20
12.030232905347191
 11
233.74611586015862
 21
11.682740458898223
 12
234.31609954015863
 22
10.81863729729821
 13
234.31609954015863
 23
10.81863729729821
  0
SOLID
  8
_f-f_
  6
CONTINUOUS
 62
    5
 10
233.7490795136022
 20
12.030232905347191
 11
233.69277264325217
 21
11.856303946266479
 12
233.74611586015862
 22
11.682740458898223
 13
233.74611586015862
 23
11.682740458898223
  0
SOLID
  8
_f-f_
  6
CONTINUOUS
 62
    5
 10
231.75858153825016
 20
14.827104307519747
 11
235.08661474015867
 21
14.909095047698244
 12
235.23671672676957
 22
14.943561152901822
 13
235.23671672676957
 23
14.943561152901822
  0
SOLID
  8
_f-f_
  6
CONTINUOUS
 62
    5
 10
231.75858153825016
 20
14.827104307519747
 11
233.61868450015868
 21
12.669167847698219
 12
235.08661474015867
 22
14.909095047698244
 13
235.08661474015867
 23
14.909095047698244
  0
SOLID
  8
_f-f_
  6
CONTINUOUS
 62
    5
 10
231.75858153825016
 20
14.827104307519747
 11
233.36184569383056
 21
12.528992955061909
 12
233.61868450015868
 22
12.669167847698219
 13
233.61868450015868
 23
12.669167847698219
  0
SOLID
  8
_f-f_
  6
CONTINUOUS
 62
    5
 10
231.75858153825016
 20
14.827104307519747
 11
233.14254562015859
 21
12.622541799698183
 12
233.36184569383056
 22
12.528992955061909
 13
233.36184569383056
 23
12.528992955061909
  0
SOLID
  8
_f-f_
  6
CONTINUOUS
 62
    5
 10
231.75858153825016
 20
14.827104307519747
 11
231.79611970015864
 21
14.683571175698262
 12
233.14254562015859
 22
12.622541799698183
 13
233.14254562015859
 23
12.622541799698183
  0
ARC
  8
_f-f_
  6
CONTINUOUS
 62
    1
 10
235.22789232415863
 20
14.712033315698221
 40
0.217477092
 50
328.13846999999998
 51
2.2615330000000116
  0
ARC
  8
_f-f_
  6
CONTINUOUS
 62
    1
 10
235.20651958255868
 20
14.716275265298208
 40
0.2387205912
 50
1.0417719999999999
 51
44.073639999999997
  0
ARC
  8
_f-f_
  6
CONTINUOUS
 62
    1
 10
235.19156286175863
 20
14.452033827698216
 40
0.4689556368
 50
66.570734999999999
 51
102.931843
  0
ARC
  8
_f-f_
  6
CONTINUOUS
 62
    1
 10
237.02758780495867
 20
14.814288750098285
 40
0.260279376
 50
324.36078900000001
 51
2.9529709999999993
  0
ARC
  8
_f-f_
  6
CONTINUOUS
 62
    1
 10
232.07207198095867
 20
14.832415614098267
 40
0.3135354768
 50
180.97063600000004
 51
208.34173000000004
  0
ARC
  8
_f-f_
  6
CONTINUOUS
 62
    1
 10
233.98573291615867
 20
11.857541216498191
 40
0.2929628856
 50
143.88086999999999
 51
180.24197799999999
  0
ARC
  8
_f-f_
  6
CONTINUOUS
 62
    1
 10
234.52945733935863
 20
11.04430852209822
 40
0.3105620784
 50
226.60652999999999
 51
269.63839899999999
  0
ARC
  8
_f-f_
  6
CONTINUOUS
 62
    1
 10
234.52688648575864
 20
11.041782944498237
 40
0.3080315616
 50
270.11356000000001
 51
328.41042499999998
  0
ARC
  8
_f-f_
  6
CONTINUOUS
 62
    1
 10
234.00220761775864
 20
11.856427426898193
 40
0.3094359408
 50
180.022864
 51
214.145926
  0
ARC
  8
_f-f_
  6
CONTINUOUS
 62
    1
 10
233.36445399775863
 20
12.838928151698155
 40
0.3099455016
 50
224.27817500000003
 51
269.51790500000004
  0
ARC
  8
_f-f_
  6
CONTINUOUS
 62
    1
 10
233.35885129855865
 20
12.839866599698212
 40
0.3108880655999999
 50
270.55186700000002
 51
326.69684100000006
  0
ARC
  8
_f-f_
  6
CONTINUOUS
 62
    1
 10
236.97555497935861
 20
14.823012200498198
 40
0.3120026784
 50
0.860427
 51
90.034943999999982
  0
ARC
  8
_f-f_
  6
CONTINUOUS
 62
    1
 10
232.06827949855861
 20
14.825122062098245
 40
0.309704304
 50
90.458761999999993
 51
179.63327899999999
  0
SOLID
  8
_f-f_
  6
CONTINUOUS
 62
   70
 10
235.3592583789839
 20
15.664101361536453
 11
236.00431761052957
 21
15.467422329706778
 12
236.2927671804093
 22
15.73818913178016
 13
236.2927671804093
 23
15.73818913178016
  0
SOLID
  8
_f-f_
  6
CONTINUOUS
 62
   70
 10
235.60029133369804
 20
16.279624399265259
 11
235.3592583789839
 21
15.664101361536453
 12
236.5328128054206
 22
16.353613516858246
 13
236.2927671804093
 23
15.73818913178016
  0
SOLID
  8
_f-f_
  6
CONTINUOUS
 62
   70
 10
236.19101981268187
 20
16.670512794070959
 11
235.60029133369804
 21
16.279624399265259
 12
236.42019869045436
 22
16.615391008345767
 13
236.5328128054206
 23
16.353613516858246
  0
ARC
  8
_f-f_
  6
CONTINUOUS
 62
    1
 10
236.00221070815871
 20
16.616671155698256
 40
1.1492505864
 50
235.98198100000002
 51
270.10504300000002
  0
ARC
  8
_f-f_
  6
CONTINUOUS
 62
    1
 10
235.63663664335866
 20
16.148141113298266
 40
0.7736713488000001
 50
298.37509499999999
 51
328.00274300000001
  0
ARC
  8
_f-f_
  6
CONTINUOUS
 62
    1
 10
234.71712471295865
 20
16.707292304498239
 40
1.8498135431999998
 50
328.40629300000006
 51
348.97735100000006
  0
ARC
  8
_f-f_
  6
CONTINUOUS
 62
    1
 10
237.17571194335866
 20
15.307750227698264
 40
1.8510779783999998
 50
148.329635
 51
168.90069299999999
  0
ARC
  8
_f-f_
  6
CONTINUOUS
 62
    1
 10
236.05002628015859
 20
16.301035695698289
 40
0.4856410776
 50
6.2152969999999996
 51
40.338358999999997
  0
SOLID
  8
_f-f_
  6
CONTINUOUS
 62
    5
 10
233.7490795136022
 20
12.030232905347191
 11
234.7892749001586
 21
10.88042668929819
 12
237.23911742342443
 22
14.662629348534509
 13
237.23911742342443
 23
14.662629348534509
  0
ARC
  8
_f-f_
  6
CONTINUOUS
 62
    1
 10
236.23946353375865
 20
16.367937159698243
 40
0.3064287911999999
 50
53.856383000000008
 51
99.096113000000003
  0
ARC
  8
_f-f_
  6
CONTINUOUS
 62
    1
 10
236.36472164575864
 20
15.766194423698238
 40
0.9208496303999999
 50
100.872968
 51
146.11269799999999
  0
LINE
  8
_f-f_
  6
CONTINUOUS
 62
    7
 10
267.37625600000001
 20
14.687935999999993
 11
267.06892800000003
 21
14.687935999999993
  0
LINE
  8
_f-f_
  6
CONTINUOUS
 62
    7
 10
267.06892800000003
 20
14.687935999999993
 11
267.06892800000003
 21
13.853760000000037
  0
LINE
  8
_f-f_
  6
CONTINUOUS
 62
    7
 10
267.04697599999997
 20
13.458624000000043
 11
267.02502399999992
 21
13.370815999999991
  0
LINE
  8
_f-f_
  6
CONTINUOUS
 62
    7
 10
267.02502399999992
 20
13.370815999999991
 11
267.02502399999992
 21
13.326912000000021
  0
LINE
  8
_f-f_
  6
CONTINUOUS
 62
    7
 10
267.02502399999992
 20
13.326912000000021
 11
266.99209599999995
 21
13.195199999999971
  0
LINE
  8
_f-f_
  6
CONTINUOUS
 62
    7
 10
266.99209599999995
 20
13.195199999999971
 11
266.97014399999995
 21
13.151296000000031
  0
LINE
  8
_f-f_
  6
CONTINUOUS
 62
    7
 10
266.97014399999995
 20
13.151296000000031
 11
266.93721599999992
 21
13.019583999999952
  0
LINE
  8
_f-f_
  6
CONTINUOUS
 62
    7
 10
266.93721599999992
 20
13.019583999999952
 11
266.91526399999998
 21
12.975680000000011
  0
LINE
  8
_f-f_
  6
CONTINUOUS
 62
    7
 10
266.91526399999998
 20
12.975680000000011
 11
266.90428799999995
 21
12.931776000000013
  0
LINE
  8
_f-f_
  6
CONTINUOUS
 62
    7
 10
266.90428799999995
 20
12.931776000000013
 11
266.88233600000001
 21
12.887871999999987
  0
LINE
  8
_f-f_
  6
CONTINUOUS
 62
    7
 10
266.88233600000001
 20
12.887871999999987
 11
266.87135999999998
 21
12.84396799999999
  0
LINE
  8
_f-f_
  6
CONTINUOUS
 62
    7
 10
266.87135999999998
 20
12.84396799999999
 11
266.82745599999998
 21
12.756160000000023
  0
LINE
  8
_f-f_
  6
CONTINUOUS
 62
    7
 10
266.82745599999998
 20
12.756160000000023
 11
266.81647999999996
 21
12.712256000000025
  0
LINE
  8
_f-f_
  6
CONTINUOUS
 62
    7
 10
266.81647999999996
 20
12.712256000000025
 11
266.7506239999999
 21
12.580544000000003
  0
LINE
  8
_f-f_
  6
CONTINUOUS
 62
    7
 10
266.7506239999999
 20
12.580544000000003
 11
266.71769599999999
 21
12.536639999999977
  0
LINE
  8
_f-f_
  6
CONTINUOUS
 62
    7
 10
266.71769599999999
 20
12.536639999999977
 11
266.67379199999993
 21
12.448831999999982
  0
LINE
  8
_f-f_
  6
CONTINUOUS
 62
    7
 10
266.67379199999993
 20
12.448831999999982
 11
266.64086399999997
 21
12.404927999999984
  0
LINE
  8
_f-f_
  6
CONTINUOUS
 62
    7
 10
266.64086399999997
 20
12.404927999999984
 11
266.61891199999997
 21
12.361024000000015
  0
LINE
  8
_f-f_
  6
CONTINUOUS
 62
    7
 10
266.61891199999997
 20
12.361024000000015
 11
266.48719999999992
 21
12.185407999999995
  0
LINE
  8
_f-f_
  6
CONTINUOUS
 62
    7
 10
266.48719999999992
 20
12.185407999999995
 11
266.44329599999992
 21
12.141503999999998
  0
LINE
  8
_f-f_
  6
CONTINUOUS
 62
    7
 10
266.44329599999992
 20
12.141503999999998
 11
266.41036799999995
 21
12.0976
  0
LINE
  8
_f-f_
  6
CONTINUOUS
 62
    7
 10
266.41036799999995
 20
12.0976
 11
266.36646399999995
 21
12.053696000000031
  0
LINE
  8
_f-f_
  6
CONTINUOUS
 62
    7
 10
266.36646399999995
 20
12.053696000000031
 11
266.36646399999995
 21
12.009792000000004
  0
LINE
  8
_f-f_
  6
CONTINUOUS
 62
    7
 10
266.36646399999995
 20
12.009792000000004
 11
266.38841599999989
 21
11.965888000000007
  0
LINE
  8
_f-f_
  6
CONTINUOUS
 62
    7
 10
266.38841599999989
 20
11.965888000000007
 11
266.42134399999998
 21
11.921984000000009
  0
LINE
  8
_f-f_
  6
CONTINUOUS
 62
    7
 10
266.42134399999998
 20
11.921984000000009
 11
266.44329599999992
 21
11.878080000000011
  0
LINE
  8
_f-f_
  6
CONTINUOUS
 62
    7
 10
266.44329599999992
 20
11.878080000000011
 11
266.476224
 21
11.834176000000014
  0
LINE
  8
_f-f_
  6
CONTINUOUS
 62
    7
 10
266.476224
 20
11.834176000000014
 11
266.49817599999994
 21
11.790272000000016
  0
LINE
  8
_f-f_
  6
CONTINUOUS
 62
    7
 10
266.49817599999994
 20
11.790272000000016
 11
266.53110399999997
 21
11.746368000000018
  0
LINE
  8
_f-f_
  6
CONTINUOUS
 62
    7
 10
266.53110399999997
 20
11.746368000000018
 11
266.55305599999997
 21
11.70246400000002
  0
LINE
  8
_f-f_
  6
CONTINUOUS
 62
    7
 10
269.22022399999992
 20
14.687935999999993
 11
268.9019199999999
 21
14.687935999999993
  0
LINE
  8
_f-f_
  6
CONTINUOUS
 62
    7
 10
268.9019199999999
 20
14.687935999999993
 11
268.9019199999999
 21
13.941568000000032
  0
LINE
  8
_f-f_
  6
CONTINUOUS
 62
    7
 10
268.9019199999999
 20
13.941568000000032
 11
268.56166399999995
 21
13.941568000000032
  0
LINE
  8
_f-f_
  6
CONTINUOUS
 62
    7
 10
268.37507199999993
 20
14.336704000000026
 11
268.35311999999999
 21
14.336704000000026
  0
LINE
  8
_f-f_
  6
CONTINUOUS
 62
    7
 10
268.35311999999999
 20
14.336704000000026
 11
268.34214399999996
 21
14.292800000000028
  0
LINE
  8
_f-f_
  6
CONTINUOUS
 62
    7
 10
268.34214399999996
 20
14.292800000000028
 11
268.32019199999996
 21
14.248896000000016
  0
LINE
  8
_f-f_
  6
CONTINUOUS
 62
    7
 10
268.32019199999996
 20
14.248896000000016
 11
268.29823999999996
 21
14.161087999999992
  0
LINE
  8
_f-f_
  6
CONTINUOUS
 62
    7
 10
268.29823999999996
 20
14.161087999999992
 11
268.27628800000002
 21
14.117184000000023
  0
LINE
  8
_f-f_
  6
CONTINUOUS
 62
    7
 10
268.27628800000002
 20
14.117184000000023
 11
268.26531199999999
 21
14.073279999999997
  0
LINE
  8
_f-f_
  6
CONTINUOUS
 62
    7
 10
268.26531199999999
 20
14.073279999999997
 11
268.24335999999994
 21
14.029375999999999
  0
LINE
  8
_f-f_
  6
CONTINUOUS
 62
    7
 10
268.24335999999994
 20
14.029375999999999
 11
268.23238399999997
 21
13.985471999999987
  0
LINE
  8
_f-f_
  6
CONTINUOUS
 62
    7
 10
268.23238399999997
 20
13.985471999999987
 11
268.18847999999991
 21
13.897663999999992
  0
LINE
  8
_f-f_
  6
CONTINUOUS
 62
    7
 10
268.18847999999991
 20
13.897663999999992
 11
268.17750399999989
 21
13.853760000000037
  0
LINE
  8
_f-f_
  6
CONTINUOUS
 62
    7
 10
268.17750399999989
 20
13.853760000000037
 11
268.11164799999995
 21
13.722048000000001
  0
LINE
  8
_f-f_
  6
CONTINUOUS
 62
    7
 10
268.11164799999995
 20
13.722048000000001
 11
268.07871999999998
 21
13.678143999999975
  0
LINE
  8
_f-f_
  6
CONTINUOUS
 62
    7
 10
268.07871999999998
 20
13.678143999999975
 11
268.03481599999992
 21
13.590336000000008
  0
LINE
  8
_f-f_
  6
CONTINUOUS
 62
    7
 10
268.03481599999992
 20
13.590336000000008
 11
267.90310399999998
 21
13.414720000000017
  0
LINE
  8
_f-f_
  6
CONTINUOUS
 62
    7
 10
267.90310399999998
 20
13.414720000000017
 11
267.85919999999999
 21
13.370815999999991
  0
LINE
  8
_f-f_
  6
CONTINUOUS
 62
    7
 10
267.85919999999999
 20
13.370815999999991
 11
267.99091199999998
 21
13.239103999999998
  0
LINE
  8
_f-f_
  6
CONTINUOUS
 62
    7
 10
267.99091199999998
 20
13.239103999999998
 11
268.02383999999995
 21
13.195199999999971
  0
LINE
  8
_f-f_
  6
CONTINUOUS
 62
    7
 10
268.02383999999995
 20
13.195199999999971
 11
268.11164799999995
 21
13.107392000000061
  0
LINE
  8
_f-f_
  6
CONTINUOUS
 62
    7
 10
268.9019199999999
 20
13.546432000000038
 11
268.9019199999999
 21
13.019583999999952
  0
LINE
  8
_f-f_
  6
CONTINUOUS
 62
    7
 10
268.87996799999996
 20
12.624447999999973
 11
268.85801599999996
 21
12.580544000000003
  0
LINE
  8
_f-f_
  6
CONTINUOUS
 62
    7
 10
268.85801599999996
 20
12.580544000000003
 11
268.82508799999994
 21
12.536639999999977
  0
LINE
  8
_f-f_
  6
CONTINUOUS
 62
    7
 10
268.82508799999994
 20
12.536639999999977
 11
268.80313599999999
 21
12.492735999999979
  0
LINE
  8
_f-f_
  6
CONTINUOUS
 62
    7
 10
268.80313599999999
 20
12.492735999999979
 11
268.70435199999997
 21
12.361024000000015
  0
LINE
  8
_f-f_
  6
CONTINUOUS
 62
    7
 10
268.70435199999997
 20
12.361024000000015
 11
268.68239999999997
 21
12.317120000000017
  0
LINE
  8
_f-f_
  6
CONTINUOUS
 62
    7
 10
268.68239999999997
 20
12.317120000000017
 11
268.64947199999995
 21
12.273216000000019
  0
LINE
  8
_f-f_
  6
CONTINUOUS
 62
    7
 10
268.64947199999995
 20
12.273216000000019
 11
268.60556799999995
 21
12.229311999999993
  0
LINE
  8
_f-f_
  6
CONTINUOUS
 62
    7
 10
268.60556799999995
 20
12.229311999999993
 11
268.50678399999998
 21
12.0976
  0
LINE
  8
_f-f_
  6
CONTINUOUS
 62
    7
 10
268.50678399999998
 20
12.0976
 11
268.41897599999993
 21
12.009792000000004
  0
LINE
  8
_f-f_
  6
CONTINUOUS
 62
    7
 10
268.41897599999993
 20
12.009792000000004
 11
268.38604799999996
 21
11.965888000000007
  0
LINE
  8
_f-f_
  6
CONTINUOUS
 62
    7
 10
268.38604799999996
 20
11.965888000000007
 11
268.21043199999997
 21
11.790272000000016
  0
LINE
  8
_f-f_
  6
CONTINUOUS
 62
    7
 10
268.21043199999997
 20
11.790272000000016
 11
268.15555199999994
 21
11.746368000000018
  0
LINE
  8
_f-f_
  6
CONTINUOUS
 62
    7
 10
268.15555199999994
 20
11.746368000000018
 11
268.11164799999995
 21
11.70246400000002
  0
LINE
  8
_f-f_
  6
CONTINUOUS
 62
    7
 10
268.11164799999995
 20
11.70246400000002
 11
268.05676799999998
 21
11.658559999999994
  0
LINE
  8
_f-f_
  6
CONTINUOUS
 62
    7
 10
268.05676799999998
 20
11.658559999999994
 11
268.01286399999992
 21
11.614655999999997
  0
LINE
  8
_f-f_
  6
CONTINUOUS
 62
    7
 10
268.01286399999992
 20
11.614655999999997
 11
267.95798399999995
 21
11.570752000000027
  0
LINE
  8
_f-f_
  6
CONTINUOUS
 62
    7
 10
267.95798399999995
 20
11.570752000000027
 11
267.89212799999996
 21
11.52684800000003
  0
LINE
  8
_f-f_
  6
CONTINUOUS
 62
    7
 10
267.89212799999996
 20
11.52684800000003
 11
267.72748799999999
 21
11.395136000000008
  0
LINE
  8
_f-f_
  6
CONTINUOUS
 62
    7
 10
267.72748799999999
 20
11.395136000000008
 11
267.79334399999999
 21
11.263423999999986
  0
LINE
  8
_f-f_
  6
CONTINUOUS
 62
    7
 10
267.79334399999999
 20
11.263423999999986
 11
267.8262719999999
 21
11.219519999999989
  0
LINE
  8
_f-f_
  6
CONTINUOUS
 62
    7
 10
267.8262719999999
 20
11.219519999999989
 11
267.89212799999996
 21
11.087808000000024
  0
LINE
  8
_f-f_
  6
CONTINUOUS
 62
    7
 10
267.44211199999995
 20
12.536639999999977
 11
267.48601599999995
 21
12.492735999999979
  0
LINE
  8
_f-f_
  6
CONTINUOUS
 62
    7
 10
267.48601599999995
 20
12.492735999999979
 11
267.61772799999994
 21
12.317120000000017
  0
LINE
  8
_f-f_
  6
CONTINUOUS
 62
    7
 10
267.61772799999994
 20
12.317120000000017
 11
267.63968
 21
12.273216000000019
  0
LINE
  8
_f-f_
  6
CONTINUOUS
 62
    7
 10
267.63968
 20
12.273216000000019
 11
267.67260799999997
 21
12.229311999999993
  0
LINE
  8
_f-f_
  6
CONTINUOUS
 62
    7
 10
267.67260799999997
 20
12.229311999999993
 11
267.69455999999997
 21
12.185407999999995
  0
LINE
  8
_f-f_
  6
CONTINUOUS
 62
    7
 10
267.69455999999997
 20
12.185407999999995
 11
267.72748799999999
 21
12.141503999999998
  0
LINE
  8
_f-f_
  6
CONTINUOUS
 62
    7
 10
267.06892800000003
 20
12.448831999999982
 11
267.06892800000003
 21
10.736576000000014
  0
LINE
  8
_f-f_
  6
CONTINUOUS
 62
    7
 10
268.9019199999999
 20
12.0976
 11
268.9019199999999
 21
10.736576000000014
  0
LINE
  8
_f-f_
  6
CONTINUOUS
 62
    7
 10
269.27510399999994
 20
12.0976
 11
269.37388799999991
 21
11.965888000000007
  0
LINE
  8
_f-f_
  6
CONTINUOUS
 62
    7
 10
269.37388799999991
 20
11.965888000000007
 11
269.41779199999996
 21
11.921984000000009
  0
LINE
  8
_f-f_
  6
CONTINUOUS
 62
    7
 10
269.41779199999996
 20
11.921984000000009
 11
269.45071999999993
 21
11.878080000000011
  0
LINE
  8
_f-f_
  6
CONTINUOUS
 62
    7
 10
269.45071999999993
 20
11.878080000000011
 11
269.49462399999999
 21
11.834176000000014
  0
LINE
  8
_f-f_
  6
CONTINUOUS
 62
    7
 10
269.49462399999999
 20
11.834176000000014
 11
269.5275519999999
 21
11.790272000000016
  0
LINE
  8
_f-f_
  6
CONTINUOUS
 62
    7
 10
269.5275519999999
 20
11.790272000000016
 11
269.70316800000001
 21
11.614655999999997
  0
LINE
  8
_f-f_
  6
CONTINUOUS
 62
    7
 10
269.70316800000001
 20
11.614655999999997
 11
269.75804799999997
 21
11.570752000000027
  0
LINE
  8
_f-f_
  6
CONTINUOUS
 62
    7
 10
269.75804799999997
 20
11.570752000000027
 11
269.80195199999991
 21
11.52684800000003
  0
LINE
  8
_f-f_
  6
CONTINUOUS
 62
    7
 10
269.80195199999991
 20
11.52684800000003
 11
269.91171199999997
 21
11.439040000000034
  0
LINE
  8
_f-f_
  6
CONTINUOUS
 62
    7
 10
269.91171199999997
 20
11.439040000000034
 11
269.95561599999996
 21
11.395136000000008
  0
LINE
  8
_f-f_
  6
CONTINUOUS
 62
    7
 10
269.95561599999996
 20
11.395136000000008
 11
270.01049599999999
 21
11.35123200000001
  0
LINE
  8
_f-f_
  6
CONTINUOUS
 62
    7
 10
270.01049599999999
 20
11.35123200000001
 11
270.07635199999993
 21
11.307327999999984
  0
LINE
  8
_f-f_
  6
CONTINUOUS
 62
    7
 10
270.07635199999993
 20
11.307327999999984
 11
270.18611199999998
 21
11.219519999999989
  0
LINE
  8
_f-f_
  6
CONTINUOUS
 62
    7
 10
267.37625600000001
 20
14.687935999999993
 11
267.44211199999995
 21
14.644031999999967
  0
LINE
  8
_f-f_
  6
CONTINUOUS
 62
    7
 10
267.44211199999995
 20
14.644031999999967
 11
267.39820799999995
 21
14.600128000000012
  0
LINE
  8
_f-f_
  6
CONTINUOUS
 62
    7
 10
267.39820799999995
 20
14.600128000000012
 11
267.38723200000004
 21
14.556224000000014
  0
LINE
  8
_f-f_
  6
CONTINUOUS
 62
    7
 10
267.38723200000004
 20
14.556224000000014
 11
267.38723200000004
 21
13.853760000000037
  0
LINE
  8
_f-f_
  6
CONTINUOUS
 62
    7
 10
267.38723200000004
 20
13.458624000000043
 11
267.38723200000004
 21
12.975680000000011
  0
LINE
  8
_f-f_
  6
CONTINUOUS
 62
    7
 10
267.38723200000004
 20
12.975680000000011
 11
267.51894399999992
 21
12.887871999999987
  0
LINE
  8
_f-f_
  6
CONTINUOUS
 62
    7
 10
267.51894399999992
 20
12.887871999999987
 11
267.683584
 21
12.756160000000023
  0
LINE
  8
_f-f_
  6
CONTINUOUS
 62
    7
 10
267.683584
 20
12.756160000000023
 11
267.90310399999998
 21
12.536639999999977
  0
LINE
  8
_f-f_
  6
CONTINUOUS
 62
    7
 10
267.90310399999998
 20
12.536639999999977
 11
267.96895999999992
 21
12.448831999999982
  0
LINE
  8
_f-f_
  6
CONTINUOUS
 62
    7
 10
267.96895999999992
 20
12.448831999999982
 11
267.80431999999996
 21
12.229311999999993
  0
LINE
  8
_f-f_
  6
CONTINUOUS
 62
    7
 10
267.80431999999996
 20
12.229311999999993
 11
267.76041599999996
 21
12.185407999999995
  0
LINE
  8
_f-f_
  6
CONTINUOUS
 62
    7
 10
267.76041599999996
 20
12.185407999999995
 11
267.72748799999999
 21
12.141503999999998
  0
LINE
  8
_f-f_
  6
CONTINUOUS
 62
    7
 10
269.22022399999992
 20
14.687935999999993
 11
269.27510399999994
 21
14.644031999999967
  0
LINE
  8
_f-f_
  6
CONTINUOUS
 62
    7
 10
269.27510399999994
 20
14.644031999999967
 11
269.23119999999994
 21
14.600128000000012
  0
LINE
  8
_f-f_
  6
CONTINUOUS
 62
    7
 10
269.23119999999994
 20
14.600128000000012
 11
269.23119999999994
 21
13.941568000000032
  0
LINE
  8
_f-f_
  6
CONTINUOUS
 62
    7
 10
269.23119999999994
 20
13.546432000000038
 11
269.23119999999994
 21
13.019583999999952
  0
LINE
  8
_f-f_
  6
CONTINUOUS
 62
    7
 10
269.26412799999991
 20
12.624447999999973
 11
269.28607999999997
 21
12.580544000000003
  0
LINE
  8
_f-f_
  6
CONTINUOUS
 62
    7
 10
269.28607999999997
 20
12.580544000000003
 11
269.48364800000002
 21
12.317120000000017
  0
LINE
  8
_f-f_
  6
CONTINUOUS
 62
    7
 10
269.48364800000002
 20
12.317120000000017
 11
269.5275519999999
 21
12.273216000000019
  0
LINE
  8
_f-f_
  6
CONTINUOUS
 62
    7
 10
269.5275519999999
 20
12.273216000000019
 11
269.56047999999998
 21
12.229311999999993
  0
LINE
  8
_f-f_
  6
CONTINUOUS
 62
    7
 10
269.56047999999998
 20
12.229311999999993
 11
269.64828799999998
 21
12.141503999999998
  0
LINE
  8
_f-f_
  6
CONTINUOUS
 62
    7
 10
269.64828799999998
 20
12.141503999999998
 11
269.70316800000001
 21
12.0976
  0
LINE
  8
_f-f_
  6
CONTINUOUS
 62
    7
 10
269.70316800000001
 20
12.0976
 11
269.74707199999995
 21
12.053696000000031
  0
LINE
  8
_f-f_
  6
CONTINUOUS
 62
    7
 10
269.74707199999995
 20
12.053696000000031
 11
270.02147199999996
 21
11.834176000000014
  0
LINE
  8
_f-f_
  6
CONTINUOUS
 62
    7
 10
270.02147199999996
 20
11.834176000000014
 11
270.35075199999994
 21
11.614655999999997
  0
LINE
  8
_f-f_
  6
CONTINUOUS
 62
    7
 10
270.35075199999994
 20
11.614655999999997
 11
270.42758399999991
 21
11.570752000000027
  0
LINE
  8
_f-f_
  6
CONTINUOUS
 62
    7
 10
270.42758399999991
 20
11.570752000000027
 11
270.38367999999997
 21
11.482944000000003
  0
LINE
  8
_f-f_
  6
CONTINUOUS
 62
    7
 10
270.38367999999997
 20
11.482944000000003
 11
270.35075199999994
 21
11.439040000000034
  0
LINE
  8
_f-f_
  6
CONTINUOUS
 62
    7
 10
270.35075199999994
 20
11.439040000000034
 11
270.24099199999989
 21
11.219519999999989
  0
LINE
  8
_f-f_
  6
CONTINUOUS
 62
    7
 10
270.24099199999989
 20
11.219519999999989
 11
270.18611199999998
 21
11.219519999999989
  0
LINE
  8
_f-f_
  6
CONTINUOUS
 62
    7
 10
268.37507199999993
 20
14.336704000000026
 11
268.55068799999992
 21
14.292800000000028
  0
LINE
  8
_f-f_
  6
CONTINUOUS
 62
    7
 10
268.55068799999992
 20
14.292800000000028
 11
268.70435199999997
 21
14.248896000000016
  0
LINE
  8
_f-f_
  6
CONTINUOUS
 62
    7
 10
268.70435199999997
 20
14.248896000000016
 11
268.70435199999997
 21
14.204992000000018
  0
LINE
  8
_f-f_
  6
CONTINUOUS
 62
    7
 10
268.70435199999997
 20
14.204992000000018
 11
268.63849599999992
 21
14.161087999999992
  0
LINE
  8
_f-f_
  6
CONTINUOUS
 62
    7
 10
268.63849599999992
 20
14.161087999999992
 11
268.62752
 21
14.117184000000023
  0
LINE
  8
_f-f_
  6
CONTINUOUS
 62
    7
 10
268.62752
 20
14.117184000000023
 11
268.60556799999995
 21
14.073279999999997
  0
LINE
  8
_f-f_
  6
CONTINUOUS
 62
    7
 10
268.60556799999995
 20
14.073279999999997
 11
268.58361600000001
 21
13.985471999999987
  0
LINE
  8
_f-f_
  6
CONTINUOUS
 62
    7
 10
268.58361600000001
 20
13.985471999999987
 11
268.56166399999995
 21
13.941568000000032
  0
LINE
  8
_f-f_
  6
CONTINUOUS
 62
    7
 10
268.9019199999999
 20
13.546432000000038
 11
268.40799999999996
 21
13.546432000000038
  0
LINE
  8
_f-f_
  6
CONTINUOUS
 62
    7
 10
268.40799999999996
 20
13.546432000000038
 11
268.34214399999996
 21
13.414720000000017
  0
LINE
  8
_f-f_
  6
CONTINUOUS
 62
    7
 10
268.34214399999996
 20
13.414720000000017
 11
268.30921599999999
 21
13.370815999999991
  0
LINE
  8
_f-f_
  6
CONTINUOUS
 62
    7
 10
268.30921599999999
 20
13.370815999999991
 11
268.26531199999999
 21
13.283008000000024
  0
LINE
  8
_f-f_
  6
CONTINUOUS
 62
    7
 10
268.26531199999999
 20
13.283008000000024
 11
268.13359999999994
 21
13.107392000000061
  0
LINE
  8
_f-f_
  6
CONTINUOUS
 62
    7
 10
268.13359999999994
 20
13.107392000000061
 11
268.11164799999995
 21
13.107392000000061
  0
LINE
  8
_f-f_
  6
CONTINUOUS
 62
    7
 10
267.44211199999995
 20
12.536639999999977
 11
267.38723200000004
 21
12.536639999999977
  0
LINE
  8
_f-f_
  6
CONTINUOUS
 62
    7
 10
267.38723200000004
 20
12.536639999999977
 11
267.38723200000004
 21
10.736576000000014
  0
LINE
  8
_f-f_
  6
CONTINUOUS
 62
    7
 10
267.38723200000004
 20
10.736576000000014
 11
267.06892800000003
 21
10.736576000000014
  0
LINE
  8
_f-f_
  6
CONTINUOUS
 62
    7
 10
267.06892800000003
 20
12.448831999999982
 11
267.03599999999994
 21
12.448831999999982
  0
LINE
  8
_f-f_
  6
CONTINUOUS
 62
    7
 10
267.03599999999994
 20
12.448831999999982
 11
266.99209599999995
 21
12.361024000000015
  0
LINE
  8
_f-f_
  6
CONTINUOUS
 62
    7
 10
266.99209599999995
 20
12.361024000000015
 11
266.98111999999998
 21
12.317120000000017
  0
LINE
  8
_f-f_
  6
CONTINUOUS
 62
    7
 10
266.98111999999998
 20
12.317120000000017
 11
266.91526399999998
 21
12.185407999999995
  0
LINE
  8
_f-f_
  6
CONTINUOUS
 62
    7
 10
266.91526399999998
 20
12.185407999999995
 11
266.88233600000001
 21
12.141503999999998
  0
LINE
  8
_f-f_
  6
CONTINUOUS
 62
    7
 10
266.88233600000001
 20
12.141503999999998
 11
266.8384319999999
 21
12.053696000000031
  0
LINE
  8
_f-f_
  6
CONTINUOUS
 62
    7
 10
266.8384319999999
 20
12.053696000000031
 11
266.77257599999996
 21
11.965888000000007
  0
LINE
  8
_f-f_
  6
CONTINUOUS
 62
    7
 10
266.77257599999996
 20
11.965888000000007
 11
266.7506239999999
 21
11.921984000000009
  0
LINE
  8
_f-f_
  6
CONTINUOUS
 62
    7
 10
266.7506239999999
 20
11.921984000000009
 11
266.65183999999999
 21
11.790272000000016
  0
LINE
  8
_f-f_
  6
CONTINUOUS
 62
    7
 10
266.65183999999999
 20
11.790272000000016
 11
266.607936
 21
11.746368000000018
  0
LINE
  8
_f-f_
  6
CONTINUOUS
 62
    7
 10
266.607936
 20
11.746368000000018
 11
266.57500799999991
 21
11.70246400000002
  0
LINE
  8
_f-f_
  6
CONTINUOUS
 62
    7
 10
266.57500799999991
 20
11.70246400000002
 11
266.55305599999997
 21
11.70246400000002
  0
LINE
  8
_f-f_
  6
CONTINUOUS
 62
    7
 10
268.9019199999999
 20
12.0976
 11
268.87996799999996
 21
12.0976
  0
LINE
  8
_f-f_
  6
CONTINUOUS
 62
    7
 10
268.87996799999996
 20
12.0976
 11
268.84703999999994
 21
12.053696000000031
  0
LINE
  8
_f-f_
  6
CONTINUOUS
 62
    7
 10
268.84703999999994
 20
12.053696000000031
 11
268.82508799999994
 21
12.009792000000004
  0
LINE
  8
_f-f_
  6
CONTINUOUS
 62
    7
 10
268.82508799999994
 20
12.009792000000004
 11
268.79215999999997
 21
11.965888000000007
  0
LINE
  8
_f-f_
  6
CONTINUOUS
 62
    7
 10
268.79215999999997
 20
11.965888000000007
 11
268.77020799999997
 21
11.921984000000009
  0
LINE
  8
_f-f_
  6
CONTINUOUS
 62
    7
 10
268.77020799999997
 20
11.921984000000009
 11
268.60556799999995
 21
11.70246400000002
  0
LINE
  8
_f-f_
  6
CONTINUOUS
 62
    7
 10
268.60556799999995
 20
11.70246400000002
 11
268.56166399999995
 21
11.658559999999994
  0
LINE
  8
_f-f_
  6
CONTINUOUS
 62
    7
 10
268.56166399999995
 20
11.658559999999994
 11
268.52873599999998
 21
11.614655999999997
  0
LINE
  8
_f-f_
  6
CONTINUOUS
 62
    7
 10
268.52873599999998
 20
11.614655999999997
 11
268.26531199999999
 21
11.35123200000001
  0
LINE
  8
_f-f_
  6
CONTINUOUS
 62
    7
 10
268.26531199999999
 20
11.35123200000001
 11
267.99091199999998
 21
11.131712000000022
  0
LINE
  8
_f-f_
  6
CONTINUOUS
 62
    7
 10
267.99091199999998
 20
11.131712000000022
 11
267.92505599999993
 21
11.087808000000024
  0
LINE
  8
_f-f_
  6
CONTINUOUS
 62
    7
 10
267.92505599999993
 20
11.087808000000024
 11
267.89212799999996
 21
11.087808000000024
  0
LINE
  8
_f-f_
  6
CONTINUOUS
 62
    7
 10
269.27510399999994
 20
12.0976
 11
269.23119999999994
 21
12.0976
  0
LINE
  8
_f-f_
  6
CONTINUOUS
 62
    7
 10
269.23119999999994
 20
12.0976
 11
269.23119999999994
 21
10.736576000000014
  0
LINE
  8
_f-f_
  6
CONTINUOUS
 62
    7
 10
269.23119999999994
 20
10.736576000000014
 11
268.9019199999999
 21
10.736576000000014
  0
LINE
  8
_f-f_
  6
CONTINUOUS
 62
    7
 10
273.48988799999995
 20
14.600128000000012
 11
273.07279999999992
 21
14.600128000000012
  0
LINE
  8
_f-f_
  6
CONTINUOUS
 62
    7
 10
273.07279999999992
 20
14.600128000000012
 11
273.07279999999992
 21
13.853760000000037
  0
LINE
  8
_f-f_
  6
CONTINUOUS
 62
    7
 10
273.083776
 20
13.458624000000043
 11
273.083776
 21
13.414720000000017
  0
LINE
  8
_f-f_
  6
CONTINUOUS
 62
    7
 10
273.083776
 20
13.414720000000017
 11
273.09475199999997
 21
13.370815999999991
  0
LINE
  8
_f-f_
  6
CONTINUOUS
 62
    7
 10
273.09475199999997
 20
13.370815999999991
 11
273.09475199999997
 21
13.151296000000031
  0
LINE
  8
_f-f_
  6
CONTINUOUS
 62
    7
 10
273.09475199999997
 20
13.151296000000031
 11
273.105728
 21
13.107392000000061
  0
LINE
  8
_f-f_
  6
CONTINUOUS
 62
    7
 10
273.105728
 20
13.107392000000061
 11
273.105728
 21
12.975680000000011
  0
LINE
  8
_f-f_
  6
CONTINUOUS
 62
    7
 10
273.105728
 20
12.975680000000011
 11
273.11670399999991
 21
12.931776000000013
  0
LINE
  8
_f-f_
  6
CONTINUOUS
 62
    7
 10
273.11670399999991
 20
12.931776000000013
 11
273.11670399999991
 21
12.84396799999999
  0
LINE
  8
_f-f_
  6
CONTINUOUS
 62
    7
 10
273.11670399999991
 20
12.84396799999999
 11
273.12767999999994
 21
12.800064000000049
  0
LINE
  8
_f-f_
  6
CONTINUOUS
 62
    7
 10
273.12767999999994
 20
12.800064000000049
 11
273.12767999999994
 21
12.756160000000023
  0
LINE
  8
_f-f_
  6
CONTINUOUS
 62
    7
 10
273.12767999999994
 20
12.756160000000023
 11
273.13865599999997
 21
12.712256000000025
  0
LINE
  8
_f-f_
  6
CONTINUOUS
 62
    7
 10
273.13865599999997
 20
12.712256000000025
 11
273.13865599999997
 21
12.668351999999999
  0
LINE
  8
_f-f_
  6
CONTINUOUS
 62
    7
 10
273.13865599999997
 20
12.668351999999999
 11
273.149632
 21
12.624447999999973
  0
LINE
  8
_f-f_
  6
CONTINUOUS
 62
    7
 10
273.149632
 20
12.624447999999973
 11
273.149632
 21
12.580544000000003
  0
LINE
  8
_f-f_
  6
CONTINUOUS
 62
    7
 10
273.149632
 20
12.580544000000003
 11
273.17158399999994
 21
12.492735999999979
  0
LINE
  8
_f-f_
  6
CONTINUOUS
 62
    7
 10
273.17158399999994
 20
12.492735999999979
 11
273.17158399999994
 21
12.448831999999982
  0
LINE
  8
_f-f_
  6
CONTINUOUS
 62
    7
 10
273.17158399999994
 20
12.448831999999982
 11
273.20451199999991
 21
12.317120000000017
  0
LINE
  8
_f-f_
  6
CONTINUOUS
 62
    7
 10
273.20451199999991
 20
12.317120000000017
 11
273.20451199999991
 21
12.273216000000019
  0
LINE
  8
_f-f_
  6
CONTINUOUS
 62
    7
 10
273.20451199999991
 20
12.273216000000019
 11
273.25939199999999
 21
12.053696000000031
  0
LINE
  8
_f-f_
  6
CONTINUOUS
 62
    7
 10
273.25939199999999
 20
12.053696000000031
 11
273.28134399999999
 21
12.009792000000004
  0
LINE
  8
_f-f_
  6
CONTINUOUS
 62
    7
 10
273.28134399999999
 20
12.009792000000004
 11
273.31427199999996
 21
11.878080000000011
  0
LINE
  8
_f-f_
  6
CONTINUOUS
 62
    7
 10
273.31427199999996
 20
11.878080000000011
 11
273.3362239999999
 21
11.834176000000014
  0
LINE
  8
_f-f_
  6
CONTINUOUS
 62
    7
 10
273.3362239999999
 20
11.834176000000014
 11
273.34719999999999
 21
11.790272000000016
  0
LINE
  8
_f-f_
  6
CONTINUOUS
 62
    7
 10
273.34719999999999
 20
11.790272000000016
 11
273.41305599999998
 21
11.658559999999994
  0
LINE
  8
_f-f_
  6
CONTINUOUS
 62
    7
 10
273.41305599999998
 20
11.658559999999994
 11
273.42403199999995
 21
11.614655999999997
  0
LINE
  8
_f-f_
  6
CONTINUOUS
 62
    7
 10
273.42403199999995
 20
11.614655999999997
 11
273.44598400000001
 21
11.570752000000027
  0
LINE
  8
_f-f_
  6
CONTINUOUS
 62
    7
 10
273.44598400000001
 20
11.570752000000027
 11
273.47891199999992
 21
11.52684800000003
  0
LINE
  8
_f-f_
  6
CONTINUOUS
 62
    7
 10
273.47891199999992
 20
11.52684800000003
 11
273.52281599999992
 21
11.439040000000034
  0
LINE
  8
_f-f_
  6
CONTINUOUS
 62
    7
 10
273.52281599999992
 20
11.439040000000034
 11
273.555744
 21
11.395136000000008
  0
LINE
  8
_f-f_
  6
CONTINUOUS
 62
    7
 10
273.555744
 20
11.395136000000008
 11
273.57769599999995
 21
11.35123200000001
  0
LINE
  8
_f-f_
  6
CONTINUOUS
 62
    7
 10
273.57769599999995
 20
11.35123200000001
 11
273.70940799999994
 21
11.175616000000019
  0
LINE
  8
_f-f_
  6
CONTINUOUS
 62
    7
 10
273.70940799999994
 20
11.175616000000019
 11
273.79721599999993
 21
11.087808000000024
  0
LINE
  8
_f-f_
  6
CONTINUOUS
 62
    7
 10
273.79721599999993
 20
11.087808000000024
 11
273.85209599999996
 21
11.043903999999998
  0
LINE
  8
_f-f_
  6
CONTINUOUS
 62
    7
 10
273.85209599999996
 20
11.043903999999998
 11
273.98380799999995
 21
10.956095999999974
  0
LINE
  8
_f-f_
  6
CONTINUOUS
 62
    7
 10
273.98380799999995
 20
10.956095999999974
 11
274.093568
 21
10.912192000000005
  0
LINE
  8
_f-f_
  6
CONTINUOUS
 62
    7
 10
273.95087999999998
 20
14.512320000000003
 11
273.90697599999999
 21
14.512320000000003
  0
LINE
  8
_f-f_
  6
CONTINUOUS
 62
    7
 10
273.90697599999999
 20
14.512320000000003
 11
273.85209599999996
 21
14.468416000000005
  0
LINE
  8
_f-f_
  6
CONTINUOUS
 62
    7
 10
273.85209599999996
 20
14.468416000000005
 11
273.80819200000002
 21
14.424512000000007
  0
LINE
  8
_f-f_
  6
CONTINUOUS
 62
    7
 10
273.80819200000002
 20
14.424512000000007
 11
273.69843199999997
 21
14.336704000000026
  0
LINE
  8
_f-f_
  6
CONTINUOUS
 62
    7
 10
273.69843199999997
 20
14.336704000000026
 11
273.65452800000003
 21
14.292800000000028
  0
LINE
  8
_f-f_
  6
CONTINUOUS
 62
    7
 10
273.65452800000003
 20
14.292800000000028
 11
273.69843199999997
 21
14.248896000000016
  0
LINE
  8
_f-f_
  6
CONTINUOUS
 62
    7
 10
273.69843199999997
 20
14.248896000000016
 11
273.77526399999999
 21
14.204992000000018
  0
LINE
  8
_f-f_
  6
CONTINUOUS
 62
    7
 10
273.77526399999999
 20
14.204992000000018
 11
273.84111999999993
 21
14.161087999999992
  0
LINE
  8
_f-f_
  6
CONTINUOUS
 62
    7
 10
273.84111999999993
 20
14.161087999999992
 11
274.06063999999998
 21
13.985471999999987
  0
LINE
  8
_f-f_
  6
CONTINUOUS
 62
    7
 10
272.83132799999998
 20
12.84396799999999
 11
271.15199999999993
 21
12.84396799999999
  0
LINE
  8
_f-f_
  6
CONTINUOUS
 62
    7
 10
271.83251199999995
 20
12.536639999999977
 11
271.83251199999995
 21
11.570752000000027
  0
LINE
  8
_f-f_
  6
CONTINUOUS
 62
    7
 10
271.83251199999995
 20
11.570752000000027
 11
271.56908799999997
 21
11.52684800000003
  0
LINE
  8
_f-f_
  6
CONTINUOUS
 62
    7
 10
271.56908799999997
 20
11.52684800000003
 11
271.19590399999998
 21
11.482944000000003
  0
LINE
  8
_f-f_
  6
CONTINUOUS
 62
    7
 10
271.19590399999998
 20
11.482944000000003
 11
270.99833599999994
 21
11.439040000000034
  0
LINE
  8
_f-f_
  6
CONTINUOUS
 62
    7
 10
270.99833599999994
 20
11.439040000000034
 11
271.04223999999999
 21
11.263423999999986
  0
LINE
  8
_f-f_
  6
CONTINUOUS
 62
    7
 10
271.04223999999999
 20
11.263423999999986
 11
271.04223999999999
 21
11.219519999999989
  0
LINE
  8
_f-f_
  6
CONTINUOUS
 62
    7
 10
271.04223999999999
 20
11.219519999999989
 11
271.08614399999999
 21
11.043903999999998
  0
LINE
  8
_f-f_
  6
CONTINUOUS
 62
    7
 10
271.08614399999999
 20
11.043903999999998
 11
271.11907199999996
 21
11
  0
LINE
  8
_f-f_
  6
CONTINUOUS
 62
    7
 10
273.07279999999992
 20
11.746368000000018
 11
272.95206399999995
 21
11.746368000000018
  0
LINE
  8
_f-f_
  6
CONTINUOUS
 62
    7
 10
272.95206399999995
 20
11.746368000000018
 11
272.71059199999996
 21
11.70246400000002
  0
LINE
  8
_f-f_
  6
CONTINUOUS
 62
    7
 10
272.71059199999996
 20
11.70246400000002
 11
272.44716799999998
 21
11.658559999999994
  0
LINE
  8
_f-f_
  6
CONTINUOUS
 62
    7
 10
272.44716799999998
 20
11.658559999999994
 11
272.16179199999999
 21
11.658559999999994
  0
LINE
  8
_f-f_
  6
CONTINUOUS
 62
    7
 10
274.38991999999996
 20
11.70246400000002
 11
274.31308799999994
 21
11.70246400000002
  0
LINE
  8
_f-f_
  6
CONTINUOUS
 62
    7
 10
274.31308799999994
 20
11.70246400000002
 11
274.31308799999994
 21
11.614655999999997
  0
LINE
  8
_f-f_
  6
CONTINUOUS
 62
    7
 10
274.31308799999994
 20
11.614655999999997
 11
274.30211199999997
 21
11.570752000000027
  0
LINE
  8
_f-f_
  6
CONTINUOUS
 62
    7
 10
274.30211199999997
 20
11.570752000000027
 11
274.30211199999997
 21
11.52684800000003
  0
LINE
  8
_f-f_
  6
CONTINUOUS
 62
    7
 10
274.30211199999997
 20
11.52684800000003
 11
274.29113599999994
 21
11.482944000000003
  0
LINE
  8
_f-f_
  6
CONTINUOUS
 62
    7
 10
274.29113599999994
 20
11.482944000000003
 11
274.29113599999994
 21
11.439040000000034
  0
LINE
  8
_f-f_
  6
CONTINUOUS
 62
    7
 10
274.29113599999994
 20
11.439040000000034
 11
274.269184
 21
11.395136000000008
  0
LINE
  8
_f-f_
  6
CONTINUOUS
 62
    7
 10
274.269184
 20
11.395136000000008
 11
274.23625599999997
 21
11.35123200000001
  0
LINE
  8
_f-f_
  6
CONTINUOUS
 62
    7
 10
274.23625599999997
 20
11.35123200000001
 11
274.137472
 21
11.35123200000001
  0
LINE
  8
_f-f_
  6
CONTINUOUS
 62
    7
 10
273.48988799999995
 20
14.600128000000012
 11
273.51183999999995
 21
14.556224000000014
  0
LINE
  8
_f-f_
  6
CONTINUOUS
 62
    7
 10
273.51183999999995
 20
14.556224000000014
 11
273.44598400000001
 21
14.468416000000005
  0
LINE
  8
_f-f_
  6
CONTINUOUS
 62
    7
 10
273.44598400000001
 20
14.468416000000005
 11
273.44598400000001
 21
13.853760000000037
  0
LINE
  8
_f-f_
  6
CONTINUOUS
 62
    7
 10
273.44598400000001
 20
13.458624000000043
 11
273.44598400000001
 21
13.370815999999991
  0
LINE
  8
_f-f_
  6
CONTINUOUS
 62
    7
 10
273.44598400000001
 20
13.370815999999991
 11
273.45695999999998
 21
13.326912000000021
  0
LINE
  8
_f-f_
  6
CONTINUOUS
 62
    7
 10
273.45695999999998
 20
13.326912000000021
 11
273.45695999999998
 21
13.239103999999998
  0
LINE
  8
_f-f_
  6
CONTINUOUS
 62
    7
 10
273.45695999999998
 20
13.239103999999998
 11
273.46793600000001
 21
13.195199999999971
  0
LINE
  8
_f-f_
  6
CONTINUOUS
 62
    7
 10
273.46793600000001
 20
13.195199999999971
 11
273.46793600000001
 21
13.107392000000061
  0
LINE
  8
_f-f_
  6
CONTINUOUS
 62
    7
 10
273.46793600000001
 20
13.107392000000061
 11
273.47891199999992
 21
13.063488000000007
  0
LINE
  8
_f-f_
  6
CONTINUOUS
 62
    7
 10
273.47891199999992
 20
13.063488000000007
 11
273.47891199999992
 21
13.019583999999952
  0
LINE
  8
_f-f_
  6
CONTINUOUS
 62
    7
 10
273.47891199999992
 20
13.019583999999952
 11
273.48988799999995
 21
12.975680000000011
  0
LINE
  8
_f-f_
  6
CONTINUOUS
 62
    7
 10
273.48988799999995
 20
12.975680000000011
 11
273.48988799999995
 21
12.887871999999987
  0
LINE
  8
_f-f_
  6
CONTINUOUS
 62
    7
 10
273.48988799999995
 20
12.887871999999987
 11
273.50086399999998
 21
12.84396799999999
  0
LINE
  8
_f-f_
  6
CONTINUOUS
 62
    7
 10
273.50086399999998
 20
12.84396799999999
 11
273.50086399999998
 21
12.800064000000049
  0
LINE
  8
_f-f_
  6
CONTINUOUS
 62
    7
 10
273.50086399999998
 20
12.800064000000049
 11
273.52281599999992
 21
12.712256000000025
  0
LINE
  8
_f-f_
  6
CONTINUOUS
 62
    7
 10
273.52281599999992
 20
12.712256000000025
 11
273.52281599999992
 21
12.668351999999999
  0
LINE
  8
_f-f_
  6
CONTINUOUS
 62
    7
 10
273.52281599999992
 20
12.668351999999999
 11
273.53379199999995
 21
12.624447999999973
  0
LINE
  8
_f-f_
  6
CONTINUOUS
 62
    7
 10
273.53379199999995
 20
12.624447999999973
 11
273.53379199999995
 21
12.580544000000003
  0
LINE
  8
_f-f_
  6
CONTINUOUS
 62
    7
 10
273.53379199999995
 20
12.580544000000003
 11
273.56671999999992
 21
12.448831999999982
  0
LINE
  8
_f-f_
  6
CONTINUOUS
 62
    7
 10
273.56671999999992
 20
12.448831999999982
 11
273.56671999999992
 21
12.404927999999984
  0
LINE
  8
_f-f_
  6
CONTINUOUS
 62
    7
 10
273.56671999999992
 20
12.404927999999984
 11
273.63257599999997
 21
12.141503999999998
  0
LINE
  8
_f-f_
  6
CONTINUOUS
 62
    7
 10
273.63257599999997
 20
12.141503999999998
 11
273.65452800000003
 21
12.0976
  0
LINE
  8
_f-f_
  6
CONTINUOUS
 62
    7
 10
273.65452800000003
 20
12.0976
 11
273.67647999999997
 21
12.009792000000004
  0
LINE
  8
_f-f_
  6
CONTINUOUS
 62
    7
 10
273.67647999999997
 20
12.009792000000004
 11
273.69843199999997
 21
11.965888000000007
  0
LINE
  8
_f-f_
  6
CONTINUOUS
 62
    7
 10
273.69843199999997
 20
11.965888000000007
 11
273.70940799999994
 21
11.921984000000009
  0
LINE
  8
_f-f_
  6
CONTINUOUS
 62
    7
 10
273.70940799999994
 20
11.921984000000009
 11
273.84111999999993
 21
11.658559999999994
  0
LINE
  8
_f-f_
  6
CONTINUOUS
 62
    7
 10
273.84111999999993
 20
11.658559999999994
 11
273.87404799999996
 21
11.614655999999997
  0
LINE
  8
_f-f_
  6
CONTINUOUS
 62
    7
 10
273.87404799999996
 20
11.614655999999997
 11
273.89599999999996
 21
11.570752000000027
  0
LINE
  8
_f-f_
  6
CONTINUOUS
 62
    7
 10
273.89599999999996
 20
11.570752000000027
 11
273.92892799999993
 21
11.52684800000003
  0
LINE
  8
_f-f_
  6
CONTINUOUS
 62
    7
 10
273.92892799999993
 20
11.52684800000003
 11
273.97283199999998
 21
11.482944000000003
  0
LINE
  8
_f-f_
  6
CONTINUOUS
 62
    7
 10
273.97283199999998
 20
11.482944000000003
 11
274.0057599999999
 21
11.439040000000034
  0
LINE
  8
_f-f_
  6
CONTINUOUS
 62
    7
 10
274.0057599999999
 20
11.439040000000034
 11
274.06063999999998
 21
11.395136000000008
  0
LINE
  8
_f-f_
  6
CONTINUOUS
 62
    7
 10
274.06063999999998
 20
11.395136000000008
 11
274.137472
 21
11.35123200000001
  0
LINE
  8
_f-f_
  6
CONTINUOUS
 62
    7
 10
273.95087999999998
 20
14.512320000000003
 11
274.10454399999992
 21
14.424512000000007
  0
LINE
  8
_f-f_
  6
CONTINUOUS
 62
    7
 10
274.10454399999992
 20
14.424512000000007
 11
274.15942399999994
 21
14.380608000000009
  0
LINE
  8
_f-f_
  6
CONTINUOUS
 62
    7
 10
274.15942399999994
 20
14.380608000000009
 11
274.22528
 21
14.336704000000026
  0
LINE
  8
_f-f_
  6
CONTINUOUS
 62
    7
 10
274.22528
 20
14.336704000000026
 11
274.28016000000002
 21
14.292800000000028
  0
LINE
  8
_f-f_
  6
CONTINUOUS
 62
    7
 10
274.28016000000002
 20
14.292800000000028
 11
274.32406400000002
 21
14.248896000000016
  0
LINE
  8
_f-f_
  6
CONTINUOUS
 62
    7
 10
274.32406400000002
 20
14.248896000000016
 11
274.35699199999999
 21
14.204992000000018
  0
LINE
  8
_f-f_
  6
CONTINUOUS
 62
    7
 10
274.35699199999999
 20
14.204992000000018
 11
274.24723199999994
 21
14.117184000000023
  0
LINE
  8
_f-f_
  6
CONTINUOUS
 62
    7
 10
274.24723199999994
 20
14.117184000000023
 11
274.20332799999994
 21
14.073279999999997
  0
LINE
  8
_f-f_
  6
CONTINUOUS
 62
    7
 10
274.20332799999994
 20
14.073279999999997
 11
274.093568
 21
13.985471999999987
  0
LINE
  8
_f-f_
  6
CONTINUOUS
 62
    7
 10
274.093568
 20
13.985471999999987
 11
274.06063999999998
 21
13.985471999999987
  0
LINE
  8
_f-f_
  6
CONTINUOUS
 62
    7
 10
273.07279999999992
 20
11.746368000000018
 11
273.083776
 21
11.70246400000002
  0
LINE
  8
_f-f_
  6
CONTINUOUS
 62
    7
 10
273.083776
 20
11.70246400000002
 11
273.083776
 21
11.658559999999994
  0
LINE
  8
_f-f_
  6
CONTINUOUS
 62
    7
 10
273.083776
 20
11.658559999999994
 11
273.105728
 21
11.570752000000027
  0
LINE
  8
_f-f_
  6
CONTINUOUS
 62
    7
 10
273.105728
 20
11.570752000000027
 11
273.105728
 21
11.52684800000003
  0
LINE
  8
_f-f_
  6
CONTINUOUS
 62
    7
 10
273.105728
 20
11.52684800000003
 11
273.11670399999991
 21
11.482944000000003
  0
LINE
  8
_f-f_
  6
CONTINUOUS
 62
    7
 10
273.11670399999991
 20
11.482944000000003
 11
273.03987199999995
 21
11.439040000000034
  0
LINE
  8
_f-f_
  6
CONTINUOUS
 62
    7
 10
273.03987199999995
 20
11.439040000000034
 11
272.62278400000002
 21
11.35123200000001
  0
LINE
  8
_f-f_
  6
CONTINUOUS
 62
    7
 10
272.62278400000002
 20
11.35123200000001
 11
272.18374399999993
 21
11.263423999999986
  0
LINE
  8
_f-f_
  6
CONTINUOUS
 62
    7
 10
272.18374399999993
 20
11.263423999999986
 11
271.72275199999996
 21
11.175616000000019
  0
LINE
  8
_f-f_
  6
CONTINUOUS
 62
    7
 10
271.72275199999996
 20
11.175616000000019
 11
271.48127999999997
 21
11.131712000000022
  0
LINE
  8
_f-f_
  6
CONTINUOUS
 62
    7
 10
271.48127999999997
 20
11.131712000000022
 11
271.2288319999999
 21
11.087808000000024
  0
LINE
  8
_f-f_
  6
CONTINUOUS
 62
    7
 10
271.2288319999999
 20
11.087808000000024
 11
271.17395199999999
 21
11.043903999999998
  0
LINE
  8
_f-f_
  6
CONTINUOUS
 62
    7
 10
271.17395199999999
 20
11.043903999999998
 11
271.15199999999993
 21
11
  0
LINE
  8
_f-f_
  6
CONTINUOUS
 62
    7
 10
271.15199999999993
 20
11
 11
271.11907199999996
 21
11
  0
LINE
  8
_f-f_
  6
CONTINUOUS
 62
    7
 10
274.38991999999996
 20
11.70246400000002
 11
274.47772799999996
 21
11.658559999999994
  0
LINE
  8
_f-f_
  6
CONTINUOUS
 62
    7
 10
274.47772799999996
 20
11.658559999999994
 11
274.67529599999995
 21
11.570752000000027
  0
LINE
  8
_f-f_
  6
CONTINUOUS
 62
    7
 10
274.67529599999995
 20
11.570752000000027
 11
274.67529599999995
 21
11.52684800000003
  0
LINE
  8
_f-f_
  6
CONTINUOUS
 62
    7
 10
274.67529599999995
 20
11.52684800000003
 11
274.65334399999995
 21
11.439040000000034
  0
LINE
  8
_f-f_
  6
CONTINUOUS
 62
    7
 10
274.65334399999995
 20
11.439040000000034
 11
274.65334399999995
 21
11.395136000000008
  0
LINE
  8
_f-f_
  6
CONTINUOUS
 62
    7
 10
274.65334399999995
 20
11.395136000000008
 11
274.63139200000001
 21
11.307327999999984
  0
LINE
  8
_f-f_
  6
CONTINUOUS
 62
    7
 10
274.63139200000001
 20
11.307327999999984
 11
274.63139200000001
 21
11.263423999999986
  0
LINE
  8
_f-f_
  6
CONTINUOUS
 62
    7
 10
274.63139200000001
 20
11.263423999999986
 11
274.60943999999995
 21
11.175616000000019
  0
LINE
  8
_f-f_
  6
CONTINUOUS
 62
    7
 10
274.60943999999995
 20
11.175616000000019
 11
274.60943999999995
 21
11.131712000000022
  0
LINE
  8
_f-f_
  6
CONTINUOUS
 62
    7
 10
274.60943999999995
 20
11.131712000000022
 11
274.59846399999998
 21
11.087808000000024
  0
LINE
  8
_f-f_
  6
CONTINUOUS
 62
    7
 10
274.59846399999998
 20
11.087808000000024
 11
274.55455999999992
 21
11
  0
LINE
  8
_f-f_
  6
CONTINUOUS
 62
    7
 10
274.55455999999992
 20
11
 11
274.52163199999995
 21
10.956095999999974
  0
LINE
  8
_f-f_
  6
CONTINUOUS
 62
    7
 10
274.52163199999995
 20
10.956095999999974
 11
274.46675199999993
 21
10.912192000000005
  0
LINE
  8
_f-f_
  6
CONTINUOUS
 62
    7
 10
274.46675199999993
 20
10.912192000000005
 11
274.093568
 21
10.912192000000005
  0
LINE
  8
_f-f_
  6
CONTINUOUS
 62
    7
 10
277.05708800000002
 20
14.644031999999967
 11
276.99123199999997
 21
14.644031999999967
  0
LINE
  8
_f-f_
  6
CONTINUOUS
 62
    7
 10
276.99123199999997
 20
14.644031999999967
 11
276.94732799999997
 21
14.556224000000014
  0
LINE
  8
_f-f_
  6
CONTINUOUS
 62
    7
 10
276.94732799999997
 20
14.556224000000014
 11
276.9144
 21
14.512320000000003
  0
LINE
  8
_f-f_
  6
CONTINUOUS
 62
    7
 10
276.9144
 20
14.512320000000003
 11
276.89244799999994
 21
14.468416000000005
  0
LINE
  8
_f-f_
  6
CONTINUOUS
 62
    7
 10
276.89244799999994
 20
14.468416000000005
 11
276.82659199999995
 21
14.380608000000009
  0
LINE
  8
_f-f_
  6
CONTINUOUS
 62
    7
 10
276.82659199999995
 20
14.380608000000009
 11
276.80463999999995
 21
14.336704000000026
  0
LINE
  8
_f-f_
  6
CONTINUOUS
 62
    7
 10
276.80463999999995
 20
14.336704000000026
 11
276.70585599999993
 21
14.204992000000018
  0
LINE
  8
_f-f_
  6
CONTINUOUS
 62
    7
 10
276.70585599999993
 20
14.204992000000018
 11
276.66195199999999
 21
14.161087999999992
  0
LINE
  8
_f-f_
  6
CONTINUOUS
 62
    7
 10
276.66195199999999
 20
14.161087999999992
 11
276.59609599999999
 21
14.073279999999997
  0
LINE
  8
_f-f_
  6
CONTINUOUS
 62
    7
 10
276.59609599999999
 20
14.073279999999997
 11
276.42048
 21
13.897663999999992
  0
LINE
  8
_f-f_
  6
CONTINUOUS
 62
    7
 10
276.42048
 20
13.897663999999992
 11
276.36559999999997
 21
13.853760000000037
  0
LINE
  8
_f-f_
  6
CONTINUOUS
 62
    7
 10
276.36559999999997
 20
13.853760000000037
 11
276.32169599999997
 21
13.809856000000011
  0
LINE
  8
_f-f_
  6
CONTINUOUS
 62
    7
 10
276.32169599999997
 20
13.809856000000011
 11
276.21193599999998
 21
13.722048000000001
  0
LINE
  8
_f-f_
  6
CONTINUOUS
 62
    7
 10
276.21193599999998
 20
13.722048000000001
 11
276.01436799999999
 21
13.590336000000008
  0
LINE
  8
_f-f_
  6
CONTINUOUS
 62
    7
 10
276.01436799999999
 20
13.590336000000008
 11
275.860704
 21
13.502527999999984
  0
LINE
  8
_f-f_
  6
CONTINUOUS
 62
    7
 10
275.860704
 20
13.502527999999984
 11
275.68508799999995
 21
13.414720000000017
  0
LINE
  8
_f-f_
  6
CONTINUOUS
 62
    7
 10
275.68508799999995
 20
13.414720000000017
 11
275.46556799999996
 21
13.326912000000021
  0
LINE
  8
_f-f_
  6
CONTINUOUS
 62
    7
 10
275.46556799999996
 20
13.326912000000021
 11
275.33385599999997
 21
13.283008000000024
  0
LINE
  8
_f-f_
  6
CONTINUOUS
 62
    7
 10
275.33385599999997
 20
13.283008000000024
 11
275.22409599999997
 21
13.239103999999998
  0
LINE
  8
_f-f_
  6
CONTINUOUS
 62
    7
 10
275.22409599999997
 20
13.239103999999998
 11
275.23507199999995
 21
13.195199999999971
  0
LINE
  8
_f-f_
  6
CONTINUOUS
 62
    7
 10
275.23507199999995
 20
13.195199999999971
 11
275.257024
 21
13.151296000000031
  0
LINE
  8
_f-f_
  6
CONTINUOUS
 62
    7
 10
275.257024
 20
13.151296000000031
 11
275.26800000000003
 21
13.107392000000061
  0
LINE
  8
_f-f_
  6
CONTINUOUS
 62
    7
 10
275.26800000000003
 20
13.107392000000061
 11
275.28995199999997
 21
13.063488000000007
  0
LINE
  8
_f-f_
  6
CONTINUOUS
 62
    7
 10
275.28995199999997
 20
13.063488000000007
 11
275.300928
 21
13.019583999999952
  0
LINE
  8
_f-f_
  6
CONTINUOUS
 62
    7
 10
275.300928
 20
13.019583999999952
 11
275.32287999999994
 21
12.975680000000011
  0
LINE
  8
_f-f_
  6
CONTINUOUS
 62
    7
 10
275.32287999999994
 20
12.975680000000011
 11
275.33385599999997
 21
12.931776000000013
  0
LINE
  8
_f-f_
  6
CONTINUOUS
 62
    7
 10
275.33385599999997
 20
12.931776000000013
 11
275.35580800000002
 21
12.887871999999987
  0
LINE
  8
_f-f_
  6
CONTINUOUS
 62
    7
 10
277.17782399999993
 20
14.292800000000028
 11
277.19977599999999
 21
14.248896000000016
  0
LINE
  8
_f-f_
  6
CONTINUOUS
 62
    7
 10
277.19977599999999
 20
14.248896000000016
 11
277.2327039999999
 21
14.204992000000018
  0
LINE
  8
_f-f_
  6
CONTINUOUS
 62
    7
 10
277.2327039999999
 20
14.204992000000018
 11
277.25465599999995
 21
14.161087999999992
  0
LINE
  8
_f-f_
  6
CONTINUOUS
 62
    7
 10
277.25465599999995
 20
14.161087999999992
 11
277.48515199999997
 21
13.853760000000037
  0
LINE
  8
_f-f_
  6
CONTINUOUS
 62
    7
 10
277.48515199999997
 20
13.853760000000037
 11
277.70467199999996
 21
13.634240000000005
  0
LINE
  8
_f-f_
  6
CONTINUOUS
 62
    7
 10
277.70467199999996
 20
13.634240000000005
 11
277.86931199999992
 21
13.502527999999984
  0
LINE
  8
_f-f_
  6
CONTINUOUS
 62
    7
 10
277.86931199999992
 20
13.502527999999984
 11
278.06687999999991
 21
13.370815999999991
  0
LINE
  8
_f-f_
  6
CONTINUOUS
 62
    7
 10
278.06687999999991
 20
13.370815999999991
 11
278.14371199999994
 21
13.326912000000021
  0
LINE
  8
_f-f_
  6
CONTINUOUS
 62
    7
 10
278.14371199999994
 20
13.326912000000021
 11
276.27779199999998
 21
13.326912000000021
  0
LINE
  8
_f-f_
  6
CONTINUOUS
 62
    7
 10
276.24486400000001
 20
13.283008000000024
 11
276.24486400000001
 21
12.975680000000011
  0
LINE
  8
_f-f_
  6
CONTINUOUS
 62
    7
 10
278.23151999999993
 20
13.283008000000024
 11
278.38518399999998
 21
13.195199999999971
  0
LINE
  8
_f-f_
  6
CONTINUOUS
 62
    7
 10
278.38518399999998
 20
13.195199999999971
 11
278.56079999999997
 21
13.107392000000061
  0
LINE
  8
_f-f_
  6
CONTINUOUS
 62
    7
 10
278.56079999999997
 20
13.107392000000061
 11
278.78031999999996
 21
13.019583999999952
  0
LINE
  8
_f-f_
  6
CONTINUOUS
 62
    7
 10
278.78031999999996
 20
13.019583999999952
 11
278.91203199999995
 21
12.975680000000011
  0
LINE
  8
_f-f_
  6
CONTINUOUS
 62
    7
 10
278.9339839999999
 20
12.536639999999977
 11
275.43263999999999
 21
12.536639999999977
  0
LINE
  8
_f-f_
  6
CONTINUOUS
 62
    7
 10
276.66195199999999
 20
12.141503999999998
 11
276.6290239999999
 21
12.0976
  0
LINE
  8
_f-f_
  6
CONTINUOUS
 62
    7
 10
276.6290239999999
 20
12.0976
 11
276.54121599999996
 21
11.921984000000009
  0
LINE
  8
_f-f_
  6
CONTINUOUS
 62
    7
 10
276.54121599999996
 20
11.921984000000009
 11
276.50828799999999
 21
11.878080000000011
  0
LINE
  8
_f-f_
  6
CONTINUOUS
 62
    7
 10
276.50828799999999
 20
11.878080000000011
 11
276.42048
 21
11.70246400000002
  0
LINE
  8
_f-f_
  6
CONTINUOUS
 62
    7
 10
276.42048
 20
11.70246400000002
 11
276.38755199999997
 21
11.658559999999994
  0
LINE
  8
_f-f_
  6
CONTINUOUS
 62
    7
 10
276.38755199999997
 20
11.658559999999994
 11
276.29974399999992
 21
11.482944000000003
  0
LINE
  8
_f-f_
  6
CONTINUOUS
 62
    7
 10
276.29974399999992
 20
11.482944000000003
 11
276.26681599999995
 21
11.439040000000034
  0
LINE
  8
_f-f_
  6
CONTINUOUS
 62
    7
 10
276.26681599999995
 20
11.439040000000034
 11
276.20096000000001
 21
11.307327999999984
  0
LINE
  8
_f-f_
  6
CONTINUOUS
 62
    7
 10
276.20096000000001
 20
11.307327999999984
 11
275.57532799999996
 21
11.263423999999986
  0
LINE
  8
_f-f_
  6
CONTINUOUS
 62
    7
 10
275.57532799999996
 20
11.263423999999986
 11
275.49849599999993
 21
11.219519999999989
  0
LINE
  8
_f-f_
  6
CONTINUOUS
 62
    7
 10
275.49849599999993
 20
11.219519999999989
 11
275.50947199999996
 21
11.175616000000019
  0
LINE
  8
_f-f_
  6
CONTINUOUS
 62
    7
 10
275.50947199999996
 20
11.175616000000019
 11
275.53142400000002
 21
11.131712000000022
  0
LINE
  8
_f-f_
  6
CONTINUOUS
 62
    7
 10
275.53142400000002
 20
11.131712000000022
 11
275.59727999999996
 21
10.868288000000035
  0
LINE
  8
_f-f_
  6
CONTINUOUS
 62
    7
 10
275.59727999999996
 20
10.868288000000035
 11
275.63020799999993
 21
10.824384000000038
  0
LINE
  8
_f-f_
  6
CONTINUOUS
 62
    7
 10
277.81443200000001
 20
12.009792000000004
 11
277.77052800000001
 21
12.009792000000004
  0
LINE
  8
_f-f_
  6
CONTINUOUS
 62
    7
 10
277.77052800000001
 20
12.009792000000004
 11
277.50710400000003
 21
11.834176000000014
  0
LINE
  8
_f-f_
  6
CONTINUOUS
 62
    7
 10
277.50710400000003
 20
11.834176000000014
 11
277.55100799999997
 21
11.790272000000016
  0
LINE
  8
_f-f_
  6
CONTINUOUS
 62
    7
 10
277.55100799999997
 20
11.790272000000016
 11
277.88028799999995
 21
11.52684800000003
  0
LINE
  8
_f-f_
  6
CONTINUOUS
 62
    7
 10
277.88028799999995
 20
11.52684800000003
 11
277.92419200000001
 21
11.482944000000003
  0
LINE
  8
_f-f_
  6
CONTINUOUS
 62
    7
 10
277.92419200000001
 20
11.482944000000003
 11
277.97907199999997
 21
11.439040000000034
  0
LINE
  8
_f-f_
  6
CONTINUOUS
 62
    7
 10
277.97907199999997
 20
11.439040000000034
 11
277.73759999999999
 21
11.395136000000008
  0
LINE
  8
_f-f_
  6
CONTINUOUS
 62
    7
 10
277.73759999999999
 20
11.395136000000008
 11
277.14489600000002
 21
11.35123200000001
  0
LINE
  8
_f-f_
  6
CONTINUOUS
 62
    7
 10
277.14489600000002
 20
11.35123200000001
 11
276.58511999999996
 21
11.35123200000001
  0
LINE
  8
_f-f_
  6
CONTINUOUS
 62
    7
 10
278.26444799999996
 20
11.131712000000022
 11
278.30835200000001
 21
11.087808000000024
  0
LINE
  8
_f-f_
  6
CONTINUOUS
 62
    7
 10
278.30835200000001
 20
11.087808000000024
 11
278.36323199999993
 21
11.043903999999998
  0
LINE
  8
_f-f_
  6
CONTINUOUS
 62
    7
 10
278.36323199999993
 20
11.043903999999998
 11
278.3961599999999
 21
11
  0
LINE
  8
_f-f_
  6
CONTINUOUS
 62
    7
 10
278.3961599999999
 20
11
 11
278.44006399999995
 21
10.956095999999974
  0
LINE
  8
_f-f_
  6
CONTINUOUS
 62
    7
 10
278.44006399999995
 20
10.956095999999974
 11
278.47299199999998
 21
10.912192000000005
  0
LINE
  8
_f-f_
  6
CONTINUOUS
 62
    7
 10
278.47299199999998
 20
10.912192000000005
 11
278.51689599999997
 21
10.868288000000035
  0
LINE
  8
_f-f_
  6
CONTINUOUS
 62
    7
 10
278.51689599999997
 20
10.868288000000035
 11
278.54982399999994
 21
10.824384000000038
  0
LINE
  8
_f-f_
  6
CONTINUOUS
 62
    7
 10
277.05708800000002
 20
14.644031999999967
 11
277.36441599999995
 21
14.600128000000012
  0
LINE
  8
_f-f_
  6
CONTINUOUS
 62
    7
 10
277.36441599999995
 20
14.600128000000012
 11
277.40832
 21
14.556224000000014
  0
LINE
  8
_f-f_
  6
CONTINUOUS
 62
    7
 10
277.40832
 20
14.556224000000014
 11
277.36441599999995
 21
14.512320000000003
  0
LINE
  8
_f-f_
  6
CONTINUOUS
 62
    7
 10
277.36441599999995
 20
14.512320000000003
 11
277.37539199999998
 21
14.468416000000005
  0
LINE
  8
_f-f_
  6
CONTINUOUS
 62
    7
 10
277.37539199999998
 20
14.468416000000005
 11
277.50710400000003
 21
14.292800000000028
  0
LINE
  8
_f-f_
  6
CONTINUOUS
 62
    7
 10
277.50710400000003
 20
14.292800000000028
 11
277.59491200000002
 21
14.204992000000018
  0
LINE
  8
_f-f_
  6
CONTINUOUS
 62
    7
 10
277.59491200000002
 20
14.204992000000018
 11
277.62783999999999
 21
14.161087999999992
  0
LINE
  8
_f-f_
  6
CONTINUOUS
 62
    7
 10
277.62783999999999
 20
14.161087999999992
 11
277.67174399999999
 21
14.117184000000023
  0
LINE
  8
_f-f_
  6
CONTINUOUS
 62
    7
 10
277.67174399999999
 20
14.117184000000023
 11
277.72662399999996
 21
14.073279999999997
  0
LINE
  8
_f-f_
  6
CONTINUOUS
 62
    7
 10
277.72662399999996
 20
14.073279999999997
 11
277.77052800000001
 21
14.029375999999999
  0
LINE
  8
_f-f_
  6
CONTINUOUS
 62
    7
 10
277.77052800000001
 20
14.029375999999999
 11
277.93516799999998
 21
13.897663999999992
  0
LINE
  8
_f-f_
  6
CONTINUOUS
 62
    7
 10
277.93516799999998
 20
13.897663999999992
 11
278.13273600000002
 21
13.765952000000013
  0
LINE
  8
_f-f_
  6
CONTINUOUS
 62
    7
 10
278.13273600000002
 20
13.765952000000013
 11
278.28639999999996
 21
13.678143999999975
  0
LINE
  8
_f-f_
  6
CONTINUOUS
 62
    7
 10
278.28639999999996
 20
13.678143999999975
 11
278.46201599999995
 21
13.590336000000008
  0
LINE
  8
_f-f_
  6
CONTINUOUS
 62
    7
 10
278.46201599999995
 20
13.590336000000008
 11
278.68153599999994
 21
13.502527999999984
  0
LINE
  8
_f-f_
  6
CONTINUOUS
 62
    7
 10
278.68153599999994
 20
13.502527999999984
 11
278.80227199999996
 21
13.458624000000043
  0
LINE
  8
_f-f_
  6
CONTINUOUS
 62
    7
 10
278.80227199999996
 20
13.458624000000043
 11
278.94495999999992
 21
13.414720000000017
  0
LINE
  8
_f-f_
  6
CONTINUOUS
 62
    7
 10
278.94495999999992
 20
13.414720000000017
 11
279.09862399999997
 21
13.370815999999991
  0
LINE
  8
_f-f_
  6
CONTINUOUS
 62
    7
 10
279.09862399999997
 20
13.370815999999991
 11
279.08764799999994
 21
13.326912000000021
  0
LINE
  8
_f-f_
  6
CONTINUOUS
 62
    7
 10
279.08764799999994
 20
13.326912000000021
 11
279.04374399999995
 21
13.239103999999998
  0
LINE
  8
_f-f_
  6
CONTINUOUS
 62
    7
 10
279.04374399999995
 20
13.239103999999998
 11
279.03276799999992
 21
13.195199999999971
  0
LINE
  8
_f-f_
  6
CONTINUOUS
 62
    7
 10
279.03276799999992
 20
13.195199999999971
 11
278.98886399999998
 21
13.107392000000061
  0
LINE
  8
_f-f_
  6
CONTINUOUS
 62
    7
 10
278.98886399999998
 20
13.107392000000061
 11
278.97788799999995
 21
13.063488000000007
  0
LINE
  8
_f-f_
  6
CONTINUOUS
 62
    7
 10
278.97788799999995
 20
13.063488000000007
 11
278.9339839999999
 21
12.975680000000011
  0
LINE
  8
_f-f_
  6
CONTINUOUS
 62
    7
 10
278.9339839999999
 20
12.975680000000011
 11
278.91203199999995
 21
12.975680000000011
  0
LINE
  8
_f-f_
  6
CONTINUOUS
 62
    7
 10
277.17782399999993
 20
14.292800000000028
 11
277.14489600000002
 21
14.292800000000028
  0
LINE
  8
_f-f_
  6
CONTINUOUS
 62
    7
 10
277.14489600000002
 20
14.292800000000028
 11
277.11196799999999
 21
14.248896000000016
  0
LINE
  8
_f-f_
  6
CONTINUOUS
 62
    7
 10
277.11196799999999
 20
14.248896000000016
 11
277.09001599999993
 21
14.204992000000018
  0
LINE
  8
_f-f_
  6
CONTINUOUS
 62
    7
 10
277.09001599999993
 20
14.204992000000018
 11
277.05708800000002
 21
14.161087999999992
  0
LINE
  8
_f-f_
  6
CONTINUOUS
 62
    7
 10
277.05708800000002
 20
14.161087999999992
 11
277.03513599999997
 21
14.117184000000023
  0
LINE
  8
_f-f_
  6
CONTINUOUS
 62
    7
 10
277.03513599999997
 20
14.117184000000023
 11
276.83756799999998
 21
13.853760000000037
  0
LINE
  8
_f-f_
  6
CONTINUOUS
 62
    7
 10
276.83756799999998
 20
13.853760000000037
 11
276.79366399999992
 21
13.809856000000011
  0
LINE
  8
_f-f_
  6
CONTINUOUS
 62
    7
 10
276.79366399999992
 20
13.809856000000011
 11
276.76073599999995
 21
13.765952000000013
  0
LINE
  8
_f-f_
  6
CONTINUOUS
 62
    7
 10
276.76073599999995
 20
13.765952000000013
 11
276.49731199999997
 21
13.502527999999984
  0
LINE
  8
_f-f_
  6
CONTINUOUS
 62
    7
 10
276.49731199999997
 20
13.502527999999984
 11
276.27779199999998
 21
13.326912000000021
  0
LINE
  8
_f-f_
  6
CONTINUOUS
 62
    7
 10
276.24486400000001
 20
13.283008000000024
 11
276.21193599999998
 21
13.283008000000024
  0
LINE
  8
_f-f_
  6
CONTINUOUS
 62
    7
 10
276.21193599999998
 20
13.283008000000024
 11
276.01436799999999
 21
13.151296000000031
  0
LINE
  8
_f-f_
  6
CONTINUOUS
 62
    7
 10
276.01436799999999
 20
13.151296000000031
 11
275.78387199999997
 21
13.019583999999952
  0
LINE
  8
_f-f_
  6
CONTINUOUS
 62
    7
 10
275.78387199999997
 20
13.019583999999952
 11
275.58630399999993
 21
12.931776000000013
  0
LINE
  8
_f-f_
  6
CONTINUOUS
 62
    7
 10
275.58630399999993
 20
12.931776000000013
 11
275.47654399999999
 21
12.887871999999987
  0
LINE
  8
_f-f_
  6
CONTINUOUS
 62
    7
 10
275.47654399999999
 20
12.887871999999987
 11
275.35580800000002
 21
12.887871999999987
  0
LINE
  8
_f-f_
  6
CONTINUOUS
 62
    7
 10
278.23151999999993
 20
13.283008000000024
 11
278.16566399999994
 21
13.283008000000024
  0
LINE
  8
_f-f_
  6
CONTINUOUS
 62
    7
 10
278.16566399999994
 20
13.283008000000024
 11
278.16566399999994
 21
12.975680000000011
  0
LINE
  8
_f-f_
  6
CONTINUOUS
 62
    7
 10
278.16566399999994
 20
12.975680000000011
 11
276.24486400000001
 21
12.975680000000011
  0
LINE
  8
_f-f_
  6
CONTINUOUS
 62
    7
 10
277.05708800000002
 20
12.141503999999998
 11
277.01318399999997
 21
12.053696000000031
  0
LINE
  8
_f-f_
  6
CONTINUOUS
 62
    7
 10
277.01318399999997
 20
12.053696000000031
 11
276.98025599999994
 21
12.009792000000004
  0
LINE
  8
_f-f_
  6
CONTINUOUS
 62
    7
 10
276.98025599999994
 20
12.009792000000004
 11
276.958304
 21
11.965888000000007
  0
LINE
  8
_f-f_
  6
CONTINUOUS
 62
    7
 10
276.958304
 20
11.965888000000007
 11
276.92537599999997
 21
11.921984000000009
  0
LINE
  8
_f-f_
  6
CONTINUOUS
 62
    7
 10
276.92537599999997
 20
11.921984000000009
 11
276.88147199999992
 21
11.834176000000014
  0
LINE
  8
_f-f_
  6
CONTINUOUS
 62
    7
 10
276.88147199999992
 20
11.834176000000014
 11
276.84854399999995
 21
11.790272000000016
  0
LINE
  8
_f-f_
  6
CONTINUOUS
 62
    7
 10
276.84854399999995
 20
11.790272000000016
 11
276.82659199999995
 21
11.746368000000018
  0
LINE
  8
_f-f_
  6
CONTINUOUS
 62
    7
 10
276.82659199999995
 20
11.746368000000018
 11
276.79366399999992
 21
11.70246400000002
  0
LINE
  8
_f-f_
  6
CONTINUOUS
 62
    7
 10
276.79366399999992
 20
11.70246400000002
 11
276.74975999999998
 21
11.614655999999997
  0
LINE
  8
_f-f_
  6
CONTINUOUS
 62
    7
 10
276.74975999999998
 20
11.614655999999997
 11
276.71683199999995
 21
11.570752000000027
  0
LINE
  8
_f-f_
  6
CONTINUOUS
 62
    7
 10
276.71683199999995
 20
11.570752000000027
 11
276.69488000000001
 21
11.52684800000003
  0
LINE
  8
_f-f_
  6
CONTINUOUS
 62
    7
 10
276.69488000000001
 20
11.52684800000003
 11
276.66195199999999
 21
11.482944000000003
  0
LINE
  8
_f-f_
  6
CONTINUOUS
 62
    7
 10
276.66195199999999
 20
11.482944000000003
 11
276.61804799999993
 21
11.395136000000008
  0
LINE
  8
_f-f_
  6
CONTINUOUS
 62
    7
 10
276.61804799999993
 20
11.395136000000008
 11
276.58511999999996
 21
11.35123200000001
  0
LINE
  8
_f-f_
  6
CONTINUOUS
 62
    7
 10
277.81443200000001
 20
12.009792000000004
 11
277.92419200000001
 21
11.921984000000009
  0
LINE
  8
_f-f_
  6
CONTINUOUS
 62
    7
 10
277.92419200000001
 20
11.921984000000009
 11
277.990048
 21
11.878080000000011
  0
LINE
  8
_f-f_
  6
CONTINUOUS
 62
    7
 10
277.990048
 20
11.878080000000011
 11
278.20956799999988
 21
11.70246400000002
  0
LINE
  8
_f-f_
  6
CONTINUOUS
 62
    7
 10
278.20956799999988
 20
11.70246400000002
 11
278.25347199999993
 21
11.658559999999994
  0
LINE
  8
_f-f_
  6
CONTINUOUS
 62
    7
 10
278.25347199999993
 20
11.658559999999994
 11
278.36323199999993
 21
11.570752000000027
  0
LINE
  8
_f-f_
  6
CONTINUOUS
 62
    7
 10
278.36323199999993
 20
11.570752000000027
 11
278.40713599999992
 21
11.52684800000003
  0
LINE
  8
_f-f_
  6
CONTINUOUS
 62
    7
 10
278.40713599999992
 20
11.52684800000003
 11
278.46201599999995
 21
11.482944000000003
  0
LINE
  8
_f-f_
  6
CONTINUOUS
 62
    7
 10
278.46201599999995
 20
11.482944000000003
 11
278.54982399999994
 21
11.395136000000008
  0
LINE
  8
_f-f_
  6
CONTINUOUS
 62
    7
 10
278.54982399999994
 20
11.395136000000008
 11
278.60470399999997
 21
11.35123200000001
  0
LINE
  8
_f-f_
  6
CONTINUOUS
 62
    7
 10
278.60470399999997
 20
11.35123200000001
 11
278.73641599999996
 21
11.219519999999989
  0
LINE
  8
_f-f_
  6
CONTINUOUS
 62
    7
 10
278.73641599999996
 20
11.219519999999989
 11
278.76934399999993
 21
11.175616000000019
  0
LINE
  8
_f-f_
  6
CONTINUOUS
 62
    7
 10
278.76934399999993
 20
11.175616000000019
 11
278.81324799999999
 21
11.131712000000022
  0
LINE
  8
_f-f_
  6
CONTINUOUS
 62
    7
 10
278.81324799999999
 20
11.131712000000022
 11
278.87910399999993
 21
11.043903999999998
  0
LINE
  8
_f-f_
  6
CONTINUOUS
 62
    7
 10
278.87910399999993
 20
11.043903999999998
 11
278.90105599999998
 21
11
  0
LINE
  8
_f-f_
  6
CONTINUOUS
 62
    7
 10
278.90105599999998
 20
11
 11
278.82422399999996
 21
10.956095999999974
  0
LINE
  8
_f-f_
  6
CONTINUOUS
 62
    7
 10
278.82422399999996
 20
10.956095999999974
 11
278.69251199999997
 21
10.868288000000035
  0
LINE
  8
_f-f_
  6
CONTINUOUS
 62
    7
 10
278.69251199999997
 20
10.868288000000035
 11
278.61567999999994
 21
10.824384000000038
  0
LINE
  8
_f-f_
  6
CONTINUOUS
 62
    7
 10
278.61567999999994
 20
10.824384000000038
 11
278.54982399999994
 21
10.824384000000038
  0
LINE
  8
_f-f_
  6
CONTINUOUS
 62
    7
 10
278.26444799999996
 20
11.131712000000022
 11
278.08883199999997
 21
11.131712000000022
  0
LINE
  8
_f-f_
  6
CONTINUOUS
 62
    7
 10
278.08883199999997
 20
11.131712000000022
 11
277.69369599999993
 21
11.087808000000024
  0
LINE
  8
_f-f_
  6
CONTINUOUS
 62
    7
 10
277.69369599999993
 20
11.087808000000024
 11
277.28758399999992
 21
11.043903999999998
  0
LINE
  8
_f-f_
  6
CONTINUOUS
 62
    7
 10
277.28758399999992
 20
11.043903999999998
 11
276.10217599999993
 21
10.912192000000005
  0
LINE
  8
_f-f_
  6
CONTINUOUS
 62
    7
 10
276.10217599999993
 20
10.912192000000005
 11
275.73996799999998
 21
10.868288000000035
  0
LINE
  8
_f-f_
  6
CONTINUOUS
 62
    7
 10
275.73996799999998
 20
10.868288000000035
 11
275.67411199999998
 21
10.824384000000038
  0
LINE
  8
_f-f_
  6
CONTINUOUS
 62
    7
 10
275.67411199999998
 20
10.824384000000038
 11
275.63020799999993
 21
10.824384000000038
  0
LINE
  8
_f-f_
  6
CONTINUOUS
 62
    7
 10
280.723072
 20
14.600128000000012
 11
280.33891199999999
 21
14.600128000000012
  0
LINE
  8
_f-f_
  6
CONTINUOUS
 62
    7
 10
280.82185599999991
 20
13.546432000000038
 11
280.79990399999997
 21
13.502527999999984
  0
LINE
  8
_f-f_
  6
CONTINUOUS
 62
    7
 10
280.79990399999997
 20
13.502527999999984
 11
280.76697599999994
 21
13.458624000000043
  0
LINE
  8
_f-f_
  6
CONTINUOUS
 62
    7
 10
280.76697599999994
 20
13.458624000000043
 11
280.74502399999994
 21
13.414720000000017
  0
LINE
  8
_f-f_
  6
CONTINUOUS
 62
    7
 10
280.74502399999994
 20
13.414720000000017
 11
280.67916799999995
 21
13.326912000000021
  0
LINE
  8
_f-f_
  6
CONTINUOUS
 62
    7
 10
280.67916799999995
 20
13.326912000000021
 11
280.65721599999995
 21
13.283008000000024
  0
LINE
  8
_f-f_
  6
CONTINUOUS
 62
    7
 10
280.65721599999995
 20
13.283008000000024
 11
280.59135999999995
 21
13.195199999999971
  0
LINE
  8
_f-f_
  6
CONTINUOUS
 62
    7
 10
280.59135999999995
 20
13.195199999999971
 11
280.54745600000001
 21
13.151296000000031
  0
LINE
  8
_f-f_
  6
CONTINUOUS
 62
    7
 10
280.54745600000001
 20
13.151296000000031
 11
280.48159999999996
 21
13.063488000000007
  0
LINE
  8
_f-f_
  6
CONTINUOUS
 62
    7
 10
280.48159999999996
 20
13.063488000000007
 11
280.43769599999996
 21
13.019583999999952
  0
LINE
  8
_f-f_
  6
CONTINUOUS
 62
    7
 10
280.43769599999996
 20
13.019583999999952
 11
280.40476799999999
 21
12.975680000000011
  0
LINE
  8
_f-f_
  6
CONTINUOUS
 62
    7
 10
280.40476799999999
 20
12.975680000000011
 11
280.22915199999994
 21
12.800064000000049
  0
LINE
  8
_f-f_
  6
CONTINUOUS
 62
    7
 10
280.22915199999994
 20
12.800064000000049
 11
280.17427199999997
 21
12.756160000000023
  0
LINE
  8
_f-f_
  6
CONTINUOUS
 62
    7
 10
280.17427199999997
 20
12.756160000000023
 11
280.13036799999998
 21
12.712256000000025
  0
LINE
  8
_f-f_
  6
CONTINUOUS
 62
    7
 10
280.13036799999998
 20
12.712256000000025
 11
280.02060799999992
 21
12.624447999999973
  0
LINE
  8
_f-f_
  6
CONTINUOUS
 62
    7
 10
280.02060799999992
 20
12.624447999999973
 11
279.95475199999993
 21
12.580544000000003
  0
LINE
  8
_f-f_
  6
CONTINUOUS
 62
    7
 10
279.95475199999993
 20
12.580544000000003
 11
279.89987199999996
 21
12.536639999999977
  0
LINE
  8
_f-f_
  6
CONTINUOUS
 62
    7
 10
279.89987199999996
 20
12.536639999999977
 11
279.70230399999997
 21
12.404927999999984
  0
LINE
  8
_f-f_
  6
CONTINUOUS
 62
    7
 10
279.70230399999997
 20
12.404927999999984
 11
279.62547199999995
 21
12.361024000000015
  0
LINE
  8
_f-f_
  6
CONTINUOUS
 62
    7
 10
279.62547199999995
 20
12.361024000000015
 11
279.55961599999989
 21
12.317120000000017
  0
LINE
  8
_f-f_
  6
CONTINUOUS
 62
    7
 10
279.55961599999989
 20
12.317120000000017
 11
279.60351999999995
 21
12.229311999999993
  0
LINE
  8
_f-f_
  6
CONTINUOUS
 62
    7
 10
279.60351999999995
 20
12.229311999999993
 11
279.61449599999997
 21
12.185407999999995
  0
LINE
  8
_f-f_
  6
CONTINUOUS
 62
    7
 10
279.61449599999997
 20
12.185407999999995
 11
279.70230399999997
 21
12.009792000000004
  0
LINE
  8
_f-f_
  6
CONTINUOUS
 62
    7
 10
282.59996799999999
 20
14.512320000000003
 11
282.17190399999993
 21
14.512320000000003
  0
LINE
  8
_f-f_
  6
CONTINUOUS
 62
    7
 10
282.17190399999993
 20
14.512320000000003
 11
282.17190399999993
 21
13.502527999999984
  0
LINE
  8
_f-f_
  6
CONTINUOUS
 62
    7
 10
282.17190399999993
 20
13.107392000000061
 11
282.17190399999993
 21
11.35123200000001
  0
LINE
  8
_f-f_
  6
CONTINUOUS
 62
    7
 10
281.11820799999992
 20
13.941568000000032
 11
281.08528000000001
 21
13.941568000000032
  0
LINE
  8
_f-f_
  6
CONTINUOUS
 62
    7
 10
281.08528000000001
 20
13.941568000000032
 11
281.06332799999996
 21
13.897663999999992
  0
LINE
  8
_f-f_
  6
CONTINUOUS
 62
    7
 10
281.06332799999996
 20
13.897663999999992
 11
280.69014399999992
 21
13.897663999999992
  0
LINE
  8
_f-f_
  6
CONTINUOUS
 62
    7
 10
280.33891199999999
 20
12.448831999999982
 11
280.33891199999999
 21
10.78048000000004
  0
LINE
  8
_f-f_
  6
CONTINUOUS
 62
    7
 10
280.69014399999992
 20
12.448831999999982
 11
280.76697599999994
 21
12.404927999999984
  0
LINE
  8
_f-f_
  6
CONTINUOUS
 62
    7
 10
280.76697599999994
 20
12.404927999999984
 11
281.03039999999999
 21
12.229311999999993
  0
LINE
  8
_f-f_
  6
CONTINUOUS
 62
    7
 10
281.03039999999999
 20
12.229311999999993
 11
281.14015999999992
 21
12.141503999999998
  0
LINE
  8
_f-f_
  6
CONTINUOUS
 62
    7
 10
281.14015999999992
 20
12.141503999999998
 11
281.20601599999998
 21
12.0976
  0
LINE
  8
_f-f_
  6
CONTINUOUS
 62
    7
 10
280.723072
 20
14.600128000000012
 11
280.67916799999995
 21
14.556224000000014
  0
LINE
  8
_f-f_
  6
CONTINUOUS
 62
    7
 10
280.67916799999995
 20
14.556224000000014
 11
280.66819199999998
 21
14.512320000000003
  0
LINE
  8
_f-f_
  6
CONTINUOUS
 62
    7
 10
280.66819199999998
 20
14.512320000000003
 11
280.66819199999998
 21
13.941568000000032
  0
LINE
  8
_f-f_
  6
CONTINUOUS
 62
    7
 10
280.66819199999998
 20
13.941568000000032
 11
280.69014399999992
 21
13.897663999999992
  0
LINE
  8
_f-f_
  6
CONTINUOUS
 62
    7
 10
282.59996799999999
 20
14.512320000000003
 11
282.62191999999993
 21
14.468416000000005
  0
LINE
  8
_f-f_
  6
CONTINUOUS
 62
    7
 10
282.62191999999993
 20
14.468416000000005
 11
282.57801599999993
 21
14.424512000000007
  0
LINE
  8
_f-f_
  6
CONTINUOUS
 62
    7
 10
282.57801599999993
 20
14.424512000000007
 11
282.55606399999994
 21
14.380608000000009
  0
LINE
  8
_f-f_
  6
CONTINUOUS
 62
    7
 10
282.55606399999994
 20
14.380608000000009
 11
282.55606399999994
 21
13.502527999999984
  0
LINE
  8
_f-f_
  6
CONTINUOUS
 62
    7
 10
282.55606399999994
 20
13.107392000000061
 11
282.55606399999994
 21
11.35123200000001
  0
LINE
  8
_f-f_
  6
CONTINUOUS
 62
    7
 10
283.5
 20
11
 11
281.16211199999998
 21
11
  0
LINE
  8
_f-f_
  6
CONTINUOUS
 62
    7
 10
281.11820799999992
 20
13.941568000000032
 11
281.33772799999997
 21
13.722048000000001
  0
LINE
  8
_f-f_
  6
CONTINUOUS
 62
    7
 10
281.33772799999997
 20
13.722048000000001
 11
281.29382399999997
 21
13.678143999999975
  0
LINE
  8
_f-f_
  6
CONTINUOUS
 62
    7
 10
281.29382399999997
 20
13.678143999999975
 11
281.22796799999992
 21
13.634240000000005
  0
LINE
  8
_f-f_
  6
CONTINUOUS
 62
    7
 10
281.22796799999992
 20
13.634240000000005
 11
281.16211199999998
 21
13.502527999999984
  0
LINE
  8
_f-f_
  6
CONTINUOUS
 62
    7
 10
281.16211199999998
 20
13.502527999999984
 11
281.12918399999995
 21
13.458624000000043
  0
LINE
  8
_f-f_
  6
CONTINUOUS
 62
    7
 10
281.12918399999995
 20
13.458624000000043
 11
281.08528000000001
 21
13.370815999999991
  0
LINE
  8
_f-f_
  6
CONTINUOUS
 62
    7
 10
281.08528000000001
 20
13.370815999999991
 11
281.05235199999998
 21
13.326912000000021
  0
LINE
  8
_f-f_
  6
CONTINUOUS
 62
    7
 10
281.05235199999998
 20
13.326912000000021
 11
281.03039999999999
 21
13.283008000000024
  0
LINE
  8
_f-f_
  6
CONTINUOUS
 62
    7
 10
281.03039999999999
 20
13.283008000000024
 11
280.93161599999996
 21
13.151296000000031
  0
LINE
  8
_f-f_
  6
CONTINUOUS
 62
    7
 10
280.93161599999996
 20
13.151296000000031
 11
280.90966400000002
 21
13.107392000000061
  0
LINE
  8
_f-f_
  6
CONTINUOUS
 62
    7
 10
280.90966400000002
 20
13.107392000000061
 11
280.74502399999994
 21
12.887871999999987
  0
LINE
  8
_f-f_
  6
CONTINUOUS
 62
    7
 10
280.74502399999994
 20
12.887871999999987
 11
280.70111999999995
 21
12.84396799999999
  0
LINE
  8
_f-f_
  6
CONTINUOUS
 62
    7
 10
280.70111999999995
 20
12.84396799999999
 11
280.66819199999998
 21
12.800064000000049
  0
LINE
  8
_f-f_
  6
CONTINUOUS
 62
    7
 10
280.66819199999998
 20
12.800064000000049
 11
280.75599999999997
 21
12.756160000000023
  0
LINE
  8
_f-f_
  6
CONTINUOUS
 62
    7
 10
280.75599999999997
 20
12.756160000000023
 11
280.87673599999994
 21
12.712256000000025
  0
LINE
  8
_f-f_
  6
CONTINUOUS
 62
    7
 10
280.87673599999994
 20
12.712256000000025
 11
281.07430399999998
 21
12.624447999999973
  0
LINE
  8
_f-f_
  6
CONTINUOUS
 62
    7
 10
281.07430399999998
 20
12.624447999999973
 11
281.16211199999998
 21
12.580544000000003
  0
LINE
  8
_f-f_
  6
CONTINUOUS
 62
    7
 10
281.16211199999998
 20
12.580544000000003
 11
281.31577599999991
 21
12.492735999999979
  0
LINE
  8
_f-f_
  6
CONTINUOUS
 62
    7
 10
281.31577599999991
 20
12.492735999999979
 11
281.38163199999997
 21
12.448831999999982
  0
LINE
  8
_f-f_
  6
CONTINUOUS
 62
    7
 10
281.38163199999997
 20
12.448831999999982
 11
281.40358399999991
 21
12.404927999999984
  0
LINE
  8
_f-f_
  6
CONTINUOUS
 62
    7
 10
281.40358399999991
 20
12.404927999999984
 11
281.24991999999997
 21
12.0976
  0
LINE
  8
_f-f_
  6
CONTINUOUS
 62
    7
 10
281.24991999999997
 20
12.0976
 11
281.20601599999998
 21
12.0976
  0
LINE
  8
_f-f_
  6
CONTINUOUS
 62
    7
 10
280.33891199999999
 20
12.448831999999982
 11
280.31695999999999
 21
12.448831999999982
  0
LINE
  8
_f-f_
  6
CONTINUOUS
 62
    7
 10
280.31695999999999
 20
12.448831999999982
 11
280.27305599999988
 21
12.404927999999984
  0
LINE
  8
_f-f_
  6
CONTINUOUS
 62
    7
 10
280.27305599999988
 20
12.404927999999984
 11
280.05353599999995
 21
12.229311999999993
  0
LINE
  8
_f-f_
  6
CONTINUOUS
 62
    7
 10
280.05353599999995
 20
12.229311999999993
 11
279.98767999999995
 21
12.185407999999995
  0
LINE
  8
_f-f_
  6
CONTINUOUS
 62
    7
 10
279.98767999999995
 20
12.185407999999995
 11
279.93279999999993
 21
12.141503999999998
  0
LINE
  8
_f-f_
  6
CONTINUOUS
 62
    7
 10
279.93279999999993
 20
12.141503999999998
 11
279.80108799999994
 21
12.053696000000031
  0
LINE
  8
_f-f_
  6
CONTINUOUS
 62
    7
 10
279.80108799999994
 20
12.053696000000031
 11
279.72425599999997
 21
12.009792000000004
  0
LINE
  8
_f-f_
  6
CONTINUOUS
 62
    7
 10
279.72425599999997
 20
12.009792000000004
 11
279.70230399999997
 21
12.009792000000004
  0
LINE
  8
_f-f_
  6
CONTINUOUS
 62
    7
 10
280.69014399999992
 20
12.448831999999982
 11
280.66819199999998
 21
12.448831999999982
  0
LINE
  8
_f-f_
  6
CONTINUOUS
 62
    7
 10
280.66819199999998
 20
12.448831999999982
 11
280.66819199999998
 21
10.78048000000004
  0
LINE
  8
_f-f_
  6
CONTINUOUS
 62
    7
 10
280.66819199999998
 20
10.78048000000004
 11
280.33891199999999
 21
10.78048000000004
  0
LINE
  8
_f-f_
  6
CONTINUOUS
 62
    7
 10
261.69803650015848
 20
10.818143377298185
 11
261.46786978015854
 21
11.320637828498263
  0
ARC
  8
_f-f_
  6
CONTINUOUS
 62
    7
 10
261.14397350815852
 20
13.801814490098195
 40
2.5022283551999998
 50
277.43740700000006
 51
318.25330200000008
  0
LINE
  8
_f-f_
  6
CONTINUOUS
 62
    7
 10
259.91794882015853
 20
11.278091559698225
 11
259.38451522015851
 21
10.85915849409821
  0
ARC
  8
_f-f_
  6
CONTINUOUS
 62
    7
 10
248.43833509135854
 20
2.5524020556982236
 40
13.741217431199997
 50
37.193868000000002
 51
44.067300000000003
  0
ARC
  8
_f-f_
  6
CONTINUOUS
 62
    7
 10
251.63328789295852
 20
5.1972563964982612
 40
9.6114510576000001
 50
45.985430000000001
 51
52.858862000000002
  0
LINE
  8
_f-f_
  6
CONTINUOUS
 62
    7
 10
257.43649474015854
 20
12.859030695698209
 11
257.84546050015854
 21
13.256932647698193
  0
ARC
  8
_f-f_
  6
CONTINUOUS
 62
    7
 10
259.60822146655852
 20
14.802502172498251
 40
1.5138771480000004
 50
335.50113199999998
 51
353.79681699999998
  0
ARC
  8
_f-f_
  6
CONTINUOUS
 62
    7
 10
255.5557247609585
 20
17.049016618898278
 40
6.1438791120000014
 50
318.37204700000001
 51
332.10656799999998
  0
ARC
  8
_f-f_
  6
CONTINUOUS
 62
    7
 10
253.24143214255852
 20
15.569703169298236
 40
3.3701116512000007
 50
327.63748900000002
 51
343.65418099999999
  0
ARC
  8
_f-f_
  6
CONTINUOUS
 62
    7
 10
253.40907764575854
 20
15.622958446898267
 40
3.2597962655999995
 50
295.64126099999999
 51
325.26891000000001
  0
LINE
  8
_f-f_
  6
CONTINUOUS
 62
    7
 10
254.81970658015848
 20
12.68418301569821
 11
254.54706274015854
 21
13.113498279698177
  0
LINE
  8
_f-f_
  6
CONTINUOUS
 62
    7
 10
253.63923778015851
 20
15.293364807698225
 11
253.08308386015847
 21
15.228364935698238
  0
LINE
  8
_f-f_
  6
CONTINUOUS
 62
    7
 10
253.74691234015856
 20
10.796371383698215
 11
254.30800546015854
 21
10.877532318098247
  0
LINE
  8
_f-f_
  6
CONTINUOUS
 62
    7
 10
251.82161218015855
 20
14.621238471698234
 11
251.82161218015855
 21
14.055798855698214
  0
LINE
  8
_f-f_
  6
CONTINUOUS
 62
    7
 10
265.43503522015851
 20
13.13197088769823
 11
265.43799874015849
 21
13.697410503698194
  0
LINE
  8
_f-f_
  6
CONTINUOUS
 62
    7
 10
265.43799874015849
 20
13.697410503698194
 11
261.28709506015849
 21
13.697410503698194
  0
LINE
  8
_f-f_
  6
CONTINUOUS
 62
    7
 10
261.28709506015849
 20
13.697410503698194
 11
261.28709506015849
 21
13.13197088769823
  0
LINE
  8
_f-f_
  6
CONTINUOUS
 62
    7
 10
261.62197282015848
 20
14.929049415698273
 11
261.62197282015848
 21
14.363609799698224
  0
LINE
  8
_f-f_
  6
CONTINUOUS
 62
    7
 10
261.62197282015848
 20
14.363609799698224
 11
264.40866946015854
 21
14.363609799698224
  0
LINE
  8
_f-f_
  6
CONTINUOUS
 62
    7
 10
261.11323522015851
 20
14.63892080769827
 11
256.72228642015853
 21
14.63892080769827
  0
LINE
  8
_f-f_
  6
CONTINUOUS
 62
    7
 10
256.72228642015853
 20
14.63892080769827
 11
256.72228642015853
 21
14.073678759698211
  0
LINE
  8
_f-f_
  6
CONTINUOUS
 62
    7
 10
248.28712066015856
 20
15.250196199698237
 11
247.73096674015852
 21
15.185295111698224
  0
LINE
  8
_f-f_
  6
CONTINUOUS
 62
    7
 10
248.17648258015853
 20
10.813381988498236
 11
248.73757570015857
 21
10.894552801298175
  0
LINE
  8
_f-f_
  6
CONTINUOUS
 62
    7
 10
240.27079906015857
 20
13.902288519698203
 11
240.87041794015852
 21
13.944370503698195
  0
ARC
  8
_f-f_
  6
CONTINUOUS
 62
    7
 10
236.74753516495866
 20
13.76305823409821
 40
4.1268670632000006
 50
321.70218699999998
 51
2.5180820000000264
  0
ARC
  8
_f-f_
  6
CONTINUOUS
 62
    7
 10
238.33115299375856
 20
13.078716433298212
 40
2.4997389984000002
 50
293.16671400000001
 51
311.462399
  0
LINE
  8
_f-f_
  6
CONTINUOUS
 62
    7
 10
239.31456994015855
 20
10.780546186898221
 11
238.93326370015848
 21
11.179910142098237
  0
ARC
  8
_f-f_
  6
CONTINUOUS
 62
    7
 10
237.93835982095854
 20
13.317551449298207
 40
2.3578267271999995
 50
294.95826699999998
 51
355.396568
  0
ARC
  8
_f-f_
  6
CONTINUOUS
 62
    7
 10
236.41950066655863
 20
13.426618863698252
 40
3.8805615072000004
 50
355.59126199999997
 51
7.040883000000008
  0
LINE
  8
_f-f_
  6
CONTINUOUS
 62
    7
 10
250.53149314015846
 20
12.585794151698195
 11
250.53346882015853
 21
13.151233767698216
  0
LINE
  8
_f-f_
  6
CONTINUOUS
 62
    7
 10
246.08917666015856
 20
13.151233767698216
 11
246.08917666015856
 21
12.585794151698195
  0
LINE
  8
_f-f_
  6
CONTINUOUS
 62
    7
 10
250.33491298015849
 20
14.089879335698242
 11
250.33787650015853
 21
14.65531895169822
  0
LINE
  8
_f-f_
  6
CONTINUOUS
 62
    7
 10
246.3025501001585
 20
14.65531895169822
 11
246.3025501001585
 21
14.089879335698242
  0
LINE
  8
_f-f_
  6
CONTINUOUS
 62
    7
 10
245.69107714015851
 20
12.768050631698202
 11
245.69305282015858
 21
13.333292679698218
  0
LINE
  8
_f-f_
  6
CONTINUOUS
 62
    7
 10
245.69305282015858
 20
13.333292679698218
 11
242.56061218015859
 21
13.333292679698218
  0
LINE
  8
_f-f_
  6
CONTINUOUS
 62
    7
 10
242.56061218015859
 20
13.333292679698218
 11
242.56061218015859
 21
12.768050631698202
  0
LINE
  8
_f-f_
  6
CONTINUOUS
 62
    7
 10
242.56061218015859
 20
12.768050631698202
 11
245.69107714015851
 21
12.768050631698202
  0
LINE
  8
_f-f_
  6
CONTINUOUS
 62
    7
 10
242.94685762015857
 20
15.086511111698243
 11
238.61320354015854
 21
15.086511111698243
  0
LINE
  8
_f-f_
  6
CONTINUOUS
 62
    7
 10
238.61320354015854
 20
15.086511111698243
 11
238.61320354015854
 21
14.526603399698274
  0
LINE
  8
_f-f_
  6
CONTINUOUS
 62
    7
 10
241.43249890015855
 20
12.940725063698153
 11
241.04921698015858
 21
13.386537255698215
  0
LINE
  8
_f-f_
  6
CONTINUOUS
 62
    7
 10
264.40866946015854
 20
14.363609799698224
 11
264.41163298015852
 21
14.929049415698273
  0
LINE
  8
_f-f_
  6
CONTINUOUS
 62
    7
 10
264.41163298015852
 20
14.929049415698273
 11
261.62197282015848
 21
14.929049415698273
  0
LINE
  8
_f-f_
  6
CONTINUOUS
 62
    7
 10
264.76923106015852
 20
15.129383367698281
 11
264.76923106015852
 21
14.298116007698198
  0
LINE
  8
_f-f_
  6
CONTINUOUS
 62
    7
 10
264.76923106015852
 20
14.298116007698198
 11
265.18906306015845
 21
14.298116007698198
  0
LINE
  8
_f-f_
  6
CONTINUOUS
 62
    7
 10
265.18906306015845
 20
14.298116007698198
 11
265.18906306015845
 21
15.129383367698281
  0
LINE
  8
_f-f_
  6
CONTINUOUS
 62
    7
 10
265.18906306015845
 20
15.129383367698281
 11
264.76923106015852
 21
15.129383367698281
  0
LINE
  8
_f-f_
  6
CONTINUOUS
 62
    7
 10
265.35403234015854
 20
15.129383367698281
 11
265.35403234015854
 21
14.298116007698198
  0
LINE
  8
_f-f_
  6
CONTINUOUS
 62
    7
 10
265.35403234015854
 20
14.298116007698198
 11
265.77386434015853
 21
14.298116007698198
  0
LINE
  8
_f-f_
  6
CONTINUOUS
 62
    7
 10
265.77386434015853
 20
14.298116007698198
 11
265.77386434015853
 21
15.129383367698281
  0
LINE
  8
_f-f_
  6
CONTINUOUS
 62
    7
 10
265.77386434015853
 20
15.129383367698281
 11
265.35403234015854
 21
15.129383367698281
  0
ARC
  8
_f-f_
  6
CONTINUOUS
 62
    7
 10
240.40335977935854
 20
15.112665822098251
 40
1.8430007399999995
 50
290.51408900000007
 51
341.45836900000006
  0
ARC
  8
_f-f_
  6
CONTINUOUS
 62
    7
 10
240.32372670415859
 20
15.330920014898268
 40
2.6348450520000002
 50
294.88580100000001
 51
354.697475
  0
LINE
  8
_f-f_
  6
CONTINUOUS
 62
    7
 10
250.33787650015853
 20
14.65531895169822
 11
248.34864168895854
 21
14.65531895169822
  0
LINE
  8
_f-f_
  6
CONTINUOUS
 62
    7
 10
247.78497359935855
 20
14.65531895169822
 11
246.3025501001585
 21
14.65531895169822
  0
LINE
  8
_f-f_
  6
CONTINUOUS
 62
    7
 10
246.3025501001585
 20
14.089879335698242
 11
247.84259348335851
 21
14.089879335698242
  0
LINE
  8
_f-f_
  6
CONTINUOUS
 62
    7
 10
248.40711852415853
 20
14.089879335698242
 11
250.33491298015849
 21
14.089879335698242
  0
LINE
  8
_f-f_
  6
CONTINUOUS
 62
    7
 10
250.53346882015853
 20
13.151233767698216
 11
248.50419273775856
 21
13.151233767698216
  0
LINE
  8
_f-f_
  6
CONTINUOUS
 62
    7
 10
247.93824603055856
 20
13.151233767698216
 11
246.08917666015856
 21
13.151233767698216
  0
LINE
  8
_f-f_
  6
CONTINUOUS
 62
    7
 10
246.08917666015856
 20
12.585794151698195
 11
247.99586591455852
 21
12.585794151698195
  0
LINE
  8
_f-f_
  6
CONTINUOUS
 62
    7
 10
248.5626695729585
 20
12.585794151698195
 11
250.53149314015846
 21
12.585794151698195
  0
LINE
  8
_f-f_
  6
CONTINUOUS
 62
    7
 10
248.34864168895854
 20
14.65531895169822
 11
248.28712066015856
 21
15.250196199698237
  0
LINE
  8
_f-f_
  6
CONTINUOUS
 62
    7
 10
247.73096674015852
 20
15.185295111698224
 11
247.78497359935855
 21
14.65531895169822
  0
LINE
  8
_f-f_
  6
CONTINUOUS
 62
    7
 10
247.84259348335851
 20
14.089879335698242
 11
247.93824603055856
 21
13.151233767698216
  0
LINE
  8
_f-f_
  6
CONTINUOUS
 62
    7
 10
247.99586591455852
 20
12.585794151698195
 11
248.17648258015853
 21
10.813381988498236
  0
LINE
  8
_f-f_
  6
CONTINUOUS
 62
    7
 10
248.73757570015857
 20
10.894552801298175
 11
248.5626695729585
 21
12.585794151698195
  0
LINE
  8
_f-f_
  6
CONTINUOUS
 62
    7
 10
248.50419273775856
 20
13.151233767698216
 11
248.40711852415853
 21
14.089879335698242
  0
LINE
  8
_f-f_
  6
CONTINUOUS
 62
    7
 10
256.47532642015847
 20
14.621238471698234
 11
253.74102975295853
 21
14.621238471698234
  0
LINE
  8
_f-f_
  6
CONTINUOUS
 62
    7
 10
253.1740194713586
 20
14.621238471698234
 11
251.82161218015855
 21
14.621238471698234
  0
LINE
  8
_f-f_
  6
CONTINUOUS
 62
    7
 10
251.82161218015855
 20
14.055798855698214
 11
253.25871193375849
 21
14.055798855698214
  0
LINE
  8
_f-f_
  6
CONTINUOUS
 62
    7
 10
253.08308386015847
 20
15.228364935698238
 11
253.1740194713586
 21
14.621238471698234
  0
LINE
  8
_f-f_
  6
CONTINUOUS
 62
    7
 10
253.25871193375849
 20
14.055798855698214
 11
253.74691234015856
 21
10.796371383698215
  0
LINE
  8
_f-f_
  6
CONTINUOUS
 62
    7
 10
254.30800546015854
 20
10.877532318098247
 11
253.82666395615848
 21
14.055798855698214
  0
LINE
  8
_f-f_
  6
CONTINUOUS
 62
    7
 10
253.74102975295853
 20
14.621238471698234
 11
253.63923778015851
 21
15.293364807698225
  0
ARC
  8
_f-f_
  6
CONTINUOUS
 62
    7
 10
253.30606651375854
 20
15.707678898098237
 40
2.8757339520000005
 50
295.56537500000002
 51
324.94094800000005
  0
LINE
  8
_f-f_
  6
CONTINUOUS
 62
    7
 10
253.82666395615848
 20
14.055798855698214
 11
255.66727330015857
 21
14.055798855698214
  0
ARC
  8
_f-f_
  6
CONTINUOUS
 62
    7
 10
255.50034562735851
 20
17.562717291698277
 40
6.535748654399999
 50
304.14080200000001
 51
315.32696499999997
  0
ARC
  8
_f-f_
  6
CONTINUOUS
 62
    7
 10
251.77672308415856
 20
5.0645516172982639
 40
10.241466597600002
 50
37.351568999999991
 51
43.801712000000002
  0
ARC
  8
_f-f_
  6
CONTINUOUS
 62
    7
 10
251.93372790415847
 20
4.8052798380982154
 40
10.3140201528
 50
48.700563000000002
 51
55.028115999999997
  0
ARC
  8
_f-f_
  6
CONTINUOUS
 62
    7
 10
257.08223226655855
 20
15.662920690898247
 40
3.5238129696000002
 50
298.08031299999999
 51
333.19209899999998
  0
LINE
  8
_f-f_
  6
CONTINUOUS
 62
    7
 10
256.72228642015853
 20
14.073678759698211
 11
260.22731890495857
 21
14.073678759698211
  0
ARC
  8
_f-f_
  6
CONTINUOUS
 62
    7
 10
261.53521000975854
 20
13.090698932498213
 40
2.2783813415999994
 50
274.09817199999998
 51
1.0379469999999982
  0
ARC
  8
_f-f_
  6
CONTINUOUS
 62
    7
 10
261.63552269215853
 20
12.913413757298173
 40
1.5799941024000002
 50
330.51444500000002
 51
7.9510959999999775
  0
LINE
  8
_f-f_
  6
CONTINUOUS
 62
    7
 10
261.28709506015849
 20
13.13197088769823
 11
263.20032710815855
 21
13.13197088769823
  0
LINE
  8
_f-f_
  6
CONTINUOUS
 62
    7
 10
263.8132176185585
 20
13.13197088769823
 11
265.43503522015851
 21
13.13197088769823
  0
LINE
  8
_f-f_
  6
CONTINUOUS
 62
    7
 10
238.61320354015854
 20
14.526603399698274
 11
242.15069562415852
 21
14.526603399698274
  0
LINE
  8
_f-f_
  6
CONTINUOUS
 62
    7
 10
269.23119999999994
 20
13.941568000000032
 11
270.02147199999996
 21
13.941568000000032
  0
LINE
  8
_f-f_
  6
CONTINUOUS
 62
    7
 10
269.23119999999994
 20
13.546432000000038
 11
270.02147199999996
 21
13.546432000000038
  0
LINE
  8
_f-f_
  6
CONTINUOUS
 62
    7
 10
270.02147199999996
 20
13.941568000000032
 11
270.02147199999996
 21
13.546432000000038
  0
LINE
  8
_f-f_
  6
CONTINUOUS
 62
    7
 10
267.06892800000003
 20
13.853760000000037
 11
266.48719999999992
 21
13.853760000000037
  0
LINE
  8
_f-f_
  6
CONTINUOUS
 62
    7
 10
266.48719999999992
 20
13.853760000000037
 11
266.48719999999992
 21
13.458624000000043
  0
LINE
  8
_f-f_
  6
CONTINUOUS
 62
    7
 10
267.04697599999997
 20
13.458624000000043
 11
266.48719999999992
 21
13.458624000000043
  0
LINE
  8
_f-f_
  6
CONTINUOUS
 62
    7
 10
267.38723200000004
 20
13.853760000000037
 11
267.87017599999996
 21
13.853760000000037
  0
LINE
  8
_f-f_
  6
CONTINUOUS
 62
    7
 10
267.87017599999996
 20
13.853760000000037
 11
267.87017599999996
 21
13.458624000000043
  0
LINE
  8
_f-f_
  6
CONTINUOUS
 62
    7
 10
267.38723200000004
 20
13.458624000000043
 11
267.87017599999996
 21
13.458624000000043
  0
LINE
  8
_f-f_
  6
CONTINUOUS
 62
    7
 10
268.9019199999999
 20
13.019583999999952
 11
267.89212799999996
 21
13.019583999999952
  0
LINE
  8
_f-f_
  6
CONTINUOUS
 62
    7
 10
267.89212799999996
 20
13.019583999999952
 11
267.89212799999996
 21
12.624447999999973
  0
LINE
  8
_f-f_
  6
CONTINUOUS
 62
    7
 10
268.87996799999996
 20
12.624447999999973
 11
267.89212799999996
 21
12.624447999999973
  0
LINE
  8
_f-f_
  6
CONTINUOUS
 62
    7
 10
269.23119999999994
 20
13.019583999999952
 11
270.306848
 21
13.019583999999952
  0
LINE
  8
_f-f_
  6
CONTINUOUS
 62
    7
 10
270.306848
 20
13.019583999999952
 11
270.306848
 21
12.624447999999973
  0
LINE
  8
_f-f_
  6
CONTINUOUS
 62
    7
 10
269.26412799999991
 20
12.624447999999973
 11
270.306848
 21
12.624447999999973
  0
LINE
  8
_f-f_
  6
CONTINUOUS
 62
    7
 10
273.07279999999992
 20
13.853760000000037
 11
270.97638399999994
 21
13.853760000000037
  0
LINE
  8
_f-f_
  6
CONTINUOUS
 62
    7
 10
270.97638399999994
 20
13.853760000000037
 11
270.97638399999994
 21
13.458624000000043
  0
LINE
  8
_f-f_
  6
CONTINUOUS
 62
    7
 10
273.083776
 20
13.458624000000043
 11
270.97638399999994
 21
13.458624000000043
  0
LINE
  8
_f-f_
  6
CONTINUOUS
 62
    7
 10
273.44598400000001
 20
13.853760000000037
 11
274.64236799999992
 21
13.853760000000037
  0
LINE
  8
_f-f_
  6
CONTINUOUS
 62
    7
 10
274.64236799999992
 20
13.853760000000037
 11
274.64236799999992
 21
13.458624000000043
  0
LINE
  8
_f-f_
  6
CONTINUOUS
 62
    7
 10
273.44598400000001
 20
13.458624000000043
 11
274.64236799999992
 21
13.458624000000043
  0
LINE
  8
_f-f_
  6
CONTINUOUS
 62
    7
 10
272.16179199999999
 20
12.536639999999977
 11
272.16179199999999
 21
12.522973737441333
  0
LINE
  8
_f-f_
  6
CONTINUOUS
 62
    7
 10
272.16179199999999
 20
12.522973737441333
 11
272.16179199999999
 21
11.658559999999994
  0
LINE
  8
_f-f_
  6
CONTINUOUS
 62
    7
 10
271.15199999999993
 20
12.84396799999999
 11
271.15199999999993
 21
12.536639999999977
  0
LINE
  8
_f-f_
  6
CONTINUOUS
 62
    7
 10
271.83251199999995
 20
12.536639999999977
 11
271.15199999999993
 21
12.536639999999977
  0
LINE
  8
_f-f_
  6
CONTINUOUS
 62
    7
 10
272.16179199999999
 20
12.522973737441333
 11
272.83132799999998
 21
12.522973737441333
  0
LINE
  8
_f-f_
  6
CONTINUOUS
 62
    7
 10
272.83132799999998
 20
12.84396799999999
 11
272.83132799999998
 21
12.522973737441333
  0
LINE
  8
_f-f_
  6
CONTINUOUS
 62
    7
 10
277.05708800000002
 20
12.141503999999998
 11
278.9339839999999
 21
12.141503999999998
  0
LINE
  8
_f-f_
  6
CONTINUOUS
 62
    7
 10
278.9339839999999
 20
12.536639999999977
 11
278.9339839999999
 21
12.141503999999998
  0
LINE
  8
_f-f_
  6
CONTINUOUS
 62
    7
 10
276.66195199999999
 20
12.141503999999998
 11
275.43263999999999
 21
12.141503999999998
  0
LINE
  8
_f-f_
  6
CONTINUOUS
 62
    7
 10
275.43263999999999
 20
12.536639999999977
 11
275.43263999999999
 21
12.141503999999998
  0
LINE
  8
_f-f_
  6
CONTINUOUS
 62
    7
 10
280.33891199999999
 20
14.600128000000012
 11
280.33891199999999
 21
13.897663999999992
  0
LINE
  8
_f-f_
  6
CONTINUOUS
 62
    7
 10
280.33891199999999
 20
13.897663999999992
 11
279.70230399999997
 21
13.897663999999992
  0
LINE
  8
_f-f_
  6
CONTINUOUS
 62
    7
 10
279.70230399999997
 20
13.897663999999992
 11
279.70230399999997
 21
13.546432000000038
  0
LINE
  8
_f-f_
  6
CONTINUOUS
 62
    7
 10
280.82185599999991
 20
13.546432000000038
 11
279.70230399999997
 21
13.546432000000038
  0
LINE
  8
_f-f_
  6
CONTINUOUS
 62
    7
 10
282.17190399999993
 20
13.502527999999984
 11
281.43651199999999
 21
13.502527999999984
  0
LINE
  8
_f-f_
  6
CONTINUOUS
 62
    7
 10
281.43651199999999
 20
13.502527999999984
 11
281.43651199999999
 21
13.107392000000061
  0
LINE
  8
_f-f_
  6
CONTINUOUS
 62
    7
 10
282.17190399999993
 20
13.107392000000061
 11
281.43651199999999
 21
13.107392000000061
  0
LINE
  8
_f-f_
  6
CONTINUOUS
 62
    7
 10
282.55606399999994
 20
13.107392000000061
 11
283.34633599999995
 21
13.107392000000061
  0
LINE
  8
_f-f_
  6
CONTINUOUS
 62
    7
 10
283.34633599999995
 20
13.502527999999984
 11
283.34633599999995
 21
13.107392000000061
  0
LINE
  8
_f-f_
  6
CONTINUOUS
 62
    7
 10
282.55606399999994
 20
13.502527999999984
 11
283.34633599999995
 21
13.502527999999984
  0
LINE
  8
_f-f_
  6
CONTINUOUS
 62
    7
 10
283.5
 20
11.35123200000001
 11
283.5
 21
11
  0
LINE
  8
_f-f_
  6
CONTINUOUS
 62
    7
 10
282.55606399999994
 20
11.35123200000001
 11
283.5
 21
11.35123200000001
  0
LINE
  8
_f-f_
  6
CONTINUOUS
 62
    7
 10
281.16211199999998
 20
11.35123200000001
 11
281.16211199999998
 21
11
  0
LINE
  8
_f-f_
  6
CONTINUOUS
 62
    7
 10
282.17190399999993
 20
11.35123200000001
 11
281.16211199999998
 21
11.35123200000001
  0
LINE
  8
_f-f_
  6
CONTINUOUS
 62
    7
 10
233.5
 20
17
 11
233.5
 21
27
  0
LINE
  8
_f-f_
  6
CONTINUOUS
 62
    7
 10
183.5
 20
17
 11
183.5
 21
27
  0
LINE
  8
_f-f_
  6
CONTINUOUS
 62
    7
 10
253.5
 20
17
 11
253.5
 21
27
  0
TEXT
  8
_e-e_
 62
    7
 10
165.5
 20
20
 40
4
 41
1
 50
0
  1
図面名称
  0
TEXT
  8
_e-e_
 62
    7
 10
237.5
 20
20
 40
4
 41
1
 50
0
  1
作成日
  0
LINE
  8
_f-f_
  6
CONTINUOUS
 62
    7
 10
163.5
 20
17
 11
163.5
 21
27
  0
LINE
  8
_f-f_
  6
CONTINUOUS
 62
    7
 10
283.5
 20
27
 11
188.61822686063675
 21
27
  0
LINE
  8
_f-f_
  6
CONTINUOUS
 62
    7
 10
188.61822686063675
 20
27
 11
163.5
 21
27
  0
LINE
  8
_f-f_
  6
CONTINUOUS
 62
    7
 10
248.5
 20
197
 11
248.5
 21
187
  0
TEXT
  8
_e-e_
 62
    7
 10
237
 20
190
 40
4
 41
1
 50
0
  1
縮尺
  0
LINE
  8
_f-f_
  6
CONTINUOUS
 62
    7
 10
233.5
 20
197
 11
233.5
 21
187
  0
LINE
  8
_f-f_
  6
CONTINUOUS
 62
    7
 10
233.5
 20
187
 11
283.5
 21
187
  0
TEXT
  8
_e-e_
 62
    7
 10
255
 20
190
 40
4
 41
1
 50
0
  1
Ａ４：１/３
  0
TEXT
  8
_e-e_
 62
    7
 10
258.5
 20
20
 40
4
 41
1
 50
0
  1
2020.03.10
  0
TEXT
  8
_e-e_
 62
    7
 10
188.5
 20
22.5
 40
4
 41
1
 50
0
  1
笠木部の例
  0
LINE
  8
_1-a_元図__躯体
  6
CONTINUOUS
 62
    7
 10
150.71967873774523
 20
31.22835000000002
 11
160.83992873774523
 21
41.348600000000019
  0
LINE
  8
_1-a_元図__躯体
  6
CONTINUOUS
 62
    7
 10
120.83992873774523
 20
139.72835000000001
 11
120.83992873774523
 21
31.22835000000002
  0
LINE
  8
_1-a_元図__躯体
  6
CONTINUOUS
 62
    7
 10
120.83992873774523
 20
78.649950000000018
 11
160.83992873774523
 21
118.64995
  0
LINE
  8
_1-a_元図__躯体
  6
CONTINUOUS
 62
    7
 10
160.83992873774523
 20
31.22835000000002
 11
160.83992873774523
 21
139.72835000000001
  0
LINE
  8
_1-a_元図__躯体
  6
CONTINUOUS
 62
    7
 10
159.33992873774523
 20
141.22835000000001
 11
122.33992873774523
 21
141.22835000000001
  0
LINE
  8
_1-a_元図__躯体
  6
CONTINUOUS
 62
    7
 10
120.83992873774523
 20
80.535550000000001
 11
160.83992873774523
 21
120.53555
  0
LINE
  8
_1-a_元図__躯体
  6
CONTINUOUS
 62
    7
 10
120.83992873774523
 20
76.76430000000002
 11
160.83992873774523
 21
116.76430000000001
  0
LINE
  8
_1-a_元図__躯体
  6
CONTINUOUS
 62
    7
 10
148.83407873774522
 20
31.22835000000002
 11
160.83992873774523
 21
43.234200000000008
  0
LINE
  8
_1-a_元図__躯体
  6
CONTINUOUS
 62
    7
 10
152.60532873774522
 20
31.22835000000002
 11
160.83992873774523
 21
39.462950000000021
  0
LINE
  8
ADD_LINE
  6
DOT
 62
    7
 10
159.33992873774523
 20
141.22835000000001
 11
160.83992873774523
 21
139.72835000000001
  0
LINE
  8
_1-a_元図__躯体
  6
CONTINUOUS
 62
    7
 10
122.33992873774523
 20
141.22835000000001
 11
120.83992873774523
 21
139.72835000000001
  0
LINE
  8
_1-4_リベットル__フ
  6
CONTINUOUS
 62
    6
 10
140.03042873774521
 20
142.22835000000001
 11
124.53067873774523
 21
142.22835000000001
  0
ARC
  8
_1-4_リベットル__フ
  6
CONTINUOUS
 62
    6
 10
141.62312873774522
 20
142.39505
 40
0.6666499999999999
 50
225.00000000000006
 51
270.00000000000006
  0
ARC
  8
_1-4_リベットル__フ
  6
CONTINUOUS
 62
    6
 10
141.62312873774522
 20
142.39505
 40
0.6666499999999999
 50
225.00000000000006
 51
270.00000000000006
  0
LINE
  8
_1-4_リベットル__フ
  6
CONTINUOUS
 62
    6
 10
131.92922873774523
 20
142.72835000000001
 11
124.53067873774523
 21
142.72835000000001
  0
LINE
  8
_1-4_リベットル__フ
  6
CONTINUOUS
 62
    6
 10
159.33992873774523
 20
141.22835000000001
 11
160.83992873774523
 21
139.72835000000001
  0
LINE
  8
_1-4_リベットル__フ
  6
CONTINUOUS
 62
    6
 10
124.53067873774523
 20
142.72835000000001
 11
124.53067873774523
 21
142.22835000000001
  0
LINE
  8
_1-4_リベットル__フ
  6
CONTINUOUS
 62
    6
 10
159.54702873774522
 20
141.72835000000001
 11
141.62312873774522
 21
141.72835000000001
  0
LINE
  8
_1-4_リベットル__フ
  6
CONTINUOUS
 62
    6
 10
160.83992873774523
 20
31.228350000000006
 11
160.83992873774523
 21
139.72835000000001
  0
LINE
  8
_1-4_リベットル__フ
  6
CONTINUOUS
 62
    6
 10
161.33992873774523
 20
31.228350000000006
 11
161.33992873774523
 21
139.93545
  0
LINE
  8
_1-4_リベットル__フ
  6
CONTINUOUS
 62
    6
 10
159.33992873774523
 20
141.22835000000001
 11
141.41602873774522
 21
141.22835000000001
  0
LINE
  8
_1-4_リベットル__フ
  6
CONTINUOUS
 62
    6
 10
140.94462873774523
 20
141.42365000000001
 11
140.50182873774523
 21
142.03309999999999
  0
LINE
  8
_1-4_リベットル__フ
  6
CONTINUOUS
 62
    6
 10
141.15172873774523
 20
141.92365000000001
 11
140.70892873774523
 21
142.53309999999999
  0
LINE
  8
_1-4_リベットル__フ
  6
CONTINUOUS
 62
    6
 10
140.23752873774524
 20
142.72835000000001
 11
124.53067873774523
 21
142.72835000000001
  0
LINE
  8
_1-4_リベットル__フ
  6
CONTINUOUS
 62
    6
 10
159.54702873774522
 20
141.72835000000001
 11
161.33992873774523
 21
139.93545
  0
ARC
  8
_1-4_リベットル__フ
  6
CONTINUOUS
 62
    6
 10
141.41602873774522
 20
141.89505
 40
0.6666499999999999
 50
225.00000000000006
 51
270.00000000000006
  0
ARC
  8
_1-4_リベットル__フ
  6
CONTINUOUS
 62
    6
 10
140.03042873774521
 20
141.5617
 40
0.6666499999999999
 50
45.000000000000014
 51
90.000000000000028
  0
ARC
  8
_1-4_リベットル__フ
  6
CONTINUOUS
 62
    6
 10
140.23752873774524
 20
142.0617
 40
0.6666499999999999
 50
45.000000000000014
 51
90.000000000000028
  0
LINE
  8
_1-c_アンカ__類②
  6
CONTINUOUS
 62
    4
 10
131.23407873774516
 20
138.26170000000002
 11
131.06742873774519
 21
138.89505000000003
  0
LINE
  8
_1-c_アンカ__類②
  6
CONTINUOUS
 62
    4
 10
133.32742873774518
 20
138.89505000000003
 11
133.16077873774518
 21
138.26170000000002
  0
LINE
  8
_1-c_アンカ__類②
  6
CONTINUOUS
 62
    4
 10
133.16077873774518
 20
140.56170000000003
 11
131.23407873774516
 21
140.56170000000003
  0
LINE
  8
_1-c_アンカ__類②
  6
CONTINUOUS
 62
    4
 10
133.16077873774518
 20
140.19505000000001
 11
131.23407873774516
 21
140.19505000000001
  0
LINE
  8
_1-c_アンカ__類②
  6
CONTINUOUS
 62
    4
 10
131.49742873774517
 20
130.56170000000003
 11
131.19742873774518
 21
131.69505000000001
  0
LINE
  8
_1-c_アンカ__類②
  6
CONTINUOUS
 62
    4
 10
132.89742873774517
 20
130.56170000000003
 11
131.49742873774517
 21
130.56170000000003
  0
LINE
  8
_1-c_アンカ__類②
  6
CONTINUOUS
 62
    4
 10
132.89742873774517
 20
130.56170000000003
 11
133.19742873774518
 21
131.69505000000001
  0
LINE
  8
_1-c_アンカ__類②
  6
CONTINUOUS
 62
    4
 10
133.19742873774518
 20
132.56170000000003
 11
133.19742873774518
 21
133.16170000000002
  0
LINE
  8
_1-c_アンカ__類②
  6
CONTINUOUS
 62
    4
 10
131.19742873774518
 20
132.56170000000003
 11
131.19742873774518
 21
133.16170000000002
  0
LINE
  8
_1-c_アンカ__類②
  6
CONTINUOUS
 62
    4
 10
133.17242873774518
 20
132.37835000000001
 11
132.82242873774518
 21
132.37835000000001
  0
LINE
  8
_1-c_アンカ__類②
  6
CONTINUOUS
 62
    4
 10
131.57242873774518
 20
132.37835000000001
 11
131.22242873774519
 21
132.37835000000001
  0
LINE
  8
_1-c_アンカ__類②
  6
CONTINUOUS
 62
    4
 10
133.17242873774518
 20
132.21170000000001
 11
132.82242873774518
 21
132.21170000000001
  0
LINE
  8
_1-c_アンカ__類②
  6
CONTINUOUS
 62
    4
 10
133.17242873774518
 20
132.04505
 11
132.82242873774518
 21
132.04505
  0
LINE
  8
_1-c_アンカ__類②
  6
CONTINUOUS
 62
    4
 10
131.57242873774518
 20
132.04505
 11
131.22242873774519
 21
132.04505
  0
LINE
  8
_1-c_アンカ__類②
  6
CONTINUOUS
 62
    4
 10
133.17242873774518
 20
131.87835000000001
 11
132.82242873774518
 21
131.87835000000001
  0
LINE
  8
_1-c_アンカ__類②
  6
CONTINUOUS
 62
    4
 10
131.57242873774518
 20
131.87835000000001
 11
131.22242873774519
 21
131.87835000000001
  0
LINE
  8
_1-c_アンカ__類②
  6
CONTINUOUS
 62
    4
 10
131.57242873774518
 20
131.69505000000001
 11
131.57242873774518
 21
132.56170000000003
  0
LINE
  8
_1-c_アンカ__類②
  6
CONTINUOUS
 62
    4
 10
132.82242873774518
 20
131.69505000000001
 11
132.82242873774518
 21
132.56170000000003
  0
LINE
  8
_1-c_アンカ__類②
  6
CONTINUOUS
 62
    4
 10
131.57242873774518
 20
132.21170000000001
 11
131.22242873774519
 21
132.21170000000001
  0
LINE
  8
_1-c_アンカ__類②
  6
CONTINUOUS
 62
    4
 10
133.19712873774517
 20
131.69505000000001
 11
132.82242873774518
 21
131.69505000000001
  0
LINE
  8
_1-c_アンカ__類②
  6
CONTINUOUS
 62
    4
 10
131.57242873774518
 20
131.69505000000001
 11
131.19742873774518
 21
131.69505000000001
  0
LINE
  8
_1-c_アンカ__類②
  6
CONTINUOUS
 62
    4
 10
133.19742873774518
 20
132.56170000000003
 11
132.82242873774518
 21
132.56170000000003
  0
LINE
  8
_1-c_アンカ__類②
  6
CONTINUOUS
 62
    4
 10
131.57242873774518
 20
132.56170000000003
 11
131.19742873774518
 21
132.56170000000003
  0
LINE
  8
_1-c_アンカ__類②
  6
CONTINUOUS
 62
    4
 10
131.57242873774518
 20
133.16170000000002
 11
131.19742873774518
 21
133.16170000000002
  0
LINE
  8
_1-c_アンカ__類②
  6
CONTINUOUS
 62
    4
 10
132.19742873774518
 20
131.49505000000002
 11
132.66287873774519
 21
132.10010000000003
  0
LINE
  8
_1-c_アンカ__類②
  6
CONTINUOUS
 62
    4
 10
132.19742873774518
 20
131.66170000000002
 11
132.66752873774519
 21
132.27285000000001
  0
LINE
  8
_1-c_アンカ__類②
  6
CONTINUOUS
 62
    4
 10
132.19742873774518
 20
131.49505000000002
 11
131.73197873774518
 21
132.10010000000003
  0
LINE
  8
_1-c_アンカ__類②
  6
CONTINUOUS
 62
    4
 10
132.19742873774518
 20
131.66170000000002
 11
131.72732873774518
 21
132.27285000000001
  0
LINE
  8
_1-c_アンカ__類②
  6
CONTINUOUS
 62
    4
 10
132.69742873774518
 20
132.26270000000002
 11
132.69742873774518
 21
132.20170000000002
  0
LINE
  8
_1-c_アンカ__類②
  6
CONTINUOUS
 62
    4
 10
131.69742873774518
 20
132.26270000000002
 11
131.69742873774518
 21
132.20170000000002
  0
LINE
  8
_1-c_アンカ__類②
  6
CONTINUOUS
 62
    4
 10
132.19742873774518
 20
130.72835000000001
 11
132.66287873774519
 21
131.33345000000003
  0
LINE
  8
_1-c_アンカ__類②
  6
CONTINUOUS
 62
    4
 10
132.19742873774518
 20
130.89505000000003
 11
132.66752873774519
 21
131.50620000000001
  0
LINE
  8
_1-c_アンカ__類②
  6
CONTINUOUS
 62
    4
 10
132.69742873774518
 20
131.49605000000003
 11
132.69742873774518
 21
131.43505000000002
  0
LINE
  8
_1-c_アンカ__類②
  6
CONTINUOUS
 62
    4
 10
132.19742873774518
 20
130.89505000000003
 11
131.72732873774518
 21
131.50620000000001
  0
LINE
  8
_1-c_アンカ__類②
  6
CONTINUOUS
 62
    4
 10
131.69742873774518
 20
131.49605000000003
 11
131.69742873774518
 21
131.43505000000002
  0
LINE
  8
_1-c_アンカ__類②
  6
CONTINUOUS
 62
    4
 10
132.19742873774518
 20
130.72835000000001
 11
131.73197873774518
 21
131.33345000000003
  0
LINE
  8
_1-c_アンカ__類②
  6
CONTINUOUS
 62
    4
 10
131.57242873774518
 20
133.16170000000002
 11
131.51407873774517
 21
134.42835000000002
  0
LINE
  8
_1-c_アンカ__類②
  6
CONTINUOUS
 62
    4
 10
132.82242873774518
 20
133.16170000000002
 11
132.88077873774517
 21
134.42835000000002
  0
LINE
  8
_1-c_アンカ__類②
  6
CONTINUOUS
 62
    4
 10
133.23907873774519
 20
134.99505000000002
 11
132.88077873774517
 21
134.99505000000002
  0
LINE
  8
_1-c_アンカ__類②
  6
CONTINUOUS
 62
    4
 10
131.51407873774517
 20
134.99505000000002
 11
131.15577873774518
 21
134.99505000000002
  0
LINE
  8
_1-c_アンカ__類②
  6
CONTINUOUS
 62
    4
 10
133.22622873774517
 20
134.42835000000002
 11
132.88077873774517
 21
134.42835000000002
  0
LINE
  8
_1-c_アンカ__類②
  6
CONTINUOUS
 62
    4
 10
131.51407873774517
 20
134.42835000000002
 11
131.16862873774517
 21
134.42835000000002
  0
LINE
  8
_1-c_アンカ__類②
  6
CONTINUOUS
 62
    4
 10
131.16862873774517
 20
134.42835000000002
 11
131.15577873774518
 21
134.99505000000002
  0
LINE
  8
_1-c_アンカ__類②
  6
CONTINUOUS
 62
    4
 10
133.22622873774517
 20
134.42835000000002
 11
133.23907873774519
 21
134.99505000000002
  0
LINE
  8
_1-c_アンカ__類②
  6
CONTINUOUS
 62
    4
 10
131.51867873774518
 20
134.32835
 11
131.17607873774517
 21
134.32835
  0
LINE
  8
_1-c_アンカ__類②
  6
CONTINUOUS
 62
    4
 10
133.19742873774518
 20
133.16170000000002
 11
132.82242873774518
 21
133.16170000000002
  0
LINE
  8
_1-c_アンカ__類②
  6
CONTINUOUS
 62
    4
 10
133.21892873774519
 20
134.32835
 11
132.87342873774517
 21
134.32835
  0
LINE
  8
_1-c_アンカ__類②
  6
CONTINUOUS
 62
    4
 10
131.28077873774518
 20
131.69505000000001
 11
131.28077873774518
 21
132.56170000000003
  0
LINE
  8
_1-c_アンカ__類②
  6
CONTINUOUS
 62
    4
 10
133.11407873774519
 20
131.69505000000001
 11
133.11407873774519
 21
132.56170000000003
  0
LINE
  8
_1-c_アンカ__類②
  6
CONTINUOUS
 62
    4
 10
131.28077873774518
 20
133.16170000000002
 11
131.22242873774519
 21
134.42835000000002
  0
LINE
  8
_1-c_アンカ__類②
  6
CONTINUOUS
 62
    4
 10
131.12242873774517
 20
136.32835
 11
131.12242873774517
 21
136.89505000000003
  0
LINE
  8
_1-c_アンカ__類②
  6
CONTINUOUS
 62
    4
 10
133.27242873774517
 20
136.32835
 11
133.27242873774517
 21
136.89505000000003
  0
LINE
  8
_1-c_アンカ__類②
  6
CONTINUOUS
 62
    4
 10
131.51407873774517
 20
134.99505000000002
 11
131.48077873774517
 21
136.32835
  0
LINE
  8
_1-c_アンカ__類②
  6
CONTINUOUS
 62
    4
 10
132.88077873774517
 20
134.99505000000002
 11
132.91407873774517
 21
136.32835
  0
LINE
  8
_1-c_アンカ__類②
  6
CONTINUOUS
 62
    4
 10
133.27242873774517
 20
136.32835
 11
132.91407873774517
 21
136.32835
  0
LINE
  8
_1-c_アンカ__類②
  6
CONTINUOUS
 62
    4
 10
131.48077873774517
 20
136.32835
 11
131.12242873774517
 21
136.32835
  0
LINE
  8
_1-c_アンカ__類②
  6
CONTINUOUS
 62
    4
 10
131.56472873774518
 20
133.36170000000001
 11
131.19352873774517
 21
133.36170000000001
  0
LINE
  8
_1-c_アンカ__類②
  6
CONTINUOUS
 62
    4
 10
131.55707873774517
 20
133.56170000000003
 11
131.18992873774519
 21
133.56170000000003
  0
LINE
  8
_1-c_アンカ__類②
  6
CONTINUOUS
 62
    4
 10
131.54937873774517
 20
133.76170000000002
 11
131.18632873774519
 21
133.76170000000002
  0
LINE
  8
_1-c_アンカ__類②
  6
CONTINUOUS
 62
    4
 10
131.54172873774519
 20
133.96170000000001
 11
131.18267873774519
 21
133.96170000000001
  0
LINE
  8
_1-c_アンカ__類②
  6
CONTINUOUS
 62
    4
 10
131.52637873774518
 20
134.16170000000002
 11
131.17907873774519
 21
134.16170000000002
  0
LINE
  8
_1-c_アンカ__類②
  6
CONTINUOUS
 62
    4
 10
133.21517873774516
 20
134.16170000000002
 11
132.86847873774516
 21
134.16170000000002
  0
LINE
  8
_1-c_アンカ__類②
  6
CONTINUOUS
 62
    4
 10
133.21062873774517
 20
133.96170000000001
 11
132.85312873774518
 21
133.96170000000001
  0
LINE
  8
_1-c_アンカ__類②
  6
CONTINUOUS
 62
    4
 10
133.20607873774517
 20
133.76170000000002
 11
132.84547873774517
 21
133.76170000000002
  0
LINE
  8
_1-c_アンカ__類②
  6
CONTINUOUS
 62
    4
 10
133.20152873774518
 20
133.56170000000003
 11
132.83777873774517
 21
133.56170000000003
  0
LINE
  8
_1-c_アンカ__類②
  6
CONTINUOUS
 62
    4
 10
133.19697873774518
 20
133.36170000000001
 11
132.83007873774517
 21
133.36170000000001
  0
LINE
  8
_1-c_アンカ__類②
  6
CONTINUOUS
 62
    4
 10
133.11407873774519
 20
133.16170000000002
 11
133.14287873774518
 21
134.42835000000002
  0
LINE
  8
_1-c_アンカ__類②
  6
CONTINUOUS
 62
    4
 10
131.20952873774519
 20
134.99505000000002
 11
131.17622873774516
 21
136.32835
  0
LINE
  8
_1-c_アンカ__類②
  6
CONTINUOUS
 62
    4
 10
133.18532873774518
 20
134.99505000000002
 11
133.21862873774518
 21
136.32835
  0
LINE
  8
_1-c_アンカ__類②
  6
CONTINUOUS
 62
    4
 10
133.24127873774518
 20
135.19505000000001
 11
132.88577873774517
 21
135.19505000000001
  0
LINE
  8
_1-c_アンカ__類②
  6
CONTINUOUS
 62
    4
 10
133.24627873774517
 20
135.39505000000003
 11
132.89612873774519
 21
135.39505000000003
  0
LINE
  8
_1-c_アンカ__類②
  6
CONTINUOUS
 62
    4
 10
133.25127873774517
 20
135.59505000000001
 11
132.89577873774519
 21
135.59505000000001
  0
LINE
  8
_1-c_アンカ__類②
  6
CONTINUOUS
 62
    4
 10
133.25627873774519
 20
135.79505
 11
132.90077873774518
 21
135.79505
  0
LINE
  8
_1-c_アンカ__類②
  6
CONTINUOUS
 62
    4
 10
133.26127873774519
 20
135.99505000000002
 11
132.90577873774518
 21
135.99505000000002
  0
LINE
  8
_1-c_アンカ__類②
  6
CONTINUOUS
 62
    4
 10
133.26627873774518
 20
136.19505000000001
 11
132.91077873774518
 21
136.19505000000001
  0
LINE
  8
_1-c_アンカ__類②
  6
CONTINUOUS
 62
    4
 10
131.50907873774517
 20
135.19505000000001
 11
131.15357873774516
 21
135.19505000000001
  0
LINE
  8
_1-c_アンカ__類②
  6
CONTINUOUS
 62
    4
 10
131.50407873774517
 20
135.39505000000003
 11
131.14857873774517
 21
135.39505000000003
  0
LINE
  8
_1-c_アンカ__類②
  6
CONTINUOUS
 62
    4
 10
131.49907873774518
 20
135.59505000000001
 11
131.14357873774517
 21
135.59505000000001
  0
LINE
  8
_1-c_アンカ__類②
  6
CONTINUOUS
 62
    4
 10
131.49407873774518
 20
135.79505
 11
131.13857873774518
 21
135.79505
  0
LINE
  8
_1-c_アンカ__類②
  6
CONTINUOUS
 62
    4
 10
131.48907873774519
 20
135.99505000000002
 11
131.13357873774518
 21
135.99505000000002
  0
LINE
  8
_1-c_アンカ__類②
  6
CONTINUOUS
 62
    4
 10
131.48407873774516
 20
136.19505000000001
 11
131.12857873774519
 21
136.19505000000001
  0
LINE
  8
_1-c_アンカ__類②
  6
CONTINUOUS
 62
    4
 10
131.23407873774516
 20
138.1617
 11
131.23407873774516
 21
140.56170000000003
  0
LINE
  8
_1-c_アンカ__類②
  6
CONTINUOUS
 62
    4
 10
133.16077873774518
 20
138.1617
 11
133.16077873774518
 21
140.56170000000003
  0
LINE
  8
_1-c_アンカ__類②
  6
CONTINUOUS
 62
    4
 10
131.17622873774516
 20
136.89505000000003
 11
131.28787873774519
 21
138.1617
  0
LINE
  8
_1-c_アンカ__類②
  6
CONTINUOUS
 62
    4
 10
133.21862873774518
 20
136.89505000000003
 11
133.10697873774518
 21
138.1617
  0
LINE
  8
_1-c_アンカ__類②
  6
CONTINUOUS
 62
    4
 10
133.16077873774518
 20
138.1617
 11
132.86407873774519
 21
138.1617
  0
LINE
  8
_1-c_アンカ__類②
  6
CONTINUOUS
 62
    4
 10
131.53077873774518
 20
138.1617
 11
131.23407873774516
 21
138.1617
  0
LINE
  8
_1-c_アンカ__類②
  6
CONTINUOUS
 62
    4
 10
131.53077873774518
 20
138.96170000000001
 11
131.23407873774516
 21
138.96170000000001
  0
LINE
  8
_1-c_アンカ__類②
  6
CONTINUOUS
 62
    4
 10
131.53077873774518
 20
139.12835000000001
 11
131.23407873774516
 21
139.12835000000001
  0
LINE
  8
_1-c_アンカ__類②
  6
CONTINUOUS
 62
    4
 10
131.53077873774518
 20
139.29505
 11
131.23407873774516
 21
139.29505
  0
LINE
  8
_1-c_アンカ__類②
  6
CONTINUOUS
 62
    4
 10
131.53077873774518
 20
139.46170000000001
 11
131.23407873774516
 21
139.46170000000001
  0
LINE
  8
_1-c_アンカ__類②
  6
CONTINUOUS
 62
    4
 10
131.53077873774518
 20
139.62835000000001
 11
131.23407873774516
 21
139.62835000000001
  0
LINE
  8
_1-c_アンカ__類②
  6
CONTINUOUS
 62
    4
 10
131.53987873774517
 20
139.79505
 11
131.23407873774516
 21
139.79505
  0
LINE
  8
_1-c_アンカ__類②
  6
CONTINUOUS
 62
    4
 10
131.53077873774518
 20
139.96170000000001
 11
131.23407873774516
 21
139.96170000000001
  0
LINE
  8
_1-c_アンカ__類②
  6
CONTINUOUS
 62
    4
 10
131.53077873774518
 20
138.1617
 11
131.53077873774518
 21
140.19505000000001
  0
LINE
  8
_1-c_アンカ__類②
  6
CONTINUOUS
 62
    4
 10
133.16077873774518
 20
138.96170000000001
 11
132.86407873774519
 21
138.96170000000001
  0
LINE
  8
_1-c_アンカ__類②
  6
CONTINUOUS
 62
    4
 10
133.16077873774518
 20
139.12835000000001
 11
132.86407873774519
 21
139.12835000000001
  0
LINE
  8
_1-c_アンカ__類②
  6
CONTINUOUS
 62
    4
 10
133.16077873774518
 20
139.29505
 11
132.86407873774519
 21
139.29505
  0
LINE
  8
_1-c_アンカ__類②
  6
CONTINUOUS
 62
    4
 10
133.16077873774518
 20
139.46170000000001
 11
132.86407873774519
 21
139.46170000000001
  0
LINE
  8
_1-c_アンカ__類②
  6
CONTINUOUS
 62
    4
 10
133.16077873774518
 20
139.62835000000001
 11
132.86407873774519
 21
139.62835000000001
  0
LINE
  8
_1-c_アンカ__類②
  6
CONTINUOUS
 62
    4
 10
133.16077873774518
 20
139.79505
 11
132.86407873774519
 21
139.79505
  0
LINE
  8
_1-c_アンカ__類②
  6
CONTINUOUS
 62
    4
 10
133.16077873774518
 20
139.96170000000001
 11
132.86407873774519
 21
139.96170000000001
  0
LINE
  8
_1-c_アンカ__類②
  6
CONTINUOUS
 62
    4
 10
132.86407873774519
 20
138.1617
 11
132.86407873774519
 21
140.19505000000001
  0
LINE
  8
_1-c_アンカ__類②
  6
CONTINUOUS
 62
    4
 10
133.16077873774518
 20
138.76170000000002
 11
132.86407873774519
 21
138.76170000000002
  0
LINE
  8
_1-c_アンカ__類②
  6
CONTINUOUS
 62
    4
 10
131.53077873774518
 20
138.76170000000002
 11
131.23407873774516
 21
138.76170000000002
  0
LINE
  8
_1-c_アンカ__類②
  6
CONTINUOUS
 62
    4
 10
133.16382873774518
 20
138.09505000000001
 11
132.86442873774519
 21
138.09505000000001
  0
LINE
  8
_1-c_アンカ__類②
  6
CONTINUOUS
 62
    4
 10
131.48077873774517
 20
136.32835
 11
131.48377873774518
 21
136.89785000000001
  0
LINE
  8
_1-c_アンカ__類②
  6
CONTINUOUS
 62
    4
 10
132.91407873774517
 20
136.32835
 11
132.91112873774517
 21
136.89390000000003
  0
LINE
  8
_1-c_アンカ__類②
  6
CONTINUOUS
 62
    4
 10
131.48372873774517
 20
136.89505000000003
 11
131.53077873774518
 21
138.1617
  0
LINE
  8
_1-c_アンカ__類②
  6
CONTINUOUS
 62
    4
 10
132.91112873774517
 20
136.89390000000003
 11
132.86407873774519
 21
138.1617
  0
LINE
  8
_1-c_アンカ__類②
  6
CONTINUOUS
 62
    4
 10
131.49117873774517
 20
137.09505000000001
 11
131.14287873774518
 21
137.09505000000001
  0
LINE
  8
_1-c_アンカ__類②
  6
CONTINUOUS
 62
    4
 10
131.49857873774519
 20
137.29505
 11
131.16052873774518
 21
137.29505
  0
LINE
  8
_1-c_アンカ__類②
  6
CONTINUOUS
 62
    4
 10
131.50602873774517
 20
137.49505000000002
 11
131.17812873774517
 21
137.49505000000002
  0
LINE
  8
_1-c_アンカ__類②
  6
CONTINUOUS
 62
    4
 10
131.51342873774519
 20
137.69505000000001
 11
131.19577873774517
 21
137.69505000000001
  0
LINE
  8
_1-c_アンカ__類②
  6
CONTINUOUS
 62
    4
 10
131.52087873774516
 20
137.89505000000003
 11
131.21342873774518
 21
137.89505000000003
  0
LINE
  8
_1-c_アンカ__類②
  6
CONTINUOUS
 62
    4
 10
131.52827873774518
 20
138.09505000000001
 11
131.23102873774516
 21
138.09505000000001
  0
LINE
  8
_1-c_アンカ__類②
  6
CONTINUOUS
 62
    4
 10
133.18142873774516
 20
137.89505000000003
 11
132.87397873774518
 21
137.89505000000003
  0
LINE
  8
_1-c_アンカ__類②
  6
CONTINUOUS
 62
    4
 10
133.19907873774517
 20
137.69505000000001
 11
132.88142873774518
 21
137.69505000000001
  0
LINE
  8
_1-c_アンカ__類②
  6
CONTINUOUS
 62
    4
 10
133.21672873774517
 20
137.49505000000002
 11
132.88882873774517
 21
137.49505000000002
  0
LINE
  8
_1-c_アンカ__類②
  6
CONTINUOUS
 62
    4
 10
133.23432873774519
 20
137.29505
 11
132.89622873774519
 21
137.29505
  0
LINE
  8
_1-c_アンカ__類②
  6
CONTINUOUS
 62
    4
 10
133.25197873774519
 20
137.09505000000001
 11
132.90367873774517
 21
137.09505000000001
  0
LINE
  8
_1-c_アンカ__類②
  6
CONTINUOUS
 62
    4
 10
131.48372873774517
 20
136.89505000000003
 11
131.12242873774517
 21
136.89505000000003
  0
LINE
  8
_1-c_アンカ__類②
  6
CONTINUOUS
 62
    4
 10
133.27242873774517
 20
136.89505000000003
 11
132.91107873774519
 21
136.89505000000003
  0
LINE
  8
_1-c_アンカ__類②
  6
CONTINUOUS
 62
    4
 10
131.74742873774517
 20
138.6617
 11
131.74742873774517
 21
138.96335000000002
  0
LINE
  8
_1-c_アンカ__類②
  6
CONTINUOUS
 62
    4
 10
131.74742873774517
 20
138.1934
 11
131.74742873774517
 21
138.49505000000002
  0
LINE
  8
_1-c_アンカ__類②
  6
CONTINUOUS
 62
    4
 10
131.64742873774517
 20
138.6617
 11
131.64742873774517
 21
138.96335000000002
  0
LINE
  8
_1-c_アンカ__類②
  6
CONTINUOUS
 62
    4
 10
131.64742873774517
 20
138.1934
 11
131.64742873774517
 21
138.49505000000002
  0
LINE
  8
_1-c_アンカ__類②
  6
CONTINUOUS
 62
    4
 10
132.24742873774517
 20
131.89505000000003
 11
132.14742873774517
 21
131.89505000000003
  0
LINE
  8
_1-c_アンカ__類②
  6
CONTINUOUS
 62
    4
 10
132.24742873774517
 20
131.89505000000003
 11
132.24742873774517
 21
131.95295000000002
  0
LINE
  8
_1-c_アンカ__類②
  6
CONTINUOUS
 62
    4
 10
132.14742873774517
 20
131.89505000000003
 11
132.14742873774517
 21
131.95295000000002
  0
LINE
  8
_1-c_アンカ__類②
  6
CONTINUOUS
 62
    4
 10
131.89992873774517
 20
135.57665000000003
 11
132.54922873774518
 21
135.99605000000003
  0
LINE
  8
_1-c_アンカ__類②
  6
CONTINUOUS
 62
    4
 10
131.74742873774517
 20
134.52675000000002
 11
131.74742873774517
 21
135.29665
  0
LINE
  8
_1-c_アンカ__類②
  6
CONTINUOUS
 62
    4
 10
131.84562873774519
 20
135.66065
 11
132.49492873774517
 21
136.08005000000003
  0
LINE
  8
_1-c_アンカ__類②
  6
CONTINUOUS
 62
    4
 10
131.64742873774517
 20
134.52675000000002
 11
131.64742873774517
 21
135.29665
  0
LINE
  8
_1-c_アンカ__類②
  6
CONTINUOUS
 62
    4
 10
132.74742873774517
 20
136.36005
 11
132.74742873774517
 21
137.13
  0
LINE
  8
_1-c_アンカ__類②
  6
CONTINUOUS
 62
    4
 10
131.89992873774517
 20
137.91340000000002
 11
132.54922873774518
 21
137.49400000000003
  0
LINE
  8
_1-c_アンカ__類②
  6
CONTINUOUS
 62
    4
 10
132.64742873774517
 20
136.36005
 11
132.64742873774517
 21
137.13
  0
LINE
  8
_1-c_アンカ__類②
  6
CONTINUOUS
 62
    4
 10
131.84562873774519
 20
137.82940000000002
 11
132.49492873774517
 21
137.41000000000003
  0
LINE
  8
_1-c_アンカ__類②
  6
CONTINUOUS
 62
    4
 10
131.84562873774519
 20
139.32735000000002
 11
132.49492873774517
 21
139.74670000000003
  0
LINE
  8
_1-c_アンカ__類②
  6
CONTINUOUS
 62
    4
 10
131.89992873774517
 20
139.24335000000002
 11
132.54922873774518
 21
139.66270000000003
  0
LINE
  8
_1-c_アンカ__類②
  6
CONTINUOUS
 62
    4
 10
132.74742873774517
 20
140.02675000000002
 11
132.74742873774517
 21
140.19505000000001
  0
LINE
  8
_1-c_アンカ__類②
  6
CONTINUOUS
 62
    4
 10
132.64742873774517
 20
140.02675000000002
 11
132.64742873774517
 21
140.19505000000001
  0
LINE
  8
_1-c_アンカ__類②
  6
CONTINUOUS
 62
    4
 10
131.74742873774517
 20
138.6617
 11
131.64742873774517
 21
138.6617
  0
LINE
  8
_1-c_アンカ__類②
  6
CONTINUOUS
 62
    4
 10
131.74742873774517
 20
138.49505000000002
 11
131.64742873774517
 21
138.49505000000002
  0
LINE
  8
_1-c_アンカ__類②
  6
CONTINUOUS
 62
    4
 10
131.89992873774517
 20
134.2467
 11
132.48252873774518
 21
133.87040000000002
  0
LINE
  8
_1-c_アンカ__類②
  6
CONTINUOUS
 62
    4
 10
132.68077873774519
 20
132.65035
 11
132.68077873774519
 21
133.50640000000001
  0
LINE
  8
_1-c_アンカ__類②
  6
CONTINUOUS
 62
    4
 10
132.39992873774517
 20
132.23295000000002
 11
132.48252873774518
 21
132.28635000000003
  0
LINE
  8
_1-c_アンカ__類②
  6
CONTINUOUS
 62
    4
 10
132.34562873774519
 20
132.31695000000002
 11
132.42827873774519
 21
132.37035000000003
  0
LINE
  8
_1-c_アンカ__類②
  6
CONTINUOUS
 62
    4
 10
131.84562873774519
 20
134.16270000000003
 11
132.42827873774519
 21
133.78640000000001
  0
LINE
  8
_1-c_アンカ__類②
  6
CONTINUOUS
 62
    4
 10
132.58077873774519
 20
132.65035
 11
132.58077873774519
 21
133.50640000000001
  0
LINE
  8
_1-c_アンカ__類②
  6
CONTINUOUS
 62
    4
 10
130.97242873774519
 20
141.07835
 11
130.97242873774519
 21
141.22835000000001
  0
LINE
  8
_1-c_アンカ__類②
  6
CONTINUOUS
 62
    4
 10
133.42242873774518
 20
141.22835000000001
 11
130.97242873774519
 21
141.22835000000001
  0
LINE
  8
_1-c_アンカ__類②
  6
CONTINUOUS
 62
    4
 10
133.42242873774518
 20
141.07835
 11
133.42242873774518
 21
141.22835000000001
  0
LINE
  8
_1-c_アンカ__類②
  6
CONTINUOUS
 62
    4
 10
133.42242873774518
 20
141.07835
 11
130.97242873774519
 21
141.07835
  0
LINE
  8
_1-c_アンカ__類②
  6
CONTINUOUS
 62
    4
 10
131.23407873774516
 20
140.79505
 11
130.97242873774519
 21
141.07835
  0
LINE
  8
_1-c_アンカ__類②
  6
CONTINUOUS
 62
    4
 10
133.16077873774518
 20
140.79505
 11
131.23407873774516
 21
140.79505
  0
LINE
  8
_1-c_アンカ__類②
  6
CONTINUOUS
 62
    4
 10
133.16077873774518
 20
140.79505
 11
133.42242873774518
 21
141.07835
  0
LINE
  8
_1-c_アンカ__類②
  6
CONTINUOUS
 62
    4
 10
132.28077873774518
 20
140.79505
 11
132.19742873774518
 21
140.62835000000001
  0
LINE
  8
_1-c_アンカ__類②
  6
CONTINUOUS
 62
    4
 10
132.19742873774518
 20
140.62835000000001
 11
132.11407873774519
 21
140.79505
  0
LINE
  8
_1-c_アンカ__類②
  6
CONTINUOUS
 62
    4
 10
131.06742873774519
 20
138.89505000000003
 11
131.06742873774519
 21
140.62835000000001
  0
LINE
  8
_1-c_アンカ__類②
  6
CONTINUOUS
 62
    4
 10
131.26742873774518
 20
140.79505
 11
131.06742873774519
 21
140.62835000000001
  0
LINE
  8
_1-c_アンカ__類②
  6
CONTINUOUS
 62
    4
 10
133.32742873774518
 20
140.62835000000001
 11
133.12742873774519
 21
140.79505
  0
LINE
  8
_1-c_アンカ__類②
  6
CONTINUOUS
 62
    4
 10
133.32742873774518
 20
138.89505000000003
 11
133.32742873774518
 21
140.62835000000001
  0
LINE
  8
_1-c_アンカ__類②
  6
CONTINUOUS
 62
    4
 10
132.11407873774519
 20
140.56170000000003
 11
132.19742873774518
 21
140.62835000000001
  0
LINE
  8
_1-c_アンカ__類②
  6
CONTINUOUS
 62
    4
 10
132.28077873774518
 20
140.56170000000003
 11
132.19742873774518
 21
140.62835000000001
  0
LINE
  8
_1-c_アンカ__類②
  6
CONTINUOUS
 62
    4
 10
132.11407873774519
 20
140.56170000000003
 11
132.11407873774519
 21
140.79505
  0
LINE
  8
_1-c_アンカ__類②
  6
CONTINUOUS
 62
    4
 10
132.28077873774518
 20
140.56170000000003
 11
132.28077873774518
 21
140.79505
  0
LINE
  8
_1-c_アンカ__類②
  6
CONTINUOUS
 62
    4
 10
131.26742873774518
 20
140.56170000000003
 11
131.26742873774518
 21
140.79505
  0
LINE
  8
_1-c_アンカ__類②
  6
CONTINUOUS
 62
    4
 10
133.12742873774519
 20
140.56170000000003
 11
133.12742873774519
 21
140.79505
  0
ARC
  8
_1-c_アンカ__類②
  6
CONTINUOUS
 62
    4
 10
132.53077873774518
 20
132.20170000000002
 40
0.1666499999999999
 50
322.43100000000004
 51
0.0000000000000572
  0
ARC
  8
_1-c_アンカ__類②
  6
CONTINUOUS
 62
    4
 10
132.68077873774519
 20
132.26270000000002
 40
0.01665
 50
0
 51
142.43100000000004
  0
ARC
  8
_1-c_アンカ__類②
  6
CONTINUOUS
 62
    4
 10
131.86407873774519
 20
132.20170000000002
 40
0.1666499999999999
 50
180.00000000000006
 51
217.56900000000005
  0
ARC
  8
_1-c_アンカ__類②
  6
CONTINUOUS
 62
    4
 10
131.71407873774518
 20
132.26270000000002
 40
0.01665
 50
37.56900000000001
 51
180.00000000000003
  0
ARC
  8
_1-c_アンカ__類②
  6
CONTINUOUS
 62
    4
 10
132.53077873774518
 20
131.43505000000002
 40
0.1666499999999999
 50
322.43100000000004
 51
0.0000000000000572
  0
ARC
  8
_1-c_アンカ__類②
  6
CONTINUOUS
 62
    4
 10
132.68077873774519
 20
131.49605000000003
 40
0.01665
 50
0
 51
142.43100000000004
  0
ARC
  8
_1-c_アンカ__類②
  6
CONTINUOUS
 62
    4
 10
131.71407873774518
 20
131.49605000000003
 40
0.01665
 50
37.56900000000001
 51
180.00000000000003
  0
ARC
  8
_1-c_アンカ__類②
  6
CONTINUOUS
 62
    4
 10
131.86407873774519
 20
131.43505000000002
 40
0.1666499999999999
 50
180.00000000000006
 51
217.56900000000005
  0
ARC
  8
_1-c_アンカ__類②
  6
CONTINUOUS
 62
    4
 10
132.58077873774519
 20
131.95295000000002
 40
0.43335
 50
122.85800000000002
 51
180.00000000000003
  0
ARC
  8
_1-c_アンカ__類②
  6
CONTINUOUS
 62
    4
 10
132.58077873774519
 20
131.95295000000002
 40
0.3333499999999999
 50
122.85800000000002
 51
180.00000000000003
  0
ARC
  8
_1-c_アンカ__類②
  6
CONTINUOUS
 62
    4
 10
132.08077873774519
 20
135.29665
 40
0.3333499999999999
 50
122.85800000000002
 51
180.00000000000003
  0
ARC
  8
_1-c_アンカ__類②
  6
CONTINUOUS
 62
    4
 10
132.08077873774519
 20
135.29665
 40
0.43335
 50
122.85800000000002
 51
180.00000000000003
  0
ARC
  8
_1-c_アンカ__類②
  6
CONTINUOUS
 62
    4
 10
132.08077873774519
 20
134.52675000000002
 40
0.3333499999999999
 50
180.00000000000006
 51
237.14200000000005
  0
ARC
  8
_1-c_アンカ__類②
  6
CONTINUOUS
 62
    4
 10
132.08077873774519
 20
134.52675000000002
 40
0.43335
 50
180.00000000000006
 51
237.14200000000005
  0
ARC
  8
_1-c_アンカ__類②
  6
CONTINUOUS
 62
    4
 10
132.31407873774518
 20
136.36005
 40
0.43335
 50
302.85800000000006
 51
0.0000000000000826
  0
ARC
  8
_1-c_アンカ__類②
  6
CONTINUOUS
 62
    4
 10
132.31407873774518
 20
137.13
 40
0.43335
 50
0
 51
57.142000000000017
  0
ARC
  8
_1-c_アンカ__類②
  6
CONTINUOUS
 62
    4
 10
132.31407873774518
 20
137.13
 40
0.3333499999999999
 50
0.0000000000001017
 51
57.14200000000011
  0
ARC
  8
_1-c_アンカ__類②
  6
CONTINUOUS
 62
    4
 10
132.31407873774518
 20
136.36005
 40
0.3333499999999999
 50
302.85800000000006
 51
0.0000000000000826
  0
ARC
  8
_1-c_アンカ__類②
  6
CONTINUOUS
 62
    4
 10
132.08077873774519
 20
138.1934
 40
0.3333499999999999
 50
180.00000000000006
 51
237.14200000000005
  0
ARC
  8
_1-c_アンカ__類②
  6
CONTINUOUS
 62
    4
 10
132.08077873774519
 20
138.1934
 40
0.43335
 50
180.00000000000006
 51
237.14200000000005
  0
ARC
  8
_1-c_アンカ__類②
  6
CONTINUOUS
 62
    4
 10
132.08077873774519
 20
138.96335000000002
 40
0.43335
 50
122.85800000000002
 51
180.00000000000003
  0
ARC
  8
_1-c_アンカ__類②
  6
CONTINUOUS
 62
    4
 10
132.31407873774518
 20
140.02675000000002
 40
0.43335
 50
302.85800000000006
 51
0.0000000000000826
  0
ARC
  8
_1-c_アンカ__類②
  6
CONTINUOUS
 62
    4
 10
132.08077873774519
 20
138.96335000000002
 40
0.3333499999999999
 50
122.85800000000002
 51
180.00000000000003
  0
ARC
  8
_1-c_アンカ__類②
  6
CONTINUOUS
 62
    4
 10
132.31407873774518
 20
140.02675000000002
 40
0.3333499999999999
 50
302.85800000000006
 51
0.0000000000000826
  0
ARC
  8
_1-c_アンカ__類②
  6
CONTINUOUS
 62
    4
 10
132.24742873774517
 20
133.50640000000001
 40
0.43335
 50
0
 51
57.142000000000017
  0
ARC
  8
_1-c_アンカ__類②
  6
CONTINUOUS
 62
    4
 10
132.24742873774517
 20
132.65035
 40
0.43335
 50
302.85800000000006
 51
0.0000000000000826
  0
ARC
  8
_1-c_アンカ__類②
  6
CONTINUOUS
 62
    4
 10
132.24742873774517
 20
132.65035
 40
0.3333499999999999
 50
302.85800000000006
 51
0.0000000000000826
  0
ARC
  8
_1-c_アンカ__類②
  6
CONTINUOUS
 62
    4
 10
132.24742873774517
 20
133.50640000000001
 40
0.3333499999999999
 50
0.0000000000001017
 51
57.14200000000011
  0
LINE
  8
_1-b_その他
  6
CONTINUOUS
 62
    5
 10
131.02737873774518
 20
141.22835000000001
 11
127.19742873774518
 21
141.22835000000001
  0
LINE
  8
_1-b_その他
  6
CONTINUOUS
 62
    5
 10
127.19742873774518
 20
141.39525
 11
127.36387873774518
 21
141.56170000000003
  0
LINE
  8
_1-b_その他
  6
CONTINUOUS
 62
    5
 10
127.32517873774518
 20
141.22835000000001
 11
127.65852873774517
 21
141.56170000000003
  0
LINE
  8
_1-b_その他
  6
CONTINUOUS
 62
    5
 10
127.61977873774518
 20
141.22835000000001
 11
127.95312873774517
 21
141.56170000000003
  0
LINE
  8
_1-b_その他
  6
CONTINUOUS
 62
    5
 10
127.91442873774517
 20
141.22835000000001
 11
128.24777873774516
 21
141.56170000000003
  0
LINE
  8
_1-b_その他
  6
CONTINUOUS
 62
    5
 10
128.20907873774519
 20
141.22835000000001
 11
128.54237873774517
 21
141.56170000000003
  0
LINE
  8
_1-b_その他
  6
CONTINUOUS
 62
    5
 10
128.50367873774516
 20
141.22835000000001
 11
128.83702873774519
 21
141.56170000000003
  0
LINE
  8
_1-b_その他
  6
CONTINUOUS
 62
    5
 10
128.79832873774518
 20
141.22835000000001
 11
129.13162873774519
 21
141.56170000000003
  0
LINE
  8
_1-b_その他
  6
CONTINUOUS
 62
    5
 10
129.09292873774518
 20
141.22835000000001
 11
129.42627873774518
 21
141.56170000000003
  0
LINE
  8
_1-b_その他
  6
CONTINUOUS
 62
    5
 10
129.38757873774517
 20
141.22835000000001
 11
129.72087873774518
 21
141.56170000000003
  0
LINE
  8
_1-b_その他
  6
CONTINUOUS
 62
    5
 10
129.68217873774518
 20
141.22835000000001
 11
130.01552873774517
 21
141.56170000000003
  0
LINE
  8
_1-b_その他
  6
CONTINUOUS
 62
    5
 10
129.97682873774517
 20
141.22835000000001
 11
130.31017873774519
 21
141.56170000000003
  0
LINE
  8
_1-b_その他
  6
CONTINUOUS
 62
    5
 10
130.27142873774517
 20
141.22835000000001
 11
130.60317873774517
 21
141.56010000000001
  0
LINE
  8
_1-b_その他
  6
CONTINUOUS
 62
    5
 10
130.56607873774519
 20
141.22835000000001
 11
130.76852873774519
 21
141.4308
  0
LINE
  8
_1-b_その他
  6
CONTINUOUS
 62
    5
 10
130.86072873774518
 20
141.22835000000001
 11
130.93382873774519
 21
141.3015
  0
LINE
  8
_1-b_その他
  6
CONTINUOUS
 62
    5
 10
133.53412873774519
 20
141.22835000000001
 11
133.46102873774518
 21
141.3015
  0
LINE
  8
_1-b_その他
  6
CONTINUOUS
 62
    5
 10
133.82877873774518
 20
141.22835000000001
 11
133.62632873774518
 21
141.4308
  0
LINE
  8
_1-b_その他
  6
CONTINUOUS
 62
    5
 10
134.12342873774517
 20
141.22835000000001
 11
133.79167873774517
 21
141.56010000000001
  0
LINE
  8
_1-b_その他
  6
CONTINUOUS
 62
    5
 10
134.41802873774517
 20
141.22835000000001
 11
134.08467873774518
 21
141.56170000000003
  0
LINE
  8
_1-b_その他
  6
CONTINUOUS
 62
    5
 10
134.71267873774516
 20
141.22835000000001
 11
134.37932873774517
 21
141.56170000000003
  0
LINE
  8
_1-b_その他
  6
CONTINUOUS
 62
    5
 10
135.00727873774517
 20
141.22835000000001
 11
134.67397873774519
 21
141.56170000000003
  0
LINE
  8
_1-b_その他
  6
CONTINUOUS
 62
    5
 10
135.30192873774519
 20
141.22835000000001
 11
134.96857873774519
 21
141.56170000000003
  0
LINE
  8
_1-b_その他
  6
CONTINUOUS
 62
    5
 10
135.59652873774519
 20
141.22835000000001
 11
135.26322873774518
 21
141.56170000000003
  0
LINE
  8
_1-b_その他
  6
CONTINUOUS
 62
    5
 10
135.89117873774518
 20
141.22835000000001
 11
135.55782873774518
 21
141.56170000000003
  0
LINE
  8
_1-b_その他
  6
CONTINUOUS
 62
    5
 10
136.18577873774518
 20
141.22835000000001
 11
135.85247873774517
 21
141.56170000000003
  0
LINE
  8
_1-b_その他
  6
CONTINUOUS
 62
    5
 10
136.48042873774517
 20
141.22835000000001
 11
136.14707873774518
 21
141.56170000000003
  0
LINE
  8
_1-b_その他
  6
CONTINUOUS
 62
    5
 10
136.77507873774519
 20
141.22835000000001
 11
136.44172873774517
 21
141.56170000000003
  0
LINE
  8
_1-b_その他
  6
CONTINUOUS
 62
    5
 10
137.06967873774516
 20
141.22835000000001
 11
136.73632873774517
 21
141.56170000000003
  0
LINE
  8
_1-b_その他
  6
CONTINUOUS
 62
    5
 10
137.19742873774518
 20
141.39525
 11
137.03097873774519
 21
141.56170000000003
  0
LINE
  8
_1-b_その他
  6
CONTINUOUS
 62
    5
 10
127.19742873774518
 20
141.22835000000001
 11
127.19742873774518
 21
141.56170000000003
  0
LINE
  8
_1-b_その他
  6
CONTINUOUS
 62
    5
 10
137.19742873774518
 20
141.22835000000001
 11
137.19742873774518
 21
141.56170000000003
  0
LINE
  8
_1-b_その他
  6
CONTINUOUS
 62
    5
 10
130.60117873774519
 20
141.56170000000003
 11
127.19742873774518
 21
141.56170000000003
  0
LINE
  8
_1-b_その他
  6
CONTINUOUS
 62
    5
 10
127.19742873774518
 20
141.22835000000001
 11
131.02737873774518
 21
141.22835000000001
  0
LINE
  8
_1-b_その他
  6
CONTINUOUS
 62
    5
 10
133.79367873774518
 20
141.56170000000003
 11
137.19742873774518
 21
141.56170000000003
  0
LINE
  8
_1-b_その他
  6
CONTINUOUS
 62
    5
 10
137.19742873774518
 20
141.22835000000001
 11
133.36747873774519
 21
141.22835000000001
  0
LINE
  8
_1-2_ハッチング
  6
CONTINUOUS
 62
    4
 10
121.8349287377452
 20
140.7234
 11
121.63807873774519
 21
140.92025000000001
  0
LINE
  8
_1-2_ハッチング
  6
CONTINUOUS
 62
    4
 10
122.12957873774519
 20
141.018
 11
121.76232873774521
 21
141.38524999999998
  0
LINE
  8
_1-2_ハッチング
  6
CONTINUOUS
 62
    4
 10
122.50847873774521
 20
141.22835000000001
 11
121.94152873774519
 21
141.79534999999998
  0
LINE
  8
_1-2_ハッチング
  6
CONTINUOUS
 62
    4
 10
123.0977287377452
 20
141.22835000000001
 11
122.16437873774518
 21
142.16174999999998
  0
LINE
  8
_1-2_ハッチング
  6
CONTINUOUS
 62
    4
 10
123.68697873774519
 20
141.22835000000001
 11
122.42692873774519
 21
142.48840000000001
  0
LINE
  8
_1-2_ハッチング
  6
CONTINUOUS
 62
    4
 10
124.2762787377452
 20
141.22835000000001
 11
124.26662873774521
 21
141.238
  0
LINE
  8
_1-2_ハッチング
  6
CONTINUOUS
 62
    4
 10
123.87382873774519
 20
141.63079999999999
 11
122.7429787377452
 21
142.76159999999999
  0
LINE
  8
_1-2_ハッチング
  6
CONTINUOUS
 62
    4
 10
124.01137873774519
 20
142.08249999999998
 11
123.09632873774521
 21
142.99754999999999
  0
LINE
  8
_1-2_ハッチング
  6
CONTINUOUS
 62
    4
 10
124.45477873774519
 20
142.22835000000001
 11
123.49147873774518
 21
143.19164999999998
  0
LINE
  8
_1-2_ハッチング
  6
CONTINUOUS
 62
    4
 10
124.54402873774521
 20
142.72835000000001
 11
123.93767873774519
 21
143.3347
  0
LINE
  8
_1-2_ハッチング
  6
CONTINUOUS
 62
    4
 10
125.1332787377452
 20
142.72835000000001
 11
124.45407873774519
 21
143.40755000000001
  0
LINE
  8
_1-2_ハッチング
  6
CONTINUOUS
 62
    4
 10
125.53992873774519
 20
142.911
 11
125.0853787377452
 21
143.3655
  0
ARC
  8
_1-2_ハッチング
  6
CONTINUOUS
 62
    4
 10
124.5965787377452
 20
140.4008
 40
3.0120499999999995
 50
71.748000000000019
 51
178.61100000000002
  0
LINE
  8
_1-5_ＦＬ鋼板__ディスク
  6
CONTINUOUS
 62
    5
 10
140.03042873774521
 20
141.22835000000001
 11
137.86372873774519
 21
141.49504999999999
  0
LINE
  8
_1-5_ＦＬ鋼板__ディスク
  6
CONTINUOUS
 62
    5
 10
137.9085287377452
 20
141.85894999999999
 11
137.86372873774519
 21
141.49504999999999
  0
LINE
  8
_1-5_ＦＬ鋼板__ディスク
  6
CONTINUOUS
 62
    5
 10
140.04572873774521
 20
141.5959
 11
137.9085287377452
 21
141.85894999999999
  0
LINE
  8
_1-5_ＦＬ鋼板__ディスク
  6
CONTINUOUS
 62
    5
 10
134.1774287377452
 20
141.86170000000001
 11
140.03042873774521
 21
141.86170000000001
  0
LINE
  8
_1-5_ＦＬ鋼板__ディスク
  6
CONTINUOUS
 62
    5
 10
124.36422873774521
 20
142.22835000000001
 11
140.03042873774521
 21
142.22835000000001
  0
LINE
  8
_1-5_ＦＬ鋼板__ディスク
  6
CONTINUOUS
 62
    5
 10
124.36422873774521
 20
141.22835000000001
 11
126.53087873774521
 21
141.49504999999999
  0
LINE
  8
_1-5_ＦＬ鋼板__ディスク
  6
CONTINUOUS
 62
    5
 10
126.4860787377452
 20
141.85894999999999
 11
126.53087873774521
 21
141.49504999999999
  0
LINE
  8
_1-5_ＦＬ鋼板__ディスク
  6
CONTINUOUS
 62
    5
 10
124.34892873774521
 20
141.5959
 11
126.4860787377452
 21
141.85894999999999
  0
LINE
  8
_1-5_ＦＬ鋼板__ディスク
  6
CONTINUOUS
 62
    5
 10
130.21757873774519
 20
141.86170000000001
 11
124.36422873774521
 21
141.86170000000001
  0
LINE
  8
_1-5_ＦＬ鋼板__ディスク
  6
CONTINUOUS
 62
    5
 10
131.02737873774521
 20
141.22835000000001
 11
130.21757873774519
 21
141.86170000000001
  0
LINE
  8
_1-5_ＦＬ鋼板__ディスク
  6
CONTINUOUS
 62
    5
 10
131.02737873774521
 20
141.65174999999999
 11
131.02737873774521
 21
141.22835000000001
  0
LINE
  8
_1-5_ＦＬ鋼板__ディスク
  6
CONTINUOUS
 62
    5
 10
131.02737873774521
 20
141.65174999999999
 11
130.31582873774519
 21
142.22835000000001
  0
LINE
  8
_1-5_ＦＬ鋼板__ディスク
  6
CONTINUOUS
 62
    5
 10
133.36747873774519
 20
141.22835000000001
 11
134.1774287377452
 21
141.86170000000001
  0
LINE
  8
_1-5_ＦＬ鋼板__ディスク
  6
CONTINUOUS
 62
    5
 10
133.36747873774519
 20
141.65174999999999
 11
133.36747873774519
 21
141.22835000000001
  0
LINE
  8
_1-5_ＦＬ鋼板__ディスク
  6
CONTINUOUS
 62
    5
 10
133.36747873774519
 20
141.65174999999999
 11
134.0791787377452
 21
142.22835000000001
  0
ARC
  8
_1-5_ＦＬ鋼板__ディスク
  6
CONTINUOUS
 62
    5
 10
140.03042873774521
 20
141.72835000000001
 40
0.5
 50
270.00000000000006
 51
90.000000000000099
  0
ARC
  8
_1-5_ＦＬ鋼板__ディスク
  6
CONTINUOUS
 62
    5
 10
140.03042873774521
 20
141.72835000000001
 40
0.13335
 50
276.59400000000005
 51
90.000000000000071
  0
ARC
  8
_1-5_ＦＬ鋼板__ディスク
  6
CONTINUOUS
 62
    5
 10
124.36422873774521
 20
141.72835000000001
 40
0.5
 50
90.000000000000028
 51
270.00000000000011
  0
ARC
  8
_1-5_ＦＬ鋼板__ディスク
  6
CONTINUOUS
 62
    5
 10
124.36422873774521
 20
141.72835000000001
 40
0.13335
 50
90.000000000000028
 51
263.40600000000006
  0
LINE
  8
_1-6_アンカ__類
  6
CONTINUOUS
 62
    4
 10
131.48647873774519
 20
141.19265000000001
 11
130.69742873774518
 21
141.98169999999999
  0
LINE
  8
_1-6_アンカ__類
  6
CONTINUOUS
 62
    4
 10
132.90837873774518
 20
141.19265000000001
 11
133.69742873774518
 21
141.98169999999999
  0
LINE
  8
_1-6_アンカ__類
  6
CONTINUOUS
 62
    4
 10
132.81077873774518
 20
141.09505000000001
 11
131.58407873774519
 21
141.09505000000001
  0
LINE
  8
_1-6_アンカ__類
  6
CONTINUOUS
 62
    4
 10
130.69742873774518
 20
142.22835000000001
 11
130.69742873774518
 21
141.98169999999999
  0
LINE
  8
_1-6_アンカ__類
  6
CONTINUOUS
 62
    4
 10
133.69742873774518
 20
142.22835000000001
 11
133.69742873774518
 21
141.98169999999999
  0
LINE
  8
_1-6_アンカ__類
  6
CONTINUOUS
 62
    4
 10
133.69742873774518
 20
141.98169999999999
 11
130.69742873774518
 21
141.98169999999999
  0
LINE
  8
_1-6_アンカ__類
  6
CONTINUOUS
 62
    4
 10
133.69742873774518
 20
142.22835000000001
 11
130.69742873774518
 21
142.22835000000001
  0
LINE
  8
_1-6_アンカ__類
  6
CONTINUOUS
 62
    4
 10
132.81077873774518
 20
140.5617
 11
131.58407873774519
 21
140.5617
  0
LINE
  8
_1-6_アンカ__類
  6
CONTINUOUS
 62
    4
 10
132.62262873774517
 20
129.827
 11
131.7321287377452
 21
129.52315000000002
  0
LINE
  8
_1-6_アンカ__類
  6
CONTINUOUS
 62
    4
 10
131.7321287377452
 20
129.52315000000002
 11
131.9204287377452
 21
129.40200000000002
  0
LINE
  8
_1-6_アンカ__類
  6
CONTINUOUS
 62
    4
 10
132.74592873774517
 20
129.7174
 11
131.7321287377452
 21
129.52315000000002
  0
LINE
  8
_1-6_アンカ__類
  6
CONTINUOUS
 62
    4
 10
131.9204287377452
 20
129.40200000000002
 11
132.74592873774517
 21
129.7174
  0
LINE
  8
_1-6_アンカ__類
  6
CONTINUOUS
 62
    4
 10
132.74592873774517
 20
129.7174
 11
132.62262873774517
 21
129.827
  0
LINE
  8
_1-6_アンカ__類
  6
CONTINUOUS
 62
    4
 10
132.72542873774518
 20
130.46190000000001
 11
131.50197873774519
 21
130.0712
  0
LINE
  8
_1-6_アンカ__類
  6
CONTINUOUS
 62
    4
 10
131.74252873774518
 20
129.96250000000001
 11
132.96907873774518
 21
130.35230000000001
  0
LINE
  8
_1-6_アンカ__類
  6
CONTINUOUS
 62
    4
 10
132.96907873774518
 20
130.35230000000001
 11
131.50197873774519
 21
130.0712
  0
LINE
  8
_1-6_アンカ__類
  6
CONTINUOUS
 62
    4
 10
131.50197873774519
 20
130.0712
 11
131.74252873774518
 21
129.96250000000001
  0
LINE
  8
_1-6_アンカ__類
  6
CONTINUOUS
 62
    4
 10
132.96907873774518
 20
130.35230000000001
 11
132.72542873774518
 21
130.46190000000001
  0
LINE
  8
_1-6_アンカ__類
  6
CONTINUOUS
 62
    4
 10
131.42242873774518
 20
130.68835000000001
 11
131.6648787377452
 21
130.5788
  0
LINE
  8
_1-6_アンカ__類
  6
CONTINUOUS
 62
    4
 10
131.6648787377452
 20
130.5788
 11
132.97372873774518
 21
130.98565000000002
  0
LINE
  8
_1-6_アンカ__類
  6
CONTINUOUS
 62
    4
 10
131.66472873774518
 20
131.21205
 11
131.66472873774518
 21
130.76375000000002
  0
LINE
  8
_1-6_アンカ__類
  6
CONTINUOUS
 62
    4
 10
132.73012873774519
 20
130.90989999999999
 11
132.73012873774519
 21
130.58610000000002
  0
LINE
  8
_1-6_アンカ__類
  6
CONTINUOUS
 62
    4
 10
132.73012873774519
 20
131.54325
 11
132.73012873774519
 21
131.09520000000001
  0
LINE
  8
_1-6_アンカ__類
  6
CONTINUOUS
 62
    4
 10
132.97372873774518
 20
130.98565000000002
 11
131.42242873774518
 21
130.68835000000001
  0
LINE
  8
_1-6_アンカ__類
  6
CONTINUOUS
 62
    4
 10
132.73012873774519
 20
131.09520000000001
 11
131.42242873774518
 21
130.68835000000001
  0
LINE
  8
_1-6_アンカ__類
  6
CONTINUOUS
 62
    4
 10
132.97372873774518
 20
130.98565000000002
 11
132.73012873774519
 21
131.09520000000001
  0
LINE
  8
_1-6_アンカ__類
  6
CONTINUOUS
 62
    4
 10
131.66472873774518
 20
131.84540000000001
 11
131.66472873774518
 21
131.39705000000001
  0
LINE
  8
_1-6_アンカ__類
  6
CONTINUOUS
 62
    4
 10
132.73012873774519
 20
132.17655000000002
 11
132.73012873774519
 21
131.72855000000001
  0
LINE
  8
_1-6_アンカ__類
  6
CONTINUOUS
 62
    4
 10
132.97372873774518
 20
131.61895000000001
 11
131.42242873774518
 21
131.32170000000002
  0
LINE
  8
_1-6_アンカ__類
  6
CONTINUOUS
 62
    4
 10
132.73012873774519
 20
131.72855000000001
 11
131.42242873774518
 21
131.32170000000002
  0
LINE
  8
_1-6_アンカ__類
  6
CONTINUOUS
 62
    4
 10
132.97372873774518
 20
131.61895000000001
 11
132.73012873774519
 21
131.72855000000001
  0
LINE
  8
_1-6_アンカ__類
  6
CONTINUOUS
 62
    4
 10
131.42242873774518
 20
131.32170000000002
 11
131.66472873774518
 21
131.21205
  0
LINE
  8
_1-6_アンカ__類
  6
CONTINUOUS
 62
    4
 10
131.66472873774518
 20
131.21205
 11
132.97372873774518
 21
131.61895000000001
  0
LINE
  8
_1-6_アンカ__類
  6
CONTINUOUS
 62
    4
 10
131.66472873774518
 20
132.4787
 11
131.66472873774518
 21
132.03040000000001
  0
LINE
  8
_1-6_アンカ__類
  6
CONTINUOUS
 62
    4
 10
132.73012873774519
 20
132.80985000000001
 11
132.73012873774519
 21
132.36185
  0
LINE
  8
_1-6_アンカ__類
  6
CONTINUOUS
 62
    4
 10
131.66472873774518
 20
133.113
 11
131.66472873774518
 21
132.66370000000001
  0
LINE
  8
_1-6_アンカ__類
  6
CONTINUOUS
 62
    4
 10
132.73012873774519
 20
133.44320000000002
 11
132.73012873774519
 21
132.99515000000002
  0
LINE
  8
_1-6_アンカ__類
  6
CONTINUOUS
 62
    4
 10
131.66472873774518
 20
133.74535
 11
131.66472873774518
 21
133.29705000000001
  0
LINE
  8
_1-6_アンカ__類
  6
CONTINUOUS
 62
    4
 10
132.73012873774519
 20
134.07650000000001
 11
132.73012873774519
 21
133.6285
  0
LINE
  8
_1-6_アンカ__類
  6
CONTINUOUS
 62
    4
 10
131.66472873774518
 20
134.37864999999999
 11
131.66472873774518
 21
133.93035
  0
LINE
  8
_1-6_アンカ__類
  6
CONTINUOUS
 62
    4
 10
132.73012873774519
 20
134.7098
 11
132.73012873774519
 21
134.26179999999999
  0
LINE
  8
_1-6_アンカ__類
  6
CONTINUOUS
 62
    4
 10
131.66472873774518
 20
135.01195000000001
 11
131.66472873774518
 21
134.56365
  0
LINE
  8
_1-6_アンカ__類
  6
CONTINUOUS
 62
    4
 10
132.73012873774519
 20
135.34315000000001
 11
132.73012873774519
 21
134.89515
  0
LINE
  8
_1-6_アンカ__類
  6
CONTINUOUS
 62
    4
 10
131.66472873774518
 20
135.6463
 11
131.66472873774518
 21
135.197
  0
LINE
  8
_1-6_アンカ__類
  6
CONTINUOUS
 62
    4
 10
132.73012873774519
 20
135.97745
 11
132.73012873774519
 21
135.52845000000002
  0
LINE
  8
_1-6_アンカ__類
  6
CONTINUOUS
 62
    4
 10
131.66472873774518
 20
136.28059999999999
 11
131.66472873774518
 21
135.8313
  0
LINE
  8
_1-6_アンカ__類
  6
CONTINUOUS
 62
    4
 10
132.73012873774519
 20
136.61175
 11
132.73012873774519
 21
136.16275000000002
  0
LINE
  8
_1-6_アンカ__類
  6
CONTINUOUS
 62
    4
 10
131.66472873774518
 20
136.9143
 11
131.66472873774518
 21
136.46559999999999
  0
LINE
  8
_1-6_アンカ__類
  6
CONTINUOUS
 62
    4
 10
132.73012873774519
 20
137.24510000000001
 11
132.73012873774519
 21
136.79705000000001
  0
LINE
  8
_1-6_アンカ__類
  6
CONTINUOUS
 62
    4
 10
132.73012873774519
 20
137.8784
 11
132.73012873774519
 21
137.4308
  0
LINE
  8
_1-6_アンカ__類
  6
CONTINUOUS
 62
    4
 10
131.66472873774518
 20
137.54725000000002
 11
131.66472873774518
 21
137.09890000000001
  0
LINE
  8
_1-6_アンカ__類
  6
CONTINUOUS
 62
    4
 10
131.66472873774518
 20
138.18155000000002
 11
131.66472873774518
 21
137.73225000000002
  0
LINE
  8
_1-6_アンカ__類
  6
CONTINUOUS
 62
    4
 10
132.73012873774519
 20
138.5127
 11
132.73012873774519
 21
138.06370000000001
  0
LINE
  8
_1-6_アンカ__類
  6
CONTINUOUS
 62
    4
 10
132.73012873774519
 20
139.14605
 11
132.73012873774519
 21
138.69800000000001
  0
LINE
  8
_1-6_アンカ__類
  6
CONTINUOUS
 62
    4
 10
131.66472873774518
 20
138.81585000000001
 11
131.66472873774518
 21
138.36655000000002
  0
LINE
  8
_1-6_アンカ__類
  6
CONTINUOUS
 62
    4
 10
131.66472873774518
 20
139.44820000000001
 11
131.66472873774518
 21
138.99985000000001
  0
LINE
  8
_1-6_アンカ__類
  6
CONTINUOUS
 62
    4
 10
132.73012873774519
 20
139.77935000000002
 11
132.73012873774519
 21
139.33175
  0
LINE
  8
_1-6_アンカ__類
  6
CONTINUOUS
 62
    4
 10
132.73012873774519
 20
140.41265000000001
 11
132.73012873774519
 21
139.96465000000001
  0
LINE
  8
_1-6_アンカ__類
  6
CONTINUOUS
 62
    4
 10
131.66472873774518
 20
140.08150000000001
 11
131.66472873774518
 21
139.63320000000002
  0
LINE
  8
_1-6_アンカ__類
  6
CONTINUOUS
 62
    4
 10
131.66472873774518
 20
140.5617
 11
131.66472873774518
 21
140.26650000000001
  0
LINE
  8
_1-6_アンカ__類
  6
CONTINUOUS
 62
    4
 10
132.61352873774518
 20
140.5617
 11
131.42242873774518
 21
140.19110000000001
  0
LINE
  8
_1-6_アンカ__類
  6
CONTINUOUS
 62
    4
 10
132.97372873774518
 20
140.48840000000001
 11
132.81077873774518
 21
140.5617
  0
LINE
  8
_1-6_アンカ__類
  6
CONTINUOUS
 62
    4
 10
132.97372873774518
 20
140.48840000000001
 11
131.42242873774518
 21
140.19110000000001
  0
LINE
  8
_1-6_アンカ__類
  6
CONTINUOUS
 62
    4
 10
131.42242873774518
 20
140.19110000000001
 11
131.66472873774518
 21
140.08150000000001
  0
LINE
  8
_1-6_アンカ__類
  6
CONTINUOUS
 62
    4
 10
131.66472873774518
 20
140.08150000000001
 11
132.97372873774518
 21
140.48840000000001
  0
LINE
  8
_1-6_アンカ__類
  6
CONTINUOUS
 62
    4
 10
132.97372873774518
 20
139.85505000000001
 11
131.42242873774518
 21
139.55780000000001
  0
LINE
  8
_1-6_アンカ__類
  6
CONTINUOUS
 62
    4
 10
132.73012873774519
 20
139.96465000000001
 11
131.42242873774518
 21
139.55780000000001
  0
LINE
  8
_1-6_アンカ__類
  6
CONTINUOUS
 62
    4
 10
132.97372873774518
 20
139.85505000000001
 11
132.73012873774519
 21
139.96465000000001
  0
LINE
  8
_1-6_アンカ__類
  6
CONTINUOUS
 62
    4
 10
131.42242873774518
 20
139.55780000000001
 11
131.66472873774518
 21
139.44820000000001
  0
LINE
  8
_1-6_アンカ__類
  6
CONTINUOUS
 62
    4
 10
131.66472873774518
 20
139.44820000000001
 11
132.97372873774518
 21
139.85505000000001
  0
LINE
  8
_1-6_アンカ__類
  6
CONTINUOUS
 62
    4
 10
132.97502873774519
 20
139.22215
 11
131.42372873774519
 21
138.92490000000001
  0
LINE
  8
_1-6_アンカ__類
  6
CONTINUOUS
 62
    4
 10
132.73142873774518
 20
139.33175
 11
131.42372873774519
 21
138.92490000000001
  0
LINE
  8
_1-6_アンカ__類
  6
CONTINUOUS
 62
    4
 10
132.97502873774519
 20
139.22215
 11
132.73142873774518
 21
139.33175
  0
LINE
  8
_1-6_アンカ__類
  6
CONTINUOUS
 62
    4
 10
131.42372873774519
 20
138.92490000000001
 11
131.66602873774519
 21
138.81524999999999
  0
LINE
  8
_1-6_アンカ__類
  6
CONTINUOUS
 62
    4
 10
131.66602873774519
 20
138.81524999999999
 11
132.97502873774519
 21
139.22215
  0
LINE
  8
_1-6_アンカ__類
  6
CONTINUOUS
 62
    4
 10
132.97372873774518
 20
138.58845000000002
 11
131.42242873774518
 21
138.29115000000002
  0
LINE
  8
_1-6_アンカ__類
  6
CONTINUOUS
 62
    4
 10
132.73012873774519
 20
138.69800000000001
 11
131.42242873774518
 21
138.29115000000002
  0
LINE
  8
_1-6_アンカ__類
  6
CONTINUOUS
 62
    4
 10
132.97372873774518
 20
138.58845000000002
 11
132.73012873774519
 21
138.69800000000001
  0
LINE
  8
_1-6_アンカ__類
  6
CONTINUOUS
 62
    4
 10
131.42242873774518
 20
138.29115000000002
 11
131.66472873774518
 21
138.18155000000002
  0
LINE
  8
_1-6_アンカ__類
  6
CONTINUOUS
 62
    4
 10
131.66472873774518
 20
138.18155000000002
 11
132.97372873774518
 21
138.58845000000002
  0
LINE
  8
_1-6_アンカ__類
  6
CONTINUOUS
 62
    4
 10
132.97372873774518
 20
137.95410000000001
 11
131.42242873774518
 21
137.65685000000002
  0
LINE
  8
_1-6_アンカ__類
  6
CONTINUOUS
 62
    4
 10
132.73012873774519
 20
138.06370000000001
 11
131.42242873774518
 21
137.65685000000002
  0
LINE
  8
_1-6_アンカ__類
  6
CONTINUOUS
 62
    4
 10
132.97372873774518
 20
137.95410000000001
 11
132.73012873774519
 21
138.06370000000001
  0
LINE
  8
_1-6_アンカ__類
  6
CONTINUOUS
 62
    4
 10
131.42242873774518
 20
137.65685000000002
 11
131.66472873774518
 21
137.54725000000002
  0
LINE
  8
_1-6_アンカ__類
  6
CONTINUOUS
 62
    4
 10
131.66472873774518
 20
137.54725000000002
 11
132.97372873774518
 21
137.95410000000001
  0
LINE
  8
_1-6_アンカ__類
  6
CONTINUOUS
 62
    4
 10
132.97502873774519
 20
137.3212
 11
131.42372873774519
 21
137.02395000000001
  0
LINE
  8
_1-6_アンカ__類
  6
CONTINUOUS
 62
    4
 10
132.73142873774518
 20
137.4308
 11
131.42372873774519
 21
137.02395000000001
  0
LINE
  8
_1-6_アンカ__類
  6
CONTINUOUS
 62
    4
 10
132.97502873774519
 20
137.3212
 11
132.73142873774518
 21
137.4308
  0
LINE
  8
_1-6_アンカ__類
  6
CONTINUOUS
 62
    4
 10
131.42372873774519
 20
137.02395000000001
 11
131.66602873774519
 21
136.9143
  0
LINE
  8
_1-6_アンカ__類
  6
CONTINUOUS
 62
    4
 10
131.66602873774519
 20
136.9143
 11
132.97502873774519
 21
137.3212
  0
LINE
  8
_1-6_アンカ__類
  6
CONTINUOUS
 62
    4
 10
132.97372873774518
 20
136.6875
 11
131.42242873774518
 21
136.39019999999999
  0
LINE
  8
_1-6_アンカ__類
  6
CONTINUOUS
 62
    4
 10
132.73012873774519
 20
136.79705000000001
 11
131.42242873774518
 21
136.39019999999999
  0
LINE
  8
_1-6_アンカ__類
  6
CONTINUOUS
 62
    4
 10
132.97372873774518
 20
136.6875
 11
132.73012873774519
 21
136.79705000000001
  0
LINE
  8
_1-6_アンカ__類
  6
CONTINUOUS
 62
    4
 10
131.42242873774518
 20
136.39019999999999
 11
131.66472873774518
 21
136.28059999999999
  0
LINE
  8
_1-6_アンカ__類
  6
CONTINUOUS
 62
    4
 10
131.66472873774518
 20
136.28059999999999
 11
132.97372873774518
 21
136.6875
  0
LINE
  8
_1-6_アンカ__類
  6
CONTINUOUS
 62
    4
 10
132.97372873774518
 20
136.0532
 11
131.42242873774518
 21
135.7559
  0
LINE
  8
_1-6_アンカ__類
  6
CONTINUOUS
 62
    4
 10
132.73012873774519
 20
136.16275000000002
 11
131.42242873774518
 21
135.7559
  0
LINE
  8
_1-6_アンカ__類
  6
CONTINUOUS
 62
    4
 10
132.97372873774518
 20
136.0532
 11
132.73012873774519
 21
136.16275000000002
  0
LINE
  8
_1-6_アンカ__類
  6
CONTINUOUS
 62
    4
 10
131.42242873774518
 20
135.7559
 11
131.66472873774518
 21
135.6463
  0
LINE
  8
_1-6_アンカ__類
  6
CONTINUOUS
 62
    4
 10
131.66472873774518
 20
135.6463
 11
132.97372873774518
 21
136.0532
  0
LINE
  8
_1-6_アンカ__類
  6
CONTINUOUS
 62
    4
 10
132.97372873774518
 20
135.41885000000002
 11
131.42242873774518
 21
135.1216
  0
LINE
  8
_1-6_アンカ__類
  6
CONTINUOUS
 62
    4
 10
132.73012873774519
 20
135.52845000000002
 11
131.42242873774518
 21
135.1216
  0
LINE
  8
_1-6_アンカ__類
  6
CONTINUOUS
 62
    4
 10
132.97372873774518
 20
135.41885000000002
 11
132.73012873774519
 21
135.52845000000002
  0
LINE
  8
_1-6_アンカ__類
  6
CONTINUOUS
 62
    4
 10
131.42242873774518
 20
135.1216
 11
131.66472873774518
 21
135.01195000000001
  0
LINE
  8
_1-6_アンカ__類
  6
CONTINUOUS
 62
    4
 10
131.66472873774518
 20
135.01195000000001
 11
132.97372873774518
 21
135.41885000000002
  0
LINE
  8
_1-6_アンカ__類
  6
CONTINUOUS
 62
    4
 10
132.97372873774518
 20
134.78555
 11
131.42242873774518
 21
134.48830000000001
  0
LINE
  8
_1-6_アンカ__類
  6
CONTINUOUS
 62
    4
 10
132.73012873774519
 20
134.89515
 11
131.42242873774518
 21
134.48830000000001
  0
LINE
  8
_1-6_アンカ__類
  6
CONTINUOUS
 62
    4
 10
132.97372873774518
 20
134.78555
 11
132.73012873774519
 21
134.89515
  0
LINE
  8
_1-6_アンカ__類
  6
CONTINUOUS
 62
    4
 10
131.42242873774518
 20
134.48830000000001
 11
131.66472873774518
 21
134.37864999999999
  0
LINE
  8
_1-6_アンカ__類
  6
CONTINUOUS
 62
    4
 10
131.66472873774518
 20
134.37864999999999
 11
132.97372873774518
 21
134.78555
  0
LINE
  8
_1-6_アンカ__類
  6
CONTINUOUS
 62
    4
 10
132.97372873774518
 20
134.15225000000001
 11
131.42242873774518
 21
133.85495
  0
LINE
  8
_1-6_アンカ__類
  6
CONTINUOUS
 62
    4
 10
132.73012873774519
 20
134.26179999999999
 11
131.42242873774518
 21
133.85495
  0
LINE
  8
_1-6_アンカ__類
  6
CONTINUOUS
 62
    4
 10
132.97372873774518
 20
134.15225000000001
 11
132.73012873774519
 21
134.26179999999999
  0
LINE
  8
_1-6_アンカ__類
  6
CONTINUOUS
 62
    4
 10
131.42242873774518
 20
133.85495
 11
131.66472873774518
 21
133.74535
  0
LINE
  8
_1-6_アンカ__類
  6
CONTINUOUS
 62
    4
 10
131.66472873774518
 20
133.74535
 11
132.97372873774518
 21
134.15225000000001
  0
LINE
  8
_1-6_アンカ__類
  6
CONTINUOUS
 62
    4
 10
132.97502873774519
 20
133.51930000000002
 11
131.42372873774519
 21
133.22205000000002
  0
LINE
  8
_1-6_アンカ__類
  6
CONTINUOUS
 62
    4
 10
132.73142873774518
 20
133.62890000000002
 11
131.42372873774519
 21
133.22205000000002
  0
LINE
  8
_1-6_アンカ__類
  6
CONTINUOUS
 62
    4
 10
132.97502873774519
 20
133.51930000000002
 11
132.73142873774518
 21
133.62890000000002
  0
LINE
  8
_1-6_アンカ__類
  6
CONTINUOUS
 62
    4
 10
131.42372873774519
 20
133.22205000000002
 11
131.66602873774519
 21
133.11245000000002
  0
LINE
  8
_1-6_アンカ__類
  6
CONTINUOUS
 62
    4
 10
131.66602873774519
 20
133.11245000000002
 11
132.97502873774519
 21
133.51930000000002
  0
LINE
  8
_1-6_アンカ__類
  6
CONTINUOUS
 62
    4
 10
132.97372873774518
 20
132.88560000000001
 11
131.42242873774518
 21
132.5883
  0
LINE
  8
_1-6_アンカ__類
  6
CONTINUOUS
 62
    4
 10
132.73012873774519
 20
132.99515000000002
 11
131.42242873774518
 21
132.5883
  0
LINE
  8
_1-6_アンカ__類
  6
CONTINUOUS
 62
    4
 10
132.97372873774518
 20
132.88560000000001
 11
132.73012873774519
 21
132.99515000000002
  0
LINE
  8
_1-6_アンカ__類
  6
CONTINUOUS
 62
    4
 10
131.42242873774518
 20
132.5883
 11
131.66472873774518
 21
132.4787
  0
LINE
  8
_1-6_アンカ__類
  6
CONTINUOUS
 62
    4
 10
131.66472873774518
 20
132.4787
 11
132.97372873774518
 21
132.88560000000001
  0
LINE
  8
_1-6_アンカ__類
  6
CONTINUOUS
 62
    4
 10
132.97372873774518
 20
132.25229999999999
 11
131.42242873774518
 21
131.95500000000001
  0
LINE
  8
_1-6_アンカ__類
  6
CONTINUOUS
 62
    4
 10
132.73012873774519
 20
132.36185
 11
131.42242873774518
 21
131.95500000000001
  0
LINE
  8
_1-6_アンカ__類
  6
CONTINUOUS
 62
    4
 10
132.97372873774518
 20
132.25229999999999
 11
132.73012873774519
 21
132.36185
  0
LINE
  8
_1-6_アンカ__類
  6
CONTINUOUS
 62
    4
 10
131.42242873774518
 20
131.95500000000001
 11
131.66472873774518
 21
131.84540000000001
  0
LINE
  8
_1-6_アンカ__類
  6
CONTINUOUS
 62
    4
 10
131.66472873774518
 20
131.84540000000001
 11
132.97372873774518
 21
132.25229999999999
  0
LINE
  8
_1-6_アンカ__類
  6
CONTINUOUS
 62
    4
 10
131.58407873774519
 20
140.95695000000001
 11
131.58407873774519
 21
140.5617
  0
LINE
  8
_1-6_アンカ__類
  6
CONTINUOUS
 62
    4
 10
132.81077873774518
 20
140.95695000000001
 11
132.81077873774518
 21
140.5617
  0
ARC
  8
_1-6_アンカ__類
  6
CONTINUOUS
 62
    4
 10
134.79182873774519
 20
130.64170000000001
 40
3.1275499999999998
 50
181.15300000000005
 51
189.30200000000002
  0
ARC
  8
_1-6_アンカ__類
  6
CONTINUOUS
 62
    4
 10
129.60302873774518
 20
130.64170000000001
 40
3.1275499999999998
 50
356.70400000000006
 51
358.98100000000011
  0
ARC
  8
_1-6_アンカ__類
  6
CONTINUOUS
 62
    4
 10
134.79182873774519
 20
130.64170000000001
 40
3.1275499999999998
 50
192.55800000000005
 51
200.13300000000004
  0
ARC
  8
_1-6_アンカ__類
  6
CONTINUOUS
 62
    4
 10
134.79182873774519
 20
130.64170000000001
 40
3.1275499999999998
 50
203.35200000000003
 51
213.95100000000005
  0
ARC
  8
_1-6_アンカ__類
  6
CONTINUOUS
 62
    4
 10
129.60302873774518
 20
130.64170000000001
 40
3.1275499999999998
 50
326.04900000000004
 51
341.51100000000008
  0
ARC
  8
_1-6_アンカ__類
  6
CONTINUOUS
 62
    4
 10
129.60302873774518
 20
130.64170000000001
 40
3.1275499999999998
 50
344.90100000000012
 51
353.16500000000013
  0
ARC
  8
_1-6_アンカ__類
  6
CONTINUOUS
 62
    4
 10
131.25077873774518
 20
140.95695000000001
 40
0.3333499999999999
 50
0.0000000000001017
 51
45.000000000000114
  0
ARC
  8
_1-6_アンカ__類
  6
CONTINUOUS
 62
    4
 10
133.14407873774519
 20
140.95695000000001
 40
0.3333499999999999
 50
135.00000000000003
 51
180.00000000000006
  0
LINE
  8
_1-7_設備
  6
CONTINUOUS
 62
    3
 10
164.1898787377452
 20
128.92834999999997
 11
162.85652873774521
 21
128.92834999999997
  0
LINE
  8
_1-7_設備
  6
CONTINUOUS
 62
    3
 10
115.35652873774521
 20
128.92834999999997
 11
116.6898787377452
 21
128.92834999999997
  0
LINE
  8
_1-7_設備
  6
CONTINUOUS
 62
    3
 10
115.42287873774521
 20
154.98845
 11
123.02327873774519
 21
154.22839999999997
  0
LINE
  8
_1-7_設備
  6
CONTINUOUS
 62
    3
 10
123.02327873774519
 20
154.22839999999997
 11
123.68992873774519
 21
150.96234999999999
  0
LINE
  8
_1-7_設備
  6
CONTINUOUS
 62
    3
 10
164.2562287377452
 20
146.90569999999997
 11
123.68992873774519
 21
150.96234999999999
  0
LINE
  8
_1-7_設備
  6
CONTINUOUS
 62
    3
 10
163.5895787377452
 20
146.30239999999998
 11
123.13492873774521
 21
150.34784999999999
  0
LINE
  8
_1-7_設備
  6
CONTINUOUS
 62
    3
 10
122.5664787377452
 20
153.13274999999999
 11
123.13492873774521
 21
150.34784999999999
  0
LINE
  8
_1-7_設備
  6
CONTINUOUS
 62
    3
 10
121.97957873774521
 20
153.66274999999996
 11
116.0895787377452
 21
154.25174999999996
  0
LINE
  8
_1-7_設備
  6
CONTINUOUS
 62
    3
 10
114.68992873774519
 20
128.56169999999997
 11
114.68992873774519
 21
154.32499999999999
  0
LINE
  8
_1-7_設備
  6
CONTINUOUS
 62
    3
 10
164.85652873774521
 20
128.56169999999997
 11
164.85652873774521
 21
146.24239999999998
  0
LINE
  8
_1-7_設備
  6
CONTINUOUS
 62
    3
 10
162.85652873774521
 20
128.56169999999997
 11
162.85652873774521
 21
128.92834999999997
  0
LINE
  8
_1-7_設備
  6
CONTINUOUS
 62
    3
 10
163.02317873774521
 20
128.39499999999998
 11
164.6898787377452
 21
128.39499999999998
  0
LINE
  8
_1-7_設備
  6
CONTINUOUS
 62
    3
 10
116.5232287377452
 20
128.39499999999998
 11
114.85652873774521
 21
128.39499999999998
  0
LINE
  8
_1-7_設備
  6
CONTINUOUS
 62
    3
 10
116.6898787377452
 20
128.56169999999997
 11
116.6898787377452
 21
128.92834999999997
  0
LINE
  8
_1-7_設備
  6
CONTINUOUS
 62
    3
 10
164.1898787377452
 20
145.63909999999998
 11
164.1898787377452
 21
128.92834999999997
  0
LINE
  8
_1-7_設備
  6
CONTINUOUS
 62
    3
 10
115.35652873774521
 20
153.58844999999997
 11
115.35652873774521
 21
128.92834999999997
  0
LINE
  8
_1-7_設備
  6
CONTINUOUS
 62
    3
 10
126.43992873774519
 20
149.39459999999997
 11
118.43777873774519
 21
150.34259999999998
  0
LINE
  8
_1-7_設備
  6
CONTINUOUS
 62
    3
 10
118.43777873774519
 20
150.34259999999998
 11
118.38787873774521
 21
150.01284999999999
  0
LINE
  8
_1-7_設備
  6
CONTINUOUS
 62
    3
 10
118.05657873774521
 20
150.0521
 11
118.38787873774521
 21
150.01284999999999
  0
LINE
  8
_1-7_設備
  6
CONTINUOUS
 62
    3
 10
118.05657873774521
 20
150.0521
 11
116.9611787377452
 21
142.82724999999999
  0
LINE
  8
_1-7_設備
  6
CONTINUOUS
 62
    3
 10
118.81527873774522
 20
147.99554999999998
 11
115.7732287377452
 21
128.92834999999997
  0
LINE
  8
_1-7_設備
  6
CONTINUOUS
 62
    3
 10
120.1046287377452
 20
148.97029999999998
 11
124.8712787377452
 21
148.40559999999999
  0
LINE
  8
_1-7_設備
  6
CONTINUOUS
 62
    3
 10
125.6065787377452
 20
147.57804999999996
 11
125.6065787377452
 21
143.72834999999998
  0
LINE
  8
_1-7_設備
  6
CONTINUOUS
 62
    3
 10
125.6065787377452
 20
143.72834999999998
 11
125.53992873774521
 21
143.6617
  0
LINE
  8
_1-7_設備
  6
CONTINUOUS
 62
    3
 10
125.53992873774521
 20
143.6617
 11
125.53992873774521
 21
142.72834999999998
  0
LINE
  8
_1-7_設備
  6
CONTINUOUS
 62
    3
 10
125.53992873774521
 20
142.72834999999998
 11
155.97322873774519
 21
142.72834999999998
  0
LINE
  8
_1-7_設備
  6
CONTINUOUS
 62
    3
 10
155.97322873774519
 20
143.49504999999999
 11
155.97322873774519
 21
142.72834999999998
  0
LINE
  8
_1-7_設備
  6
CONTINUOUS
 62
    3
 10
155.97322873774519
 20
143.49504999999999
 11
155.90657873774521
 21
143.56169999999997
  0
LINE
  8
_1-7_設備
  6
CONTINUOUS
 62
    3
 10
155.90657873774521
 20
144.57149999999999
 11
155.90657873774521
 21
143.56169999999997
  0
LINE
  8
_1-7_設備
  6
CONTINUOUS
 62
    3
 10
156.82222873774521
 20
145.40074999999999
 11
160.3368787377452
 21
145.05194999999998
  0
LINE
  8
_1-7_設備
  6
CONTINUOUS
 62
    3
 10
161.37267873774519
 20
144.08144999999996
 11
163.7732287377452
 21
129.57354999999998
  0
LINE
  8
_1-7_設備
  6
CONTINUOUS
 62
    3
 10
162.61077873774519
 20
142.82714999999996
 11
162.16037873774519
 21
145.67489999999998
  0
LINE
  8
_1-7_設備
  6
CONTINUOUS
 62
    3
 10
162.16037873774519
 20
145.67489999999998
 11
161.81752873774519
 21
145.70894999999999
  0
LINE
  8
_1-7_設備
  6
CONTINUOUS
 62
    3
 10
161.81752873774519
 20
145.70894999999999
 11
161.7637287377452
 21
146.04924999999997
  0
LINE
  8
_1-7_設備
  6
CONTINUOUS
 62
    3
 10
161.7637287377452
 20
146.04924999999997
 11
154.93992873774519
 21
146.72644999999997
  0
LINE
  8
_1-7_設備
  6
CONTINUOUS
 62
    3
 10
154.77327873774519
 20
146.06169999999997
 11
154.93992873774519
 21
146.72644999999997
  0
LINE
  8
_1-7_設備
  6
CONTINUOUS
 62
    3
 10
154.77327873774519
 20
144.65589999999997
 11
154.77327873774519
 21
146.06169999999997
  0
LINE
  8
_1-7_設備
  6
CONTINUOUS
 62
    3
 10
154.0796287377452
 20
143.98979999999997
 11
148.18992873774519
 21
144.22834999999998
  0
LINE
  8
_1-7_設備
  6
CONTINUOUS
 62
    3
 10
148.18992873774519
 20
144.22834999999998
 11
145.27327873774522
 21
144.22834999999998
  0
LINE
  8
_1-7_設備
  6
CONTINUOUS
 62
    3
 10
145.27327873774522
 20
144.27834999999999
 11
145.27327873774522
 21
144.22834999999998
  0
LINE
  8
_1-7_設備
  6
CONTINUOUS
 62
    3
 10
145.27327873774522
 20
144.27834999999999
 11
144.27327873774522
 21
144.27834999999999
  0
LINE
  8
_1-7_設備
  6
CONTINUOUS
 62
    3
 10
144.27327873774522
 20
144.27834999999999
 11
144.27327873774522
 21
144.22834999999998
  0
LINE
  8
_1-7_設備
  6
CONTINUOUS
 62
    3
 10
144.27327873774522
 20
144.22834999999998
 11
135.27327873774522
 21
144.22834999999998
  0
LINE
  8
_1-7_設備
  6
CONTINUOUS
 62
    3
 10
135.27327873774522
 20
144.29499999999999
 11
135.27327873774522
 21
144.22834999999998
  0
LINE
  8
_1-7_設備
  6
CONTINUOUS
 62
    3
 10
134.27327873774522
 20
144.29499999999999
 11
135.27327873774522
 21
144.29499999999999
  0
LINE
  8
_1-7_設備
  6
CONTINUOUS
 62
    3
 10
134.27327873774522
 20
144.29499999999999
 11
134.27327873774522
 21
144.22834999999998
  0
LINE
  8
_1-7_設備
  6
CONTINUOUS
 62
    3
 10
131.52327873774522
 20
144.22834999999998
 11
134.27327873774522
 21
144.22834999999998
  0
LINE
  8
_1-7_設備
  6
CONTINUOUS
 62
    3
 10
128.18132873774519
 20
144.04074999999997
 11
131.52327873774522
 21
144.22834999999998
  0
LINE
  8
_1-7_設備
  6
CONTINUOUS
 62
    3
 10
126.7732287377452
 20
145.37199999999999
 11
126.7732287377452
 21
148.06169999999997
  0
LINE
  8
_1-7_設備
  6
CONTINUOUS
 62
    3
 10
126.7732287377452
 20
148.06169999999997
 11
126.43992873774519
 21
149.39459999999997
  0
LINE
  8
_1-7_設備
  6
CONTINUOUS
 62
    3
 10
115.1065787377452
 20
128.92834999999997
 11
115.7732287377452
 21
128.92834999999997
  0
LINE
  8
_1-7_設備
  6
CONTINUOUS
 62
    3
 10
115.1065787377452
 20
130.59504999999999
 11
115.1065787377452
 21
128.92834999999997
  0
LINE
  8
_1-7_設備
  6
CONTINUOUS
 62
    3
 10
116.93117873774523
 20
142.62949999999998
 11
115.1065787377452
 21
130.59504999999999
  0
LINE
  8
_1-7_設備
  6
CONTINUOUS
 62
    3
 10
164.43992873774519
 20
131.26169999999999
 11
164.43992873774519
 21
128.92834999999997
  0
LINE
  8
_1-7_設備
  6
CONTINUOUS
 62
    3
 10
164.43992873774519
 20
128.92834999999997
 11
163.7732287377452
 21
128.92834999999997
  0
LINE
  8
_1-7_設備
  6
CONTINUOUS
 62
    3
 10
163.7732287377452
 20
129.57354999999998
 11
163.7732287377452
 21
128.92834999999997
  0
LINE
  8
_1-7_設備
  6
CONTINUOUS
 62
    3
 10
164.43992873774519
 20
131.26169999999999
 11
162.64202873774519
 21
142.62959999999998
  0
LINE
  8
_1-7_設備
  6
CONTINUOUS
 62
    3
 10
122.56646273129424
 20
153.13276501442567
 11
122.56646273129424
 21
153.13276501442567
  0
LINE
  8
_1-7_設備
  6
CONTINUOUS
 62
    3
 10
122.56646273129424
 20
153.13276501442567
 11
122.5333894894251
 21
153.24416386996035
  0
LINE
  8
_1-7_設備
  6
CONTINUOUS
 62
    3
 10
122.5333894894251
 20
153.24416386996035
 11
122.48147449615736
 21
153.34812721838745
  0
LINE
  8
_1-7_設備
  6
CONTINUOUS
 62
    3
 10
122.48147449615736
 20
153.34812721838745
 11
122.41229516229119
 21
153.44149618597302
  0
LINE
  8
_1-7_設備
  6
CONTINUOUS
 62
    3
 10
122.41229516229119
 20
153.44149618597302
 11
122.32795346687969
 21
153.52143380388398
  0
LINE
  8
_1-7_設備
  6
CONTINUOUS
 62
    3
 10
122.32795346687969
 20
153.52143380388398
 11
122.23101208965898
 21
153.58551120805049
  0
LINE
  8
_1-7_設備
  6
CONTINUOUS
 62
    3
 10
122.23101208965898
 20
153.58551120805049
 11
122.1244165453212
 21
153.63178143897164
  0
LINE
  8
_1-7_設備
  6
CONTINUOUS
 62
    3
 10
122.1244165453212
 20
153.63178143897164
 11
122.01140568554109
 21
153.65883859909479
  0
LINE
  8
_1-7_設備
  6
CONTINUOUS
 62
    3
 10
122.01140568554109
 20
153.65883859909479
 11
121.97961634892533
 21
153.66279119715486
  0
LINE
  8
_1-7_設備
  6
CONTINUOUS
 62
    3
 10
114.68987873774527
 20
128.56170000000168
 11
114.68987873774527
 21
128.56170000000168
  0
LINE
  8
_1-7_設備
  6
CONTINUOUS
 62
    3
 10
114.68987873774527
 20
128.56170000000168
 11
114.69241052570547
 21
128.53276153119347
  0
LINE
  8
_1-7_設備
  6
CONTINUOUS
 62
    3
 10
114.69241052570547
 20
128.53276153119347
 11
114.69992896249067
 21
128.50470234311638
  0
LINE
  8
_1-7_設備
  6
CONTINUOUS
 62
    3
 10
114.69992896249067
 20
128.50470234311638
 11
114.71220560420367
 21
128.47837500000148
  0
LINE
  8
_1-7_設備
  6
CONTINUOUS
 62
    3
 10
114.71220560420367
 20
128.47837500000148
 11
114.7288674312983
 21
128.45457944484704
  0
LINE
  8
_1-7_設備
  6
CONTINUOUS
 62
    3
 10
114.7288674312983
 20
128.45457944484704
 11
114.74940818258959
 21
128.43403869355535
  0
LINE
  8
_1-7_設備
  6
CONTINUOUS
 62
    3
 10
114.74940818258959
 20
128.43403869355535
 11
114.77320373774366
 21
128.41737686646019
  0
LINE
  8
_1-7_設備
  6
CONTINUOUS
 62
    3
 10
114.77320373774366
 20
128.41737686646019
 11
114.79953108085829
 21
128.40510022474663
  0
LINE
  8
_1-7_設備
  6
CONTINUOUS
 62
    3
 10
114.79953108085829
 20
128.40510022474663
 11
114.82759026893523
 21
128.39758178796086
  0
LINE
  8
_1-7_設備
  6
CONTINUOUS
 62
    3
 10
114.82759026893523
 20
128.39758178796086
 11
114.85652873774265
 21
128.39505000000003
  0
LINE
  8
_1-7_設備
  6
CONTINUOUS
 62
    3
 10
164.68987873774435
 20
128.39505000000003
 11
164.68987873774435
 21
128.39505000000003
  0
LINE
  8
_1-7_設備
  6
CONTINUOUS
 62
    3
 10
164.68987873774435
 20
128.39505000000003
 11
164.71881720655256
 21
128.39758178796038
  0
LINE
  8
_1-7_設備
  6
CONTINUOUS
 62
    3
 10
164.71881720655256
 20
128.39758178796038
 11
164.7468763946296
 21
128.40510022474572
  0
LINE
  8
_1-7_設備
  6
CONTINUOUS
 62
    3
 10
164.7468763946296
 20
128.40510022474572
 11
164.77320373774444
 21
128.41737686645885
  0
LINE
  8
_1-7_設備
  6
CONTINUOUS
 62
    3
 10
164.77320373774444
 20
128.41737686645885
 11
164.79699929289876
 21
128.43403869355362
  0
LINE
  8
_1-7_設備
  6
CONTINUOUS
 62
    3
 10
164.79699929289876
 20
128.43403869355362
 11
164.81754004419039
 21
128.454579444845
  0
LINE
  8
_1-7_設備
  6
CONTINUOUS
 62
    3
 10
164.81754004419039
 20
128.454579444845
 11
164.83420187128539
 21
128.47837499999915
  0
LINE
  8
_1-7_設備
  6
CONTINUOUS
 62
    3
 10
164.83420187128539
 20
128.47837499999915
 11
164.84647851299883
 21
128.50470234311385
  0
LINE
  8
_1-7_設備
  6
CONTINUOUS
 62
    3
 10
164.84647851299883
 20
128.50470234311385
 11
164.85399694978449
 21
128.53276153119083
  0
LINE
  8
_1-7_設備
  6
CONTINUOUS
 62
    3
 10
164.85399694978449
 20
128.53276153119083
 11
164.85652873774515
 21
128.56169999999827
  0
LINE
  8
_1-7_設備
  6
CONTINUOUS
 62
    3
 10
115.42285362949181
 20
154.98834246904198
 11
115.42285362949181
 21
154.98834246904198
  0
LINE
  8
_1-7_設備
  6
CONTINUOUS
 62
    3
 10
115.42285362949181
 20
154.98834246904198
 11
115.30665779443675
 21
154.98978200300053
  0
LINE
  8
_1-7_設備
  6
CONTINUOUS
 62
    3
 10
115.30665779443675
 20
154.98978200300053
 11
115.19197726275819
 21
154.97102247219382
  0
LINE
  8
_1-7_設備
  6
CONTINUOUS
 62
    3
 10
115.19197726275819
 20
154.97102247219382
 11
115.08229654438004
 21
154.93263387547267
  0
LINE
  8
_1-7_設備
  6
CONTINUOUS
 62
    3
 10
115.08229654438004
 20
154.93263387547267
 11
114.98094823242911
 21
154.87578263092283
  0
LINE
  8
_1-7_設備
  6
CONTINUOUS
 62
    3
 10
114.98094823242911
 20
154.87578263092283
 11
114.89101174407931
 21
154.80219613484189
  0
LINE
  8
_1-7_設備
  6
CONTINUOUS
 62
    3
 10
114.89101174407931
 20
154.80219613484189
 11
114.81521975401908
 21
154.71411027567666
  0
LINE
  8
_1-7_設備
  6
CONTINUOUS
 62
    3
 10
114.81521975401908
 20
154.71411027567666
 11
114.75587516351381
 21
154.61420149768429
  0
LINE
  8
_1-7_設備
  6
CONTINUOUS
 62
    3
 10
114.75587516351381
 20
154.61420149768429
 11
114.71478112791617
 21
154.50550547852779
  0
LINE
  8
_1-7_設備
  6
CONTINUOUS
 62
    3
 10
114.71478112791617
 20
154.50550547852779
 11
114.69318626870324
 21
154.39132489174642
  0
LINE
  8
_1-7_設備
  6
CONTINUOUS
 62
    3
 10
114.69318626870324
 20
154.39132489174642
 11
114.68987873774529
 21
154.32500000000678
  0
LINE
  8
_1-7_設備
  6
CONTINUOUS
 62
    3
 10
116.08955486609625
 20
154.2517923453978
 11
116.08955486609625
 21
154.2517923453978
  0
LINE
  8
_1-7_設備
  6
CONTINUOUS
 62
    3
 10
116.08955486609625
 20
154.2517923453978
 11
115.97335903372496
 21
154.25323209596894
  0
LINE
  8
_1-7_設備
  6
CONTINUOUS
 62
    3
 10
115.97335903372496
 20
154.25323209596894
 11
115.85867846707502
 21
154.23447277895002
  0
LINE
  8
_1-7_設備
  6
CONTINUOUS
 62
    3
 10
115.85867846707502
 20
154.23447277895002
 11
115.74899767713295
 21
154.19608438669601
  0
LINE
  8
_1-7_設備
  6
CONTINUOUS
 62
    3
 10
115.74899767713295
 20
154.19608438669601
 11
115.64764925919998
 21
154.13923333108008
  0
LINE
  8
_1-7_設備
  6
CONTINUOUS
 62
    3
 10
115.64764925919998
 20
154.13923333108008
 11
115.55771263367021
 21
154.06564700265906
  0
LINE
  8
_1-7_設備
  6
CONTINUOUS
 62
    3
 10
115.55771263367021
 20
154.06564700265906
 11
115.48192047940024
 21
153.97756128478562
  0
LINE
  8
_1-7_設備
  6
CONTINUOUS
 62
    3
 10
115.48192047940024
 20
153.97756128478562
 11
115.42257570264489
 21
153.87765261742376
  0
LINE
  8
_1-7_設備
  6
CONTINUOUS
 62
    3
 10
115.42257570264489
 20
153.87765261742376
 11
115.38148146441596
 21
153.76895667487508
  0
LINE
  8
_1-7_設備
  6
CONTINUOUS
 62
    3
 10
115.38148146441596
 20
153.76895667487508
 11
115.35988639234735
 21
153.65477612835107
  0
LINE
  8
_1-7_設備
  6
CONTINUOUS
 62
    3
 10
115.35988639234735
 20
153.65477612835107
 11
115.35657873774524
 21
153.58844999999997
  0
LINE
  8
_1-7_設備
  6
CONTINUOUS
 62
    3
 10
164.18987873774512
 20
145.63909999998637
 11
164.18987873774512
 21
145.63909999998637
  0
LINE
  8
_1-7_設備
  6
CONTINUOUS
 62
    3
 10
164.18987873774512
 20
145.63909999998637
 11
164.17975082629309
 21
145.75486255762823
  0
LINE
  8
_1-7_設備
  6
CONTINUOUS
 62
    3
 10
164.17975082629309
 20
145.75486255762823
 11
164.14967482339677
 21
145.86710772853522
  0
LINE
  8
_1-7_設備
  6
CONTINUOUS
 62
    3
 10
164.14967482339677
 20
145.86710772853522
 11
164.1005645731849
 21
145.97242499998816
  0
LINE
  8
_1-7_設備
  6
CONTINUOUS
 62
    3
 10
164.1005645731849
 20
145.97242499998816
 11
164.03391226575926
 21
146.06761435998703
  0
LINE
  8
_1-7_設備
  6
CONTINUOUS
 62
    3
 10
164.03391226575926
 20
146.06761435998703
 11
163.95174309775322
 21
146.14978352799645
  0
LINE
  8
_1-7_設備
  6
CONTINUOUS
 62
    3
 10
163.95174309775322
 20
146.14978352799645
 11
163.85655373775708
 21
146.21643583542601
  0
LINE
  8
_1-7_設備
  6
CONTINUOUS
 62
    3
 10
163.85655373775708
 20
146.21643583542601
 11
163.75123646630615
 21
146.26554608564217
  0
LINE
  8
_1-7_設備
  6
CONTINUOUS
 62
    3
 10
163.75123646630615
 20
146.26554608564217
 11
163.63899129540042
 21
146.29562208854313
  0
LINE
  8
_1-7_設備
  6
CONTINUOUS
 62
    3
 10
163.63899129540042
 20
146.29562208854313
 11
163.58956634892562
 21
146.30244119715479
  0
LINE
  8
_1-7_設備
  6
CONTINUOUS
 62
    3
 10
164.85652873774512
 20
146.24239999999318
 11
164.85652873774512
 21
146.24239999999318
  0
LINE
  8
_1-7_設備
  6
CONTINUOUS
 62
    3
 10
164.85652873774512
 20
146.24239999999318
 11
164.84640082629187
 21
146.35816255763493
  0
LINE
  8
_1-7_設備
  6
CONTINUOUS
 62
    3
 10
164.84640082629187
 20
146.35816255763493
 11
164.81632482339432
 21
146.4704077285416
  0
LINE
  8
_1-7_設備
  6
CONTINUOUS
 62
    3
 10
164.81632482339432
 20
146.4704077285416
 11
164.76721457318135
 21
146.57572499999404
  0
LINE
  8
_1-7_設備
  6
CONTINUOUS
 62
    3
 10
164.76721457318135
 20
146.57572499999404
 11
164.70056226575468
 21
146.67091435999225
  0
LINE
  8
_1-7_設備
  6
CONTINUOUS
 62
    3
 10
164.70056226575468
 20
146.67091435999225
 11
164.61839309774777
 21
146.75308352800081
  0
LINE
  8
_1-7_設備
  6
CONTINUOUS
 62
    3
 10
164.61839309774777
 20
146.75308352800081
 11
164.52320373775092
 21
146.81973583542941
  0
LINE
  8
_1-7_設備
  6
CONTINUOUS
 62
    3
 10
164.52320373775092
 20
146.81973583542941
 11
164.41788646629948
 21
146.86884608564449
  0
LINE
  8
_1-7_設備
  6
CONTINUOUS
 62
    3
 10
164.41788646629948
 20
146.86884608564449
 11
164.3056412953934
 21
146.89892208854431
  0
LINE
  8
_1-7_設備
  6
CONTINUOUS
 62
    3
 10
164.3056412953934
 20
146.89892208854431
 11
164.25621634891857
 21
146.90574119715546
  0
LINE
  8
_1-7_設備
  6
CONTINUOUS
 62
    3
 10
162.85652873774526
 20
128.56170000000168
 11
162.85652873774526
 21
128.56170000000168
  0
LINE
  8
_1-7_設備
  6
CONTINUOUS
 62
    3
 10
162.85652873774526
 20
128.56170000000168
 11
162.85906052570547
 21
128.53276153119347
  0
LINE
  8
_1-7_設備
  6
CONTINUOUS
 62
    3
 10
162.85906052570547
 20
128.53276153119347
 11
162.86657896249068
 21
128.50470234311638
  0
LINE
  8
_1-7_設備
  6
CONTINUOUS
 62
    3
 10
162.86657896249068
 20
128.50470234311638
 11
162.87885560420366
 21
128.47837500000148
  0
LINE
  8
_1-7_設備
  6
CONTINUOUS
 62
    3
 10
162.87885560420366
 20
128.47837500000148
 11
162.89551743129832
 21
128.45457944484704
  0
LINE
  8
_1-7_設備
  6
CONTINUOUS
 62
    3
 10
162.89551743129832
 20
128.45457944484704
 11
162.91605818258958
 21
128.43403869355535
  0
LINE
  8
_1-7_設備
  6
CONTINUOUS
 62
    3
 10
162.91605818258958
 20
128.43403869355535
 11
162.93985373774365
 21
128.41737686646019
  0
LINE
  8
_1-7_設備
  6
CONTINUOUS
 62
    3
 10
162.93985373774365
 20
128.41737686646019
 11
162.96618108085829
 21
128.40510022474663
  0
LINE
  8
_1-7_設備
  6
CONTINUOUS
 62
    3
 10
162.96618108085829
 20
128.40510022474663
 11
162.99424026893524
 21
128.39758178796086
  0
LINE
  8
_1-7_設備
  6
CONTINUOUS
 62
    3
 10
162.99424026893524
 20
128.39758178796086
 11
163.02317873774265
 21
128.39505000000003
  0
LINE
  8
_1-7_設備
  6
CONTINUOUS
 62
    3
 10
116.52322873774435
 20
128.39505000000003
 11
116.52322873774435
 21
128.39505000000003
  0
LINE
  8
_1-7_設備
  6
CONTINUOUS
 62
    3
 10
116.52322873774435
 20
128.39505000000003
 11
116.55216720655254
 21
128.39758178796038
  0
LINE
  8
_1-7_設備
  6
CONTINUOUS
 62
    3
 10
116.55216720655254
 20
128.39758178796038
 11
116.58022639462961
 21
128.40510022474572
  0
LINE
  8
_1-7_設備
  6
CONTINUOUS
 62
    3
 10
116.58022639462961
 20
128.40510022474572
 11
116.60655373774443
 21
128.41737686645885
  0
LINE
  8
_1-7_設備
  6
CONTINUOUS
 62
    3
 10
116.60655373774443
 20
128.41737686645885
 11
116.63034929289877
 21
128.43403869355362
  0
LINE
  8
_1-7_設備
  6
CONTINUOUS
 62
    3
 10
116.63034929289877
 20
128.43403869355362
 11
116.65089004419038
 21
128.454579444845
  0
LINE
  8
_1-7_設備
  6
CONTINUOUS
 62
    3
 10
116.65089004419038
 20
128.454579444845
 11
116.6675518712854
 21
128.47837499999915
  0
LINE
  8
_1-7_設備
  6
CONTINUOUS
 62
    3
 10
116.6675518712854
 20
128.47837499999915
 11
116.67982851299882
 21
128.50470234311385
  0
LINE
  8
_1-7_設備
  6
CONTINUOUS
 62
    3
 10
116.67982851299882
 20
128.50470234311385
 11
116.68734694978447
 21
128.53276153119083
  0
LINE
  8
_1-7_設備
  6
CONTINUOUS
 62
    3
 10
116.68734694978447
 20
128.53276153119083
 11
116.68987873774513
 21
128.56169999999827
  0
LINE
  8
_1-7_設備
  6
CONTINUOUS
 62
    3
 10
120.1046324652729
 20
148.97029807270974
 11
120.1046324652729
 21
148.97029807270974
  0
LINE
  8
_1-7_設備
  6
CONTINUOUS
 62
    3
 10
120.1046324652729
 20
148.97029807270974
 11
119.90136751117873
 21
148.97653098390504
  0
LINE
  8
_1-7_設備
  6
CONTINUOUS
 62
    3
 10
119.90136751117873
 20
148.97653098390504
 11
119.70010827480048
 21
148.947372614312
  0
LINE
  8
_1-7_設備
  6
CONTINUOUS
 62
    3
 10
119.70010827480048
 20
148.947372614312
 11
119.50696991619343
 21
148.88370892623587
  0
LINE
  8
_1-7_設備
  6
CONTINUOUS
 62
    3
 10
119.50696991619343
 20
148.88370892623587
 11
119.32782084665112
 21
148.78747430862344
  0
LINE
  8
_1-7_設備
  6
CONTINUOUS
 62
    3
 10
119.32782084665112
 20
148.78747430862344
 11
119.1681044199978
 21
148.66159280163382
  0
LINE
  8
_1-7_設備
  6
CONTINUOUS
 62
    3
 10
119.1681044199978
 20
148.66159280163382
 11
119.03267353903691
 21
148.50988925115774
  0
LINE
  8
_1-7_設備
  6
CONTINUOUS
 62
    3
 10
119.03267353903691
 20
148.50988925115774
 11
118.92564320255512
 21
148.33697309281075
  0
LINE
  8
_1-7_設備
  6
CONTINUOUS
 62
    3
 10
118.92564320255512
 20
148.33697309281075
 11
118.85026547316647
 21
148.14809829656443
  0
LINE
  8
_1-7_設備
  6
CONTINUOUS
 62
    3
 10
118.85026547316647
 20
148.14809829656443
 11
118.81529901464249
 21
147.99555569663423
  0
LINE
  8
_1-7_設備
  6
CONTINUOUS
 62
    3
 10
125.60657873774518
 20
147.57804999999146
 11
125.60657873774518
 21
147.57804999999146
  0
LINE
  8
_1-7_設備
  6
CONTINUOUS
 62
    3
 10
125.60657873774518
 20
147.57804999999146
 11
125.59391827871939
 21
147.72275970885033
  0
LINE
  8
_1-7_設備
  6
CONTINUOUS
 62
    3
 10
125.59391827871939
 20
147.72275970885033
 11
125.55632158328002
 21
147.8630724864324
  0
LINE
  8
_1-7_設備
  6
CONTINUOUS
 62
    3
 10
125.55632158328002
 20
147.8630724864324
 11
125.49493100799319
 21
147.9947249999926
  0
LINE
  8
_1-7_設備
  6
CONTINUOUS
 62
    3
 10
125.49493100799319
 20
147.9947249999926
 11
125.41161187442384
 21
148.11371705452572
  0
LINE
  8
_1-7_設備
  6
CONTINUOUS
 62
    3
 10
125.41161187442384
 20
148.11371705452572
 11
125.30889579228396
 21
148.21643313666769
  0
LINE
  8
_1-7_設備
  6
CONTINUOUS
 62
    3
 10
125.30889579228396
 20
148.21643313666769
 11
125.18990373775253
 21
148.29975227023945
  0
LINE
  8
_1-7_設備
  6
CONTINUOUS
 62
    3
 10
125.18990373775253
 20
148.29975227023945
 11
125.05825122419361
 21
148.36114284552897
  0
LINE
  8
_1-7_設備
  6
CONTINUOUS
 62
    3
 10
125.05825122419361
 20
148.36114284552897
 11
124.91793844661228
 21
148.39873954097121
  0
LINE
  8
_1-7_設備
  6
CONTINUOUS
 62
    3
 10
124.91793844661228
 20
148.39873954097121
 11
124.87127047592267
 21
148.40561271066008
  0
LINE
  8
_1-7_設備
  6
CONTINUOUS
 62
    3
 10
156.82222730619714
 20
145.40077629179345
 11
156.82222730619714
 21
145.40077629179345
  0
LINE
  8
_1-7_設備
  6
CONTINUOUS
 62
    3
 10
156.82222730619714
 20
145.40077629179345
 11
156.67697468916614
 21
145.40246871798365
  0
LINE
  8
_1-7_設備
  6
CONTINUOUS
 62
    3
 10
156.67697468916614
 20
145.40246871798365
 11
156.53363489904496
 21
145.37891258016839
  0
LINE
  8
_1-7_設備
  6
CONTINUOUS
 62
    3
 10
156.53363489904496
 20
145.37891258016839
 11
156.39656324282296
 21
145.33082361967519
  0
LINE
  8
_1-7_設備
  6
CONTINUOUS
 62
    3
 10
156.39656324282296
 20
145.33082361967519
 11
156.26992457341282
 21
145.25966299523446
  0
LINE
  8
_1-7_設備
  6
CONTINUOUS
 62
    3
 10
156.26992457341282
 20
145.25966299523446
 11
156.15756674270236
 21
145.1675928864108
  0
LINE
  8
_1-7_設備
  6
CONTINUOUS
 62
    3
 10
156.15756674270236
 20
145.1675928864108
 11
156.06290368652188
 21
145.0574107968711
  0
LINE
  8
_1-7_設備
  6
CONTINUOUS
 62
    3
 10
156.06290368652188
 20
145.0574107968711
 11
155.98881169393164
 21
144.93246455365122
  0
LINE
  8
_1-7_設備
  6
CONTINUOUS
 62
    3
 10
155.98881169393164
 20
144.93246455365122
 11
155.93754201263408
 21
144.79655058512549
  0
LINE
  8
_1-7_設備
  6
CONTINUOUS
 62
    3
 10
155.93754201263408
 20
144.79655058512549
 11
155.91065244595177
 21
144.65379856845183
  0
LINE
  8
_1-7_設備
  6
CONTINUOUS
 62
    3
 10
155.91065244595177
 20
144.65379856845183
 11
155.90657873774524
 21
144.57150000000848
  0
LINE
  8
_1-7_設備
  6
CONTINUOUS
 62
    3
 10
161.37267857490565
 20
144.08145103663793
 11
161.37267857490565
 21
144.08145103663793
  0
LINE
  8
_1-7_設備
  6
CONTINUOUS
 62
    3
 10
161.37267857490565
 20
144.08145103663793
 11
161.32212082564968
 21
144.27842668166809
  0
LINE
  8
_1-7_設備
  6
CONTINUOUS
 62
    3
 10
161.32212082564968
 20
144.27842668166809
 11
161.23812670040328
 21
144.46363056302312
  0
LINE
  8
_1-7_設備
  6
CONTINUOUS
 62
    3
 10
161.23812670040328
 20
144.46363056302312
 11
161.12324831815903
 21
144.63143535448572
  0
LINE
  8
_1-7_設備
  6
CONTINUOUS
 62
    3
 10
161.12324831815903
 20
144.63143535448572
 11
160.98097620043009
 21
144.77674239238067
  0
LINE
  8
_1-7_設備
  6
CONTINUOUS
 62
    3
 10
160.98097620043009
 20
144.77674239238067
 11
160.81563321352056
 21
144.89513659589039
  0
LINE
  8
_1-7_設備
  6
CONTINUOUS
 62
    3
 10
160.81563321352056
 20
144.89513659589039
 11
160.63224322042004
 21
144.98302061705161
  0
LINE
  8
_1-7_設備
  6
CONTINUOUS
 62
    3
 10
160.63224322042004
 20
144.98302061705161
 11
160.43637843326911
 21
145.03772414435281
  0
LINE
  8
_1-7_設備
  6
CONTINUOUS
 62
    3
 10
160.43637843326911
 20
145.03772414435281
 11
160.33689278334958
 21
145.05194700404246
  0
LINE
  8
_1-7_設備
  6
CONTINUOUS
 62
    3
 10
154.07959774083665
 20
143.98979621806674
 11
154.07959774083665
 21
143.98979621806674
  0
LINE
  8
_1-7_設備
  6
CONTINUOUS
 62
    3
 10
154.07959774083665
 20
143.98979621806674
 11
154.19567535067543
 21
143.99523063029659
  0
LINE
  8
_1-7_設備
  6
CONTINUOUS
 62
    3
 10
154.19567535067543
 20
143.99523063029659
 11
154.30904580501536
 21
144.02073914701006
  0
LINE
  8
_1-7_設備
  6
CONTINUOUS
 62
    3
 10
154.30904580501536
 20
144.02073914701006
 11
154.41626439996958
 21
144.0655467048347
  0
LINE
  8
_1-7_設備
  6
CONTINUOUS
 62
    3
 10
154.41626439996958
 20
144.0655467048347
 11
154.5140733527856
 21
144.12829184879976
  0
LINE
  8
_1-7_設備
  6
CONTINUOUS
 62
    3
 10
154.5140733527856
 20
144.12829184879976
 11
154.59950078792588
 21
144.20706809945645
  0
LINE
  8
_1-7_設備
  6
CONTINUOUS
 62
    3
 10
154.59950078792588
 20
144.20706809945645
 11
154.66995103600198
 21
144.29948188029124
  0
LINE
  8
_1-7_設備
  6
CONTINUOUS
 62
    3
 10
154.66995103600198
 20
144.29948188029124
 11
154.7232835018757
 21
144.40272524533711
  0
LINE
  8
_1-7_設備
  6
CONTINUOUS
 62
    3
 10
154.7232835018757
 20
144.40272524533711
 11
154.75787770555897
 21
144.5136611971908
  0
LINE
  8
_1-7_設備
  6
CONTINUOUS
 62
    3
 10
154.75787770555897
 20
144.5136611971908
 11
154.77268251967843
 21
144.62891900309157
  0
LINE
  8
_1-7_設備
  6
CONTINUOUS
 62
    3
 10
154.77268251967843
 20
144.62891900309157
 11
154.77322873774514
 21
144.65589999998636
  0
LINE
  8
_1-7_設備
  6
CONTINUOUS
 62
    3
 10
126.77322873774524
 20
145.37199999999999
 11
126.77322873774524
 21
145.37199999999999
  0
LINE
  8
_1-7_設備
  6
CONTINUOUS
 62
    3
 10
126.77322873774524
 20
145.37199999999999
 11
126.79348532026643
 21
145.14046620230781
  0
LINE
  8
_1-7_設備
  6
CONTINUOUS
 62
    3
 10
126.79348532026643
 20
145.14046620230781
 11
126.85363958182039
 21
144.91596744189673
  0
LINE
  8
_1-7_設備
  6
CONTINUOUS
 62
    3
 10
126.85363958182039
 20
144.91596744189673
 11
126.9518637656093
 21
144.70532500000002
  0
LINE
  8
_1-7_設備
  6
CONTINUOUS
 62
    3
 10
126.9518637656093
 20
144.70532500000002
 11
127.08517337951261
 21
144.51493914062448
  0
LINE
  8
_1-7_設備
  6
CONTINUOUS
 62
    3
 10
127.08517337951261
 20
144.51493914062448
 11
127.24951787836976
 21
144.35059464176734
  0
LINE
  8
_1-7_設備
  6
CONTINUOUS
 62
    3
 10
127.24951787836976
 20
144.35059464176734
 11
127.4399037377453
 21
144.21728502786405
  0
LINE
  8
_1-7_設備
  6
CONTINUOUS
 62
    3
 10
127.4399037377453
 20
144.21728502786405
 11
127.65054617964202
 21
144.11906084407514
  0
LINE
  8
_1-7_設備
  6
CONTINUOUS
 62
    3
 10
127.65054617964202
 20
144.11906084407514
 11
127.8750449400531
 21
144.05890658252122
  0
LINE
  8
_1-7_設備
  6
CONTINUOUS
 62
    3
 10
127.8750449400531
 20
144.05890658252122
 11
128.10657873774528
 21
144.03865000000005
  0
LINE
  8
_1-7_設備
  6
CONTINUOUS
 62
    3
 10
128.10657873774528
 20
144.03865000000005
 11
128.1813141411163
 21
144.04074613916697
  0
LINE
  8
_1-7_設備
  6
CONTINUOUS
 62
    3
 10
160.03222224535509
 20
146.22105739595645
 11
160.03222224535509
 21
146.22105739595645
  0
LINE
  8
_1-7_設備
  6
CONTINUOUS
 62
    3
 10
160.03222224535509
 20
146.22105739595645
 11
160.08526410872523
 21
146.55747133149569
  0
LINE
  8
_1-7_設備
  6
CONTINUOUS
 62
    3
 10
160.08526410872523
 20
146.55747133149569
 11
160.08951885165277
 21
146.65238121842322
  0
LINE
  8
_1-7_設備
  6
CONTINUOUS
 62
    3
 10
154.9831740200124
 20
147.16303472046482
 11
154.9831740200124
 21
147.16303472046482
  0
LINE
  8
_1-7_設備
  6
CONTINUOUS
 62
    3
 10
154.9831740200124
 20
147.16303472046482
 11
154.94356697645509
 21
146.82477585894679
  0
LINE
  8
_1-7_設備
  6
CONTINUOUS
 62
    3
 10
154.94356697645509
 20
146.82477585894679
 11
154.94316820237273
 21
146.72611259125429
  0
LINE
  8
_1-7_設備
  6
CONTINUOUS
 62
    3
 10
123.00312439180099
 20
150.99370804583975
 11
123.00312439180099
 21
150.99370804583975
  0
LINE
  8
_1-7_設備
  6
CONTINUOUS
 62
    3
 10
123.00312439180099
 20
150.99370804583975
 11
122.86617352051633
 21
151.00534757585265
  0
LINE
  8
_1-7_設備
  6
CONTINUOUS
 62
    3
 10
122.86617352051633
 20
151.00534757585265
 11
122.72928205751776
 21
150.99302900602228
  0
LINE
  8
_1-7_設備
  6
CONTINUOUS
 62
    3
 10
122.72928205751776
 20
150.99302900602228
 11
122.59660938063811
 21
150.95712662985946
  0
LINE
  8
_1-7_設備
  6
CONTINUOUS
 62
    3
 10
122.59660938063811
 20
150.95712662985946
 11
122.47218668202873
 21
150.8987313228964
  0
LINE
  8
_1-7_設備
  6
CONTINUOUS
 62
    3
 10
122.47218668202873
 20
150.8987313228964
 11
122.35979448242595
 21
150.81961739698571
  0
LINE
  8
_1-7_設備
  6
CONTINUOUS
 62
    3
 10
122.35979448242595
 20
150.81961739698571
 11
122.2628477619415
 21
150.72218868873264
  0
LINE
  8
_1-7_設備
  6
CONTINUOUS
 62
    3
 10
122.2628477619415
 20
150.72218868873264
 11
122.18429219761988
 21
150.60940552013616
  0
LINE
  8
_1-7_設備
  6
CONTINUOUS
 62
    3
 10
122.18429219761988
 20
150.60940552013616
 11
122.126514660532
 21
150.484694750703
  0
LINE
  8
_1-7_設備
  6
CONTINUOUS
 62
    3
 10
122.126514660532
 20
150.484694750703
 11
122.09127069190541
 21
150.35184565405572
  0
LINE
  8
_1-7_設備
  6
CONTINUOUS
 62
    3
 10
122.09127069190541
 20
150.35184565405572
 11
122.07963116189251
 21
150.21489478277107
  0
LINE
  8
_1-7_設備
  6
CONTINUOUS
 62
    3
 10
122.07963116189251
 20
150.21489478277107
 11
122.09194973172288
 21
150.07800331977251
  0
LINE
  8
_1-7_設備
  6
CONTINUOUS
 62
    3
 10
122.09194973172288
 20
150.07800331977251
 11
122.1278521078857
 21
149.94533064289286
  0
LINE
  8
_1-7_設備
  6
CONTINUOUS
 62
    3
 10
122.1278521078857
 20
149.94533064289286
 11
122.13391789426663
 21
149.92933184871472
  0
LINE
  8
_1-7_設備
  6
CONTINUOUS
 62
    3
 10
126.36675570230395
 20
149.40322332103906
 11
126.36675570230395
 21
149.40322332103906
  0
LINE
  8
_1-7_設備
  6
CONTINUOUS
 62
    3
 10
126.36675570230395
 20
149.40322332103906
 11
126.47042163769861
 21
149.49346961538572
  0
LINE
  8
_1-7_設備
  6
CONTINUOUS
 62
    3
 10
126.47042163769861
 20
149.49346961538572
 11
126.55684155004404
 21
149.60034626650634
  0
LINE
  8
_1-7_設備
  6
CONTINUOUS
 62
    3
 10
126.55684155004404
 20
149.60034626650634
 11
126.62338961403422
 21
149.72060588143879
  0
LINE
  8
_1-7_設備
  6
CONTINUOUS
 62
    3
 10
126.62338961403422
 20
149.72060588143879
 11
126.66804380041978
 21
149.85059443263771
  0
LINE
  8
_1-7_設備
  6
CONTINUOUS
 62
    3
 10
126.66804380041978
 20
149.85059443263771
 11
126.68944731434345
 21
149.98636228375227
  0
LINE
  8
_1-7_設備
  6
CONTINUOUS
 62
    3
 10
126.68944731434345
 20
149.98636228375227
 11
126.68983864443864
 21
149.99234737606557
  0
LINE
  8
_1-7_設備
  6
CONTINUOUS
 62
    3
 10
116.96116903308733
 20
142.82722007153609
 11
116.96116903308733
 21
142.82722007153609
  0
LINE
  8
_1-7_設備
  6
CONTINUOUS
 62
    3
 10
116.96116903308733
 20
142.82722007153609
 11
116.94377268907003
 21
142.82832105045847
  0
LINE
  8
_1-7_設備
  6
CONTINUOUS
 62
    3
 10
116.94377268907003
 20
142.82832105045847
 11
116.92644945162421
 21
142.82638445960043
  0
LINE
  8
_1-7_設備
  6
CONTINUOUS
 62
    3
 10
116.92644945162421
 20
142.82638445960043
 11
116.90972567855367
 21
142.8214691412953
  0
LINE
  8
_1-7_設備
  6
CONTINUOUS
 62
    3
 10
116.90972567855367
 20
142.8214691412953
 11
116.89410951324052
 21
142.81372444500244
  0
LINE
  8
_1-7_設備
  6
CONTINUOUS
 62
    3
 10
116.89410951324052
 20
142.81372444500244
 11
116.88007544496566
 21
142.80338568939976
  0
LINE
  8
_1-7_設備
  6
CONTINUOUS
 62
    3
 10
116.88007544496566
 20
142.80338568939976
 11
116.86804989179201
 21
142.79076701234453
  0
LINE
  8
_1-7_設備
  6
CONTINUOUS
 62
    3
 10
116.86804989179201
 20
142.79076701234453
 11
116.85839824406756
 21
142.77625182595375
  0
LINE
  8
_1-7_設備
  6
CONTINUOUS
 62
    3
 10
116.85839824406756
 20
142.77625182595375
 11
116.85141376222442
 21
142.76028116682087
  0
LINE
  8
_1-7_設備
  6
CONTINUOUS
 62
    3
 10
116.85141376222442
 20
142.76028116682087
 11
116.8473086662091
 21
142.74334029534208
  0
LINE
  8
_1-7_設備
  6
CONTINUOUS
 62
    3
 10
116.8473086662091
 20
142.74334029534208
 11
116.84620768728674
 21
142.72594395132478
  0
LINE
  8
_1-7_設備
  6
CONTINUOUS
 62
    3
 10
116.84620768728674
 20
142.72594395132478
 11
116.84814427814474
 21
142.70862071387896
  0
LINE
  8
_1-7_設備
  6
CONTINUOUS
 62
    3
 10
116.84814427814474
 20
142.70862071387896
 11
116.8530595964499
 21
142.69189694080842
  0
LINE
  8
_1-7_設備
  6
CONTINUOUS
 62
    3
 10
116.8530595964499
 20
142.69189694080842
 11
116.86080429274274
 21
142.67628077549529
  0
LINE
  8
_1-7_設備
  6
CONTINUOUS
 62
    3
 10
116.86080429274274
 20
142.67628077549529
 11
116.87114304834543
 21
142.66224670722042
  0
LINE
  8
_1-7_設備
  6
CONTINUOUS
 62
    3
 10
116.87114304834543
 20
142.66224670722042
 11
116.88376172540065
 21
142.65022115404679
  0
LINE
  8
_1-7_設備
  6
CONTINUOUS
 62
    3
 10
116.88376172540065
 20
142.65022115404679
 11
116.89827691179143
 21
142.64056950632232
  0
LINE
  8
_1-7_設備
  6
CONTINUOUS
 62
    3
 10
116.89827691179143
 20
142.64056950632232
 11
116.9142475709243
 21
142.6335850244792
  0
LINE
  8
_1-7_設備
  6
CONTINUOUS
 62
    3
 10
116.9142475709243
 20
142.6335850244792
 11
116.93118844240209
 21
142.62947992846401
  0
LINE
  8
_1-7_設備
  6
CONTINUOUS
 62
    3
 10
162.64205083147087
 20
142.62957778635879
 11
162.64205083147087
 21
142.62957778635879
  0
LINE
  8
_1-7_設備
  6
CONTINUOUS
 62
    3
 10
162.64205083147087
 20
142.62957778635879
 11
162.65896511166744
 21
142.63379110633085
  0
LINE
  8
_1-7_設備
  6
CONTINUOUS
 62
    3
 10
162.65896511166744
 20
142.63379110633085
 11
162.67489079060661
 21
142.64087755043789
  0
LINE
  8
_1-7_設備
  6
CONTINUOUS
 62
    3
 10
162.67489079060661
 20
142.64087755043789
 11
162.68934397459253
 21
142.65062180066172
  0
LINE
  8
_1-7_設備
  6
CONTINUOUS
 62
    3
 10
162.68934397459253
 20
142.65062180066172
 11
162.70188551094353
 21
142.66272778289004
  0
LINE
  8
_1-7_設備
  6
CONTINUOUS
 62
    3
 10
162.70188551094353
 20
142.66272778289004
 11
162.71213433142384
 21
142.67682766297884
  0
LINE
  8
_1-7_設備
  6
CONTINUOUS
 62
    3
 10
162.71213433142384
 20
142.67682766297884
 11
162.71977903080938
 21
142.69249302320642
  0
LINE
  8
_1-7_設備
  6
CONTINUOUS
 62
    3
 10
162.71977903080938
 20
142.69249302320642
 11
162.72458732877766
 21
142.70924787952939
  0
LINE
  8
_1-7_設備
  6
CONTINUOUS
 62
    3
 10
162.72458732877766
 20
142.70924787952939
 11
162.72641312762806
 21
142.72658314411672
  0
LINE
  8
_1-7_設備
  6
CONTINUOUS
 62
    3
 10
162.72641312762806
 20
142.72658314411672
 11
162.72520095138646
 21
142.743972093726
  0
LINE
  8
_1-7_設備
  6
CONTINUOUS
 62
    3
 10
162.72520095138646
 20
142.743972093726
 11
162.72098763141449
 21
142.76088637392257
  0
LINE
  8
_1-7_設備
  6
CONTINUOUS
 62
    3
 10
162.72098763141449
 20
142.76088637392257
 11
162.71390118730747
 21
142.77681205286169
  0
LINE
  8
_1-7_設備
  6
CONTINUOUS
 62
    3
 10
162.71390118730747
 20
142.77681205286169
 11
162.70415693708372
 21
142.79126523684761
  0
LINE
  8
_1-7_設備
  6
CONTINUOUS
 62
    3
 10
162.70415693708372
 20
142.79126523684761
 11
162.69205095485543
 21
142.80380677319854
  0
LINE
  8
_1-7_設備
  6
CONTINUOUS
 62
    3
 10
162.69205095485543
 20
142.80380677319854
 11
162.6779510747667
 21
142.8140555936788
  0
LINE
  8
_1-7_設備
  6
CONTINUOUS
 62
    3
 10
162.6779510747667
 20
142.8140555936788
 11
162.66228571453911
 21
142.82170029306425
  0
LINE
  8
_1-7_設備
  6
CONTINUOUS
 62
    3
 10
162.66228571453911
 20
142.82170029306425
 11
162.64553085821618
 21
142.82650859103251
  0
LINE
  8
_1-7_設備
  6
CONTINUOUS
 62
    3
 10
162.64553085821618
 20
142.82650859103251
 11
162.62819559362885
 21
142.82833438988285
  0
LINE
  8
_1-7_設備
  6
CONTINUOUS
 62
    3
 10
162.62819559362885
 20
142.82833438988285
 11
162.61080664402058
 21
142.8271222136413
  0
LINE
  8
_e-e_
  6
CONTINUOUS
 62
    7
 10
143.4367230339291
 20
177.09152971586371
 11
148.4367230339291
 21
177.09152971586371
  0
TEXT
  8
_e-e_
 62
    7
 10
148.4367230339291
 20
175.09152971586371
 40
4
 41
1
 50
0
  1
ＡＹシールＭＳ－１
  0
LINE
  8
_e-e_
  6
CONTINUOUS
 62
    7
 10
143.4367230339291
 20
177.09152971586371
 11
123.4367230339291
 21
142.45051356448619
  0
LINE
  8
_e-e_
  6
CONTINUOUS
 62
    7
 10
143.92792608841015
 20
167.32718835865228
 11
148.92792608841015
 21
167.32718835865228
  0
TEXT
  8
_e-e_
 62
    7
 10
148.92792608841015
 20
165.32718835865228
 40
4
 41
1
 50
0
  1
ＡＹブチルテープ
  0
LINE
  8
_e-e_
  6
CONTINUOUS
 62
    7
 10
143.92792608841015
 20
167.32718835865228
 11
128.92792608841015
 21
141.34642624511909
  0
LINE
  8
_e-e_
  6
CONTINUOUS
 62
    7
 10
145.91442437495294
 20
159.51861222113058
 11
150.91442437495294
 21
159.51861222113058
  0
TEXT
  8
_e-e_
 62
    7
 10
150.91442437495294
 20
157.51861222113058
 40
4
 41
1
 50
0
  1
ＦＬ鋼板
  0
LINE
  8
_e-e_
  6
CONTINUOUS
 62
    7
 10
145.91442437495294
 20
159.51861222113058
 11
135.91442437495294
 21
142.19810414544182
  0
LINE
  8
_e-e_
  6
CONTINUOUS
 62
    7
 10
165.96622350504387
 20
155.80562090508019
 11
170.96622350504387
 21
155.80562090508019
  0
TEXT
  8
_e-e_
 62
    7
 10
170.96622350504387
 20
153.80562090508019
 40
4
 41
1
 50
0
  1
パラトップ笠木
  0
LINE
  8
_e-e_
  6
CONTINUOUS
 62
    7
 10
160.96622350504387
 20
147.14536686723579
 11
165.96622350504387
 21
155.80562090508019
  0
LINE
  8
_e-e_
  6
CONTINUOUS
 62
    7
 10
176.22053571564277
 20
110.96706089511051
 11
181.22053571564277
 21
110.96706089511051
  0
LINE
  8
_e-e_
  6
CONTINUOUS
 62
    7
 10
176.22053571564277
 20
110.96706089511051
 11
161.22053571564277
 21
84.986298781577347
  0
TEXT
  8
_e-e_
 62
    7
 10
181.22053571564277
 20
108.96706089511051
 40
4
 41
1
 50
0
  1
リベットルーフ
  0
TEXT
  8
_e-e_
 62
    7
 10
188.5
 20
17.5
 40
4
 41
1
 50
0
  1
（アンカー固定工法）
  0
LINE
  8
_1-6_アンカ__類
  6
CONTINUOUS
 62
    4
 10
135.27329853293102
 20
144.27834999999999
 11
134.27327873774522
 21
144.27834999999999
  0
LINE
  8
_1-6_アンカ__類
  6
CONTINUOUS
 62
    4
 10
134.27327873774522
 20
144.27834999999999
 11
134.27327873774522
 21
144.24504459987327
  0
LINE
  8
_1-6_アンカ__類
  6
CONTINUOUS
 62
    4
 10
135.27329853293102
 20
144.27834999999999
 11
135.27329853293102
 21
144.24504459987327
  0
LINE
  8
_1-6_アンカ__類
  6
CONTINUOUS
 62
    4
 10
135.60657523003829
 20
145.37840146748309
 11
133.93996080066751
 21
145.37840146748309
  0
LINE
  8
_1-6_アンカ__類
  6
CONTINUOUS
 62
    4
 10
132.69001028863204
 20
144.61159370513087
 11
136.85652574207376
 21
144.61159370513087
  0
LINE
  8
_1-6_アンカ__類
  6
CONTINUOUS
 62
    4
 10
133.27337441447662
 20
144.71171610536314
 11
133.27337441447662
 21
144.61159370513087
  0
LINE
  8
_1-6_アンカ__類
  6
CONTINUOUS
 62
    4
 10
136.2733430720991
 20
144.71171610536314
 11
136.2733430720991
 21
144.61159370513087
  0
LINE
  8
_1-6_アンカ__類
  6
CONTINUOUS
 62
    4
 10
132.69001028863204
 20
144.61159370513087
 11
132.69001028863204
 21
144.27834999999999
  0
LINE
  8
_1-6_アンカ__類
  6
CONTINUOUS
 62
    4
 10
136.85652574207376
 20
144.61159370513087
 11
136.85652574207376
 21
144.27834999999999
  0
LINE
  8
_1-6_アンカ__類
  6
CONTINUOUS
 62
    4
 10
132.69001028863204
 20
144.27834999999999
 11
136.85652574207376
 21
144.27834999999999
  0
LINE
  8
_1-6_アンカ__類
  6
CONTINUOUS
 62
    4
 10
133.85655708445131
 20
144.27834999999999
 11
133.85655708445131
 21
126.15601410209035
  0
LINE
  8
_1-6_アンカ__類
  6
CONTINUOUS
 62
    4
 10
134.71834874671902
 20
124.07564729729728
 11
133.85655708445131
 21
126.15601410209035
  0
LINE
  8
_1-6_アンカ__類
  6
CONTINUOUS
 62
    4
 10
134.71834874671902
 20
124.07564729729728
 11
135.68997894625451
 21
126.4213520718961
  0
LINE
  8
_1-6_アンカ__類
  6
CONTINUOUS
 62
    4
 10
135.68997894625451
 20
144.27834999999999
 11
135.68997894625451
 21
126.4213520718961
  0
ARC
  8
_1-6_アンカ__類
  6
CONTINUOUS
 62
    4
 10
133.93996080066751
 20
144.71171610536314
 40
0.6666584272642392
 50
90
 51
180
  0
ARC
  8
_1-6_アンカ__類
  6
CONTINUOUS
 62
    4
 10
135.60657523003829
 20
144.71171610536314
 40
0.6666584272642392
 50
0
 51
90
  0
LINE
  8
_1-6_アンカ__類
  6
CONTINUOUS
 62
    4
 10
145.27329853293102
 20
144.27834999999999
 11
144.27327873774522
 21
144.27834999999999
  0
LINE
  8
_1-6_アンカ__類
  6
CONTINUOUS
 62
    4
 10
144.27327873774522
 20
144.27834999999999
 11
144.27327873774522
 21
144.24504459987327
  0
LINE
  8
_1-6_アンカ__類
  6
CONTINUOUS
 62
    4
 10
145.27329853293102
 20
144.27834999999999
 11
145.27329853293102
 21
144.24504459987327
  0
LINE
  8
_1-6_アンカ__類
  6
CONTINUOUS
 62
    4
 10
145.60657523003829
 20
145.37840146748309
 11
143.93996080066751
 21
145.37840146748309
  0
LINE
  8
_1-6_アンカ__類
  6
CONTINUOUS
 62
    4
 10
142.69001028863204
 20
144.61159370513087
 11
146.85652574207376
 21
144.61159370513087
  0
LINE
  8
_1-6_アンカ__類
  6
CONTINUOUS
 62
    4
 10
143.27337441447662
 20
144.71171610536314
 11
143.27337441447662
 21
144.61159370513087
  0
LINE
  8
_1-6_アンカ__類
  6
CONTINUOUS
 62
    4
 10
146.2733430720991
 20
144.71171610536314
 11
146.2733430720991
 21
144.61159370513087
  0
LINE
  8
_1-6_アンカ__類
  6
CONTINUOUS
 62
    4
 10
142.69001028863204
 20
144.61159370513087
 11
142.69001028863204
 21
144.27834999999999
  0
LINE
  8
_1-6_アンカ__類
  6
CONTINUOUS
 62
    4
 10
146.85652574207376
 20
144.61159370513087
 11
146.85652574207376
 21
144.27834999999999
  0
LINE
  8
_1-6_アンカ__類
  6
CONTINUOUS
 62
    4
 10
142.69001028863204
 20
144.27834999999999
 11
146.85652574207376
 21
144.27834999999999
  0
LINE
  8
_1-6_アンカ__類
  6
CONTINUOUS
 62
    4
 10
143.85655708445131
 20
144.27834999999999
 11
143.85655708445131
 21
126.15601410209035
  0
LINE
  8
_1-6_アンカ__類
  6
CONTINUOUS
 62
    4
 10
144.71834874671902
 20
124.07564729729728
 11
143.85655708445131
 21
126.15601410209035
  0
LINE
  8
_1-6_アンカ__類
  6
CONTINUOUS
 62
    4
 10
144.71834874671902
 20
124.07564729729728
 11
145.68997894625451
 21
126.4213520718961
  0
LINE
  8
_1-6_アンカ__類
  6
CONTINUOUS
 62
    4
 10
145.68997894625451
 20
144.27834999999999
 11
145.68997894625451
 21
126.4213520718961
  0
ARC
  8
_1-6_アンカ__類
  6
CONTINUOUS
 62
    4
 10
143.93996080066751
 20
144.71171610536314
 40
0.6666584272642392
 50
90
 51
180
  0
ARC
  8
_1-6_アンカ__類
  6
CONTINUOUS
 62
    4
 10
145.60657523003829
 20
144.71171610536314
 40
0.6666584272642392
 50
0
 51
90
  0
LINE
  8
_1-c_アンカ__類②
  6
CONTINUOUS
 62
    4
 10
136.10642566641218
 20
131.87848817567567
 11
136.10642566641218
 21
131.21181106154984
  0
LINE
  8
_1-c_アンカ__類②
  6
CONTINUOUS
 62
    4
 10
133.43989041778462
 20
141.94499999999999
 11
133.43989041778462
 21
138.72797712996197
  0
LINE
  8
_1-c_アンカ__類②
  6
CONTINUOUS
 62
    4
 10
133.43989041778462
 20
129.54510590424408
 11
136.10642566641218
 21
129.54510590424408
  0
LINE
  8
_1-c_アンカ__類②
  6
CONTINUOUS
 62
    4
 10
136.10642566641218
 20
130.21188199429898
 11
136.10642566641218
 21
129.54510590424408
  0
LINE
  8
_1-c_アンカ__類②
  6
CONTINUOUS
 62
    4
 10
135.77318196128127
 20
134.54511415223817
 11
135.60646525678379
 21
134.37849642366973
  0
LINE
  8
_1-c_アンカ__類②
  6
CONTINUOUS
 62
    4
 10
134.60653618953296
 20
139.94505938555741
 11
134.93977989466384
 21
139.94505938555741
  0
LINE
  8
_1-c_アンカ__類②
  6
CONTINUOUS
 62
    4
 10
134.60653618953296
 20
139.94505938555741
 11
134.60653618953296
 21
129.54510590424408
  0
LINE
  8
_1-c_アンカ__類②
  6
CONTINUOUS
 62
    4
 10
135.60646525678379
 20
132.04511415223817
 11
135.77318196128127
 21
131.87848817567567
  0
LINE
  8
_1-c_アンカ__類②
  6
CONTINUOUS
 62
    4
 10
133.43989041778462
 20
129.54510590424408
 11
133.93985082741301
 21
128.61177938925255
  0
LINE
  8
_1-c_アンカ__類②
  6
CONTINUOUS
 62
    4
 10
135.77318196128127
 20
131.21181106154984
 11
135.60646525678379
 21
131.04518508498734
  0
LINE
  8
_1-c_アンカ__類②
  6
CONTINUOUS
 62
    4
 10
135.60646525678379
 20
130.37850797086148
 11
135.77318196128127
 21
130.21188199429898
  0
LINE
  8
_1-c_アンカ__類②
  6
CONTINUOUS
 62
    4
 10
136.10642566641218
 20
129.54510590424408
 11
135.60646525678379
 21
128.61177938925255
  0
LINE
  8
_1-c_アンカ__類②
  6
CONTINUOUS
 62
    4
 10
137.05572854595187
 20
138.61169690931166
 11
137.43978814265796
 21
138.61169690931166
  0
LINE
  8
_1-c_アンカ__類②
  6
CONTINUOUS
 62
    4
 10
135.77318196128127
 20
131.87848817567567
 11
136.10642566641218
 21
131.87848817567567
  0
LINE
  8
_1-c_アンカ__類②
  6
CONTINUOUS
 62
    4
 10
133.93985082741301
 20
132.711791266364
 11
133.77313412291556
 21
132.54517353779562
  0
LINE
  8
_1-c_アンカ__類②
  6
CONTINUOUS
 62
    4
 10
133.77313412291556
 20
133.54509435705233
 11
133.93985082741301
 21
133.37847662848395
  0
LINE
  8
_1-c_アンカ__類②
  6
CONTINUOUS
 62
    4
 10
133.93985082741301
 20
133.37847662848395
 11
133.93985082741301
 21
132.711791266364
  0
LINE
  8
_1-c_アンカ__類②
  6
CONTINUOUS
 62
    4
 10
132.49058753824494
 20
138.61169690931166
 11
132.10652794153884
 21
138.61169690931166
  0
LINE
  8
_1-c_アンカ__類②
  6
CONTINUOUS
 62
    4
 10
133.77313412291556
 20
138.61169690931166
 11
133.43989041778462
 21
138.72797712996197
  0
LINE
  8
_1-c_アンカ__類②
  6
CONTINUOUS
 62
    4
 10
134.93977989466384
 20
139.94505938555741
 11
134.93977989466384
 21
129.54510590424408
  0
LINE
  8
_1-c_アンカ__類②
  6
CONTINUOUS
 62
    4
 10
133.77313412291556
 20
133.54509435705233
 11
133.43989041778462
 21
133.54509435705233
  0
LINE
  8
_1-c_アンカ__類②
  6
CONTINUOUS
 62
    4
 10
133.77313412291556
 20
134.21177971917228
 11
133.43989041778462
 21
134.21177971917228
  0
LINE
  8
_1-c_アンカ__類②
  6
CONTINUOUS
 62
    4
 10
133.77313412291556
 20
138.61169690931166
 11
133.77313412291556
 21
136.36704655827702
  0
LINE
  8
_1-c_アンカ__類②
  6
CONTINUOUS
 62
    4
 10
132.49058753824494
 20
138.61169690931166
 11
133.77313412291556
 21
136.36704655827702
  0
LINE
  8
_1-c_アンカ__類②
  6
CONTINUOUS
 62
    4
 10
133.77313412291556
 20
130.87846838048986
 11
133.43989041778462
 21
130.87846838048986
  0
LINE
  8
_1-c_アンカ__類②
  6
CONTINUOUS
 62
    4
 10
133.77313412291556
 20
131.87848817567567
 11
133.43989041778462
 21
131.87848817567567
  0
LINE
  8
_1-c_アンカ__類②
  6
CONTINUOUS
 62
    4
 10
133.93985082741301
 20
131.71177147117822
 11
133.93985082741301
 21
131.04518508498734
  0
LINE
  8
_1-c_アンカ__類②
  6
CONTINUOUS
 62
    4
 10
135.77318196128127
 20
138.61169690931166
 11
136.10642566641218
 21
138.72797712996197
  0
LINE
  8
_1-c_アンカ__類②
  6
CONTINUOUS
 62
    4
 10
135.60646525678379
 20
132.711791266364
 11
135.60646525678379
 21
132.04511415223817
  0
LINE
  8
_1-c_アンカ__類②
  6
CONTINUOUS
 62
    4
 10
133.93985082741301
 20
135.04508280986062
 11
133.93985082741301
 21
134.37849642366973
  0
LINE
  8
_1-c_アンカ__類②
  6
CONTINUOUS
 62
    4
 10
133.77313412291556
 20
135.21170053842906
 11
133.43989041778462
 21
135.21170053842906
  0
LINE
  8
_1-c_アンカ__類②
  6
CONTINUOUS
 62
    4
 10
135.77318196128127
 20
133.54509435705233
 11
136.10642566641218
 21
133.54509435705233
  0
LINE
  8
_1-c_アンカ__類②
  6
CONTINUOUS
 62
    4
 10
135.77318196128127
 20
132.8784172429265
 11
136.10642566641218
 21
132.8784172429265
  0
LINE
  8
_1-c_アンカ__類②
  6
CONTINUOUS
 62
    4
 10
133.77313412291556
 20
135.21170053842906
 11
133.93985082741301
 21
135.04508280986062
  0
LINE
  8
_1-c_アンカ__類②
  6
CONTINUOUS
 62
    4
 10
133.93985082741301
 20
134.37849642366973
 11
133.77313412291556
 21
134.21177971917228
  0
LINE
  8
_1-c_アンカ__類②
  6
CONTINUOUS
 62
    4
 10
133.77313412291556
 20
131.87848817567567
 11
133.93985082741301
 21
131.71177147117822
  0
LINE
  8
_1-c_アンカ__類②
  6
CONTINUOUS
 62
    4
 10
133.93985082741301
 20
131.04518508498734
 11
133.77313412291556
 21
130.87846838048986
  0
LINE
  8
_1-c_アンカ__類②
  6
CONTINUOUS
 62
    4
 10
137.43978814265796
 20
138.61169690931166
 11
136.10642566641218
 21
136.27831463788004
  0
LINE
  8
_1-c_アンカ__類②
  6
CONTINUOUS
 62
    4
 10
137.05572854595187
 20
138.61169690931166
 11
135.77318196128127
 21
136.36704655827702
  0
LINE
  8
_1-c_アンカ__類②
  6
CONTINUOUS
 62
    4
 10
136.10642566641218
 20
136.27831463788004
 11
136.10642566641218
 21
134.54511415223817
  0
LINE
  8
_1-c_アンカ__類②
  6
CONTINUOUS
 62
    4
 10
135.77318196128127
 20
138.61169690931166
 11
135.77318196128127
 21
136.36704655827702
  0
LINE
  8
_1-c_アンカ__類②
  6
CONTINUOUS
 62
    4
 10
132.10652794153884
 20
138.61169690931166
 11
133.43989041778462
 21
136.27831463788004
  0
LINE
  8
_1-c_アンカ__類②
  6
CONTINUOUS
 62
    4
 10
135.60646525678379
 20
131.04518508498734
 11
135.60646525678379
 21
130.37850797086148
  0
LINE
  8
_1-c_アンカ__類②
  6
CONTINUOUS
 62
    4
 10
135.60646525678379
 20
134.37849642366973
 11
135.60646525678379
 21
133.71172033361483
  0
LINE
  8
_1-c_アンカ__類②
  6
CONTINUOUS
 62
    4
 10
135.77318196128127
 20
132.8784172429265
 11
135.60646525678379
 21
132.711791266364
  0
LINE
  8
_1-c_アンカ__類②
  6
CONTINUOUS
 62
    4
 10
135.77318196128127
 20
134.54511415223817
 11
136.10642566641218
 21
134.54511415223817
  0
LINE
  8
_1-c_アンカ__類②
  6
CONTINUOUS
 62
    4
 10
135.77318196128127
 20
131.21181106154984
 11
136.10642566641218
 21
131.21181106154984
  0
LINE
  8
_1-c_アンカ__類②
  6
CONTINUOUS
 62
    4
 10
135.77318196128127
 20
130.21188199429898
 11
136.10642566641218
 21
130.21188199429898
  0
LINE
  8
_1-c_アンカ__類②
  6
CONTINUOUS
 62
    4
 10
135.60646525678379
 20
133.71172033361483
 11
135.77318196128127
 21
133.54509435705233
  0
LINE
  8
_1-c_アンカ__類②
  6
CONTINUOUS
 62
    4
 10
133.77313412291556
 20
132.54517353779562
 11
133.43989041778462
 21
132.54517353779562
  0
LINE
  8
_1-c_アンカ__類②
  6
CONTINUOUS
 62
    4
 10
133.93985082741301
 20
128.61177938925255
 11
135.60646525678379
 21
128.61177938925255
  0
LINE
  8
_1-c_アンカ__類②
  6
CONTINUOUS
 62
    4
 10
133.43989041778462
 20
141.3480019399282
 11
133.21264993267062
 21
141.94499999999999
  0
LINE
  8
_1-c_アンカ__類②
  6
CONTINUOUS
 62
    4
 10
136.10642566641218
 20
141.3480019399282
 11
136.33384760739614
 21
141.94499999999999
  0
LINE
  8
_1-c_アンカ__類②
  6
CONTINUOUS
 62
    4
 10
133.43989041778462
 20
136.27831463788004
 11
133.43989041778462
 21
135.21170053842906
  0
LINE
  8
_1-c_アンカ__類②
  6
CONTINUOUS
 62
    4
 10
136.10642566641218
 20
141.94499999999999
 11
136.10642566641218
 21
138.72797712996197
  0
LINE
  8
_1-c_アンカ__類②
  6
CONTINUOUS
 62
    4
 10
133.43989041778462
 20
134.21177971917228
 11
133.43989041778462
 21
133.54509435705233
  0
LINE
  8
_1-c_アンカ__類②
  6
CONTINUOUS
 62
    4
 10
133.43989041778462
 20
132.54517353779562
 11
133.43989041778462
 21
131.87848817567567
  0
LINE
  8
_1-c_アンカ__類②
  6
CONTINUOUS
 62
    4
 10
133.43989041778462
 20
130.87846838048986
 11
133.43989041778462
 21
129.54510590424408
  0
LINE
  8
_1-c_アンカ__類②
  6
CONTINUOUS
 62
    4
 10
136.10642566641218
 20
133.54509435705233
 11
136.10642566641218
 21
132.8784172429265
  0
LINE
  8
_1-c_アンカ__類②
  6
CONTINUOUS
 62
    4
 10
133.21264993267062
 20
141.94499999999999
 11
136.33384760739614
 21
141.94499999999999
  0
LINE
  8
_1-c_アンカ__類②
  6
CONTINUOUS
 62
    4
 10
146.10642566641218
 20
131.87848817567567
 11
146.10642566641218
 21
131.21181106154984
  0
LINE
  8
_1-c_アンカ__類②
  6
CONTINUOUS
 62
    4
 10
143.43989041778462
 20
141.94499999999999
 11
143.43989041778462
 21
138.72797712996197
  0
LINE
  8
_1-c_アンカ__類②
  6
CONTINUOUS
 62
    4
 10
143.43989041778462
 20
129.54510590424408
 11
146.10642566641218
 21
129.54510590424408
  0
LINE
  8
_1-c_アンカ__類②
  6
CONTINUOUS
 62
    4
 10
146.10642566641218
 20
130.21188199429898
 11
146.10642566641218
 21
129.54510590424408
  0
LINE
  8
_1-c_アンカ__類②
  6
CONTINUOUS
 62
    4
 10
145.77318196128127
 20
134.54511415223817
 11
145.60646525678379
 21
134.37849642366973
  0
LINE
  8
_1-c_アンカ__類②
  6
CONTINUOUS
 62
    4
 10
144.60653618953296
 20
139.94505938555741
 11
144.93977989466384
 21
139.94505938555741
  0
LINE
  8
_1-c_アンカ__類②
  6
CONTINUOUS
 62
    4
 10
144.60653618953296
 20
139.94505938555741
 11
144.60653618953296
 21
129.54510590424408
  0
LINE
  8
_1-c_アンカ__類②
  6
CONTINUOUS
 62
    4
 10
145.60646525678379
 20
132.04511415223817
 11
145.77318196128127
 21
131.87848817567567
  0
LINE
  8
_1-c_アンカ__類②
  6
CONTINUOUS
 62
    4
 10
143.43989041778462
 20
129.54510590424408
 11
143.93985082741301
 21
128.61177938925255
  0
LINE
  8
_1-c_アンカ__類②
  6
CONTINUOUS
 62
    4
 10
145.77318196128127
 20
131.21181106154984
 11
145.60646525678379
 21
131.04518508498734
  0
LINE
  8
_1-c_アンカ__類②
  6
CONTINUOUS
 62
    4
 10
145.60646525678379
 20
130.37850797086148
 11
145.77318196128127
 21
130.21188199429898
  0
LINE
  8
_1-c_アンカ__類②
  6
CONTINUOUS
 62
    4
 10
146.10642566641218
 20
129.54510590424408
 11
145.60646525678379
 21
128.61177938925255
  0
LINE
  8
_1-c_アンカ__類②
  6
CONTINUOUS
 62
    4
 10
147.05572854595187
 20
138.61169690931166
 11
147.43978814265796
 21
138.61169690931166
  0
LINE
  8
_1-c_アンカ__類②
  6
CONTINUOUS
 62
    4
 10
145.77318196128127
 20
131.87848817567567
 11
146.10642566641218
 21
131.87848817567567
  0
LINE
  8
_1-c_アンカ__類②
  6
CONTINUOUS
 62
    4
 10
143.93985082741301
 20
132.711791266364
 11
143.77313412291556
 21
132.54517353779562
  0
LINE
  8
_1-c_アンカ__類②
  6
CONTINUOUS
 62
    4
 10
143.77313412291556
 20
133.54509435705233
 11
143.93985082741301
 21
133.37847662848395
  0
LINE
  8
_1-c_アンカ__類②
  6
CONTINUOUS
 62
    4
 10
143.93985082741301
 20
133.37847662848395
 11
143.93985082741301
 21
132.711791266364
  0
LINE
  8
_1-c_アンカ__類②
  6
CONTINUOUS
 62
    4
 10
142.49058753824494
 20
138.61169690931166
 11
142.10652794153884
 21
138.61169690931166
  0
LINE
  8
_1-c_アンカ__類②
  6
CONTINUOUS
 62
    4
 10
143.77313412291556
 20
138.61169690931166
 11
143.43989041778462
 21
138.72797712996197
  0
LINE
  8
_1-c_アンカ__類②
  6
CONTINUOUS
 62
    4
 10
144.93977989466384
 20
139.94505938555741
 11
144.93977989466384
 21
129.54510590424408
  0
LINE
  8
_1-c_アンカ__類②
  6
CONTINUOUS
 62
    4
 10
143.77313412291556
 20
133.54509435705233
 11
143.43989041778462
 21
133.54509435705233
  0
LINE
  8
_1-c_アンカ__類②
  6
CONTINUOUS
 62
    4
 10
143.77313412291556
 20
134.21177971917228
 11
143.43989041778462
 21
134.21177971917228
  0
LINE
  8
_1-c_アンカ__類②
  6
CONTINUOUS
 62
    4
 10
143.77313412291556
 20
138.61169690931166
 11
143.77313412291556
 21
136.36704655827702
  0
LINE
  8
_1-c_アンカ__類②
  6
CONTINUOUS
 62
    4
 10
142.49058753824494
 20
138.61169690931166
 11
143.77313412291556
 21
136.36704655827702
  0
LINE
  8
_1-c_アンカ__類②
  6
CONTINUOUS
 62
    4
 10
143.77313412291556
 20
130.87846838048986
 11
143.43989041778462
 21
130.87846838048986
  0
LINE
  8
_1-c_アンカ__類②
  6
CONTINUOUS
 62
    4
 10
143.77313412291556
 20
131.87848817567567
 11
143.43989041778462
 21
131.87848817567567
  0
LINE
  8
_1-c_アンカ__類②
  6
CONTINUOUS
 62
    4
 10
143.93985082741301
 20
131.71177147117822
 11
143.93985082741301
 21
131.04518508498734
  0
LINE
  8
_1-c_アンカ__類②
  6
CONTINUOUS
 62
    4
 10
145.77318196128127
 20
138.61169690931166
 11
146.10642566641218
 21
138.72797712996197
  0
LINE
  8
_1-c_アンカ__類②
  6
CONTINUOUS
 62
    4
 10
145.60646525678379
 20
132.711791266364
 11
145.60646525678379
 21
132.04511415223817
  0
LINE
  8
_1-c_アンカ__類②
  6
CONTINUOUS
 62
    4
 10
143.93985082741301
 20
135.04508280986062
 11
143.93985082741301
 21
134.37849642366973
  0
LINE
  8
_1-c_アンカ__類②
  6
CONTINUOUS
 62
    4
 10
143.77313412291556
 20
135.21170053842906
 11
143.43989041778462
 21
135.21170053842906
  0
LINE
  8
_1-c_アンカ__類②
  6
CONTINUOUS
 62
    4
 10
145.77318196128127
 20
133.54509435705233
 11
146.10642566641218
 21
133.54509435705233
  0
LINE
  8
_1-c_アンカ__類②
  6
CONTINUOUS
 62
    4
 10
145.77318196128127
 20
132.8784172429265
 11
146.10642566641218
 21
132.8784172429265
  0
LINE
  8
_1-c_アンカ__類②
  6
CONTINUOUS
 62
    4
 10
143.77313412291556
 20
135.21170053842906
 11
143.93985082741301
 21
135.04508280986062
  0
LINE
  8
_1-c_アンカ__類②
  6
CONTINUOUS
 62
    4
 10
143.93985082741301
 20
134.37849642366973
 11
143.77313412291556
 21
134.21177971917228
  0
LINE
  8
_1-c_アンカ__類②
  6
CONTINUOUS
 62
    4
 10
143.77313412291556
 20
131.87848817567567
 11
143.93985082741301
 21
131.71177147117822
  0
LINE
  8
_1-c_アンカ__類②
  6
CONTINUOUS
 62
    4
 10
143.93985082741301
 20
131.04518508498734
 11
143.77313412291556
 21
130.87846838048986
  0
LINE
  8
_1-c_アンカ__類②
  6
CONTINUOUS
 62
    4
 10
147.43978814265796
 20
138.61169690931166
 11
146.10642566641218
 21
136.27831463788004
  0
LINE
  8
_1-c_アンカ__類②
  6
CONTINUOUS
 62
    4
 10
147.05572854595187
 20
138.61169690931166
 11
145.77318196128127
 21
136.36704655827702
  0
LINE
  8
_1-c_アンカ__類②
  6
CONTINUOUS
 62
    4
 10
146.10642566641218
 20
136.27831463788004
 11
146.10642566641218
 21
134.54511415223817
  0
LINE
  8
_1-c_アンカ__類②
  6
CONTINUOUS
 62
    4
 10
145.77318196128127
 20
138.61169690931166
 11
145.77318196128127
 21
136.36704655827702
  0
LINE
  8
_1-c_アンカ__類②
  6
CONTINUOUS
 62
    4
 10
142.10652794153884
 20
138.61169690931166
 11
143.43989041778462
 21
136.27831463788004
  0
LINE
  8
_1-c_アンカ__類②
  6
CONTINUOUS
 62
    4
 10
145.60646525678379
 20
131.04518508498734
 11
145.60646525678379
 21
130.37850797086148
  0
LINE
  8
_1-c_アンカ__類②
  6
CONTINUOUS
 62
    4
 10
145.60646525678379
 20
134.37849642366973
 11
145.60646525678379
 21
133.71172033361483
  0
LINE
  8
_1-c_アンカ__類②
  6
CONTINUOUS
 62
    4
 10
145.77318196128127
 20
132.8784172429265
 11
145.60646525678379
 21
132.711791266364
  0
LINE
  8
_1-c_アンカ__類②
  6
CONTINUOUS
 62
    4
 10
145.77318196128127
 20
134.54511415223817
 11
146.10642566641218
 21
134.54511415223817
  0
LINE
  8
_1-c_アンカ__類②
  6
CONTINUOUS
 62
    4
 10
145.77318196128127
 20
131.21181106154984
 11
146.10642566641218
 21
131.21181106154984
  0
LINE
  8
_1-c_アンカ__類②
  6
CONTINUOUS
 62
    4
 10
145.77318196128127
 20
130.21188199429898
 11
146.10642566641218
 21
130.21188199429898
  0
LINE
  8
_1-c_アンカ__類②
  6
CONTINUOUS
 62
    4
 10
145.60646525678379
 20
133.71172033361483
 11
145.77318196128127
 21
133.54509435705233
  0
LINE
  8
_1-c_アンカ__類②
  6
CONTINUOUS
 62
    4
 10
143.77313412291556
 20
132.54517353779562
 11
143.43989041778462
 21
132.54517353779562
  0
LINE
  8
_1-c_アンカ__類②
  6
CONTINUOUS
 62
    4
 10
143.93985082741301
 20
128.61177938925255
 11
145.60646525678379
 21
128.61177938925255
  0
LINE
  8
_1-c_アンカ__類②
  6
CONTINUOUS
 62
    4
 10
143.43989041778462
 20
141.3480019399282
 11
143.21264993267062
 21
141.94499999999999
  0
LINE
  8
_1-c_アンカ__類②
  6
CONTINUOUS
 62
    4
 10
146.10642566641218
 20
141.3480019399282
 11
146.33384760739614
 21
141.94499999999999
  0
LINE
  8
_1-c_アンカ__類②
  6
CONTINUOUS
 62
    4
 10
143.43989041778462
 20
136.27831463788004
 11
143.43989041778462
 21
135.21170053842906
  0
LINE
  8
_1-c_アンカ__類②
  6
CONTINUOUS
 62
    4
 10
146.10642566641218
 20
141.94499999999999
 11
146.10642566641218
 21
138.72797712996197
  0
LINE
  8
_1-c_アンカ__類②
  6
CONTINUOUS
 62
    4
 10
143.43989041778462
 20
134.21177971917228
 11
143.43989041778462
 21
133.54509435705233
  0
LINE
  8
_1-c_アンカ__類②
  6
CONTINUOUS
 62
    4
 10
143.43989041778462
 20
132.54517353779562
 11
143.43989041778462
 21
131.87848817567567
  0
LINE
  8
_1-c_アンカ__類②
  6
CONTINUOUS
 62
    4
 10
143.43989041778462
 20
130.87846838048986
 11
143.43989041778462
 21
129.54510590424408
  0
LINE
  8
_1-c_アンカ__類②
  6
CONTINUOUS
 62
    4
 10
146.10642566641218
 20
133.54509435705233
 11
146.10642566641218
 21
132.8784172429265
  0
LINE
  8
_1-c_アンカ__類②
  6
CONTINUOUS
 62
    4
 10
143.21264993267062
 20
141.94499999999999
 11
146.33384760739614
 21
141.94499999999999
  0
ENDSEC
  0
EOF
