  0
SECTION
  2
HEADER
  9
$ACADVER
  1
AC1009
  9
$INSBASE
 10
0
 20
0
 30
0
  9
$EXTMIN
 10
0
 20
0
  9
$EXTMAX
 10
297
 20
210
  9
$LIMMIN
 10
0
 20
0
  9
$LIMMAX
 10
297
 20
210
  9
$LTSCALE
 40
1
  0
ENDSEC
  0
SECTION
  2
TABLES
  0
TABLE
  2
LTYPE
 70
     9
  0
LTYPE
  2
CONTINUOUS
 70
    64
  3
実線
 72
    65
 73
     0
 40
0.0
  0
LTYPE
  2
DASHED1
 70
    64
  3
--  --  --  --  --  --  --  --  
 72
    65
 73
     2
 40
2.5
 49
1.25
 49
-1.25
  0
LTYPE
  2
DASHED2
 70
    64
  3
----    ----    ----    ----    
 72
    65
 73
     2
 40
5.0
 49
2.5
 49
-2.5
  0
LTYPE
  2
DASHED3
 70
    64
  3
------  ------  ------  ------  
 72
    65
 73
     2
 40
5.0
 49
3.75
 49
-1.25
  0
LTYPE
  2
CENTER1
 70
    64
  3
----- - ----- - ----- - ----- - 
 72
    65
 73
     4
 40
10.0
 49
6.25
 49
-1.25
 49
1.25
 49
-1.25
  0
LTYPE
  2
CENTER2
 70
    64
  3
----------  --  ----------  --  
 72
    65
 73
     4
 40
20.0
 49
12.5
 49
-2.5
 49
2.5
 49
-2.5
  0
LTYPE
  2
PHANTOM1
 70
    64
  3
--- - - --- - - --- - - --- - - 
 72
    65
 73
     6
 40
10.0
 49
3.25
 49
-1.25
 49
1.25
 49
-1.25
 49
1.25
 49
-1.25
  0
LTYPE
  2
PHANTOM2
 70
    64
  3
--------  -  -  --------  -  -  
 72
    65
 73
     6
 40
20.0
 49
10.0
 49
-2.5
 49
1.25
 49
-2.5
 49
1.25
 49
-2.5
  0
LTYPE
  2
DOT
 70
    64
  3
-   -   -   -   -   -   -   -   
 72
    65
 73
     2
 40
2.5
 49
0.625
 49
-1.875
  0
LTYPE
  2
DUMMY
 70
    64
  3
ダミー
 72
    65
 73
     0
 40
0.0
  0
LTYPE
  2
RAND1
 70
    64
  3
ランダム線1
 72
    65
 73
     4
 40
10.0
 49
1.0
 49
-2.0
 49
3.0
 49
-4.0
  0
LTYPE
  2
RAND2
 70
    64
  3
ランダム線2
 72
    65
 73
     4
 40
14.0
 49
2.0
 49
-3.0
 49
4.0
 49
-5.0
  0
LTYPE
  2
RAND3
 70
    64
  3
ランダム線3
 72
    65
 73
     4
 40
18.0
 49
3.0
 49
-4.0
 49
5.0
 49
-6.0
  0
LTYPE
  2
RAND4
 70
    64
  3
ランダム線4
 72
    65
 73
     4
 40
22.0
 49
4.0
 49
-5.0
 49
6.0
 49
-7.0
  0
LTYPE
  2
RAND5
 70
    64
  3
ランダム線5
 72
    65
 73
     4
 40
26.0
 49
5.0
 49
-6.0
 49
7.0
 49
-8.0
  0
LTYPE
  2
LONG1
 70
    64
  3
----------  --  ----------  --  
 72
    65
 73
     4
 40
40.0
 49
32.5
 49
-2.5
 49
2.5
 49
-2.5
  0
LTYPE
  2
LONG2
 70
    64
  3
--------  -  -  --------  -  -  
 72
    65
 73
     6
 40
40.0
 49
30.0
 49
-2.5
 49
1.25
 49
-2.5
 49
1.25
 49
-2.5
  0
LTYPE
  2
LONG3
 70
    64
  3
+++++++++++++++..+++++++++++++++
 72
    65
 73
     2
 40
40.0
 49
37.5
 49
-2.5
  0
LTYPE
  2
LONG4
 70
    64
  3
+++++++++++++++..+++++++++++++++
 72
    65
 73
     2
 40
80.0
 49
75.0
 49
-5.0
  0
LTYPE
  2
LONG5
 70
    64
  3
----------  --  ----------  --  
 72
    65
 73
     4
 40
60.0
 49
37.5
 49
-7.5
 49
7.5
 49
-7.5
  0
LTYPE
  2
dashed
 70
   64
  3
-------   -------------   ------
 72
   65
 73
    2
 40
7.5
 49
6
 49
-1.5
  0
LTYPE
  2
dashed_spaced
 70
   64
  3
----        --------        ----
 72
   65
 73
    2
 40
12
 49
6
 49
-6
  0
LTYPE
  2
long_dashed_dotted
 70
   64
  3
------------- --- --------------
 72
   65
 73
    4
 40
15.25
 49
12
 49
-1.5
 49
0.25
 49
-1.5
  0
LTYPE
  2
long_dashed_double-dotted
 70
   64
  3
----------- --- --- ------------
 72
   65
 73
    6
 40
17
 49
12
 49
-1.5
 49
0.25
 49
-1.5
 49
0.25
 49
-1.5
  0
LTYPE
  2
long_dashed_triplicate-dotted
 70
   64
  3
--------- --- --- --- ----------
 72
   65
 73
    8
 40
18.75
 49
12
 49
-1.5
 49
0.25
 49
-1.5
 49
0.25
 49
-1.5
 49
0.25
 49
-1.5
  0
LTYPE
  2
dotted
 70
   64
  3
   -       -       -       -    
 72
   65
 73
    2
 40
1.75
 49
0.25
 49
-1.5
  0
LTYPE
  2
chain
 70
   64
  3
-------------- -- --------------
 72
   65
 73
    4
 40
18.5
 49
12
 49
-1.5
 49
3.5
 49
-1.5
  0
LTYPE
  2
chain_double_dash
 70
   64
  3
------------ -- -- -------------
 72
   65
 73
    6
 40
23.5
 49
12
 49
-1.5
 49
3.5
 49
-1.5
 49
3.5
 49
-1.5
  0
LTYPE
  2
dashed_dotted
 70
   64
  3
-----------     -     ----------
 72
   65
 73
    4
 40
9.25
 49
6
 49
-1.5
 49
0.25
 49
-1.5
  0
LTYPE
  2
double-dashed_dotted
 70
   64
  3
------   -----------   -   -----
 72
   65
 73
    6
 40
16.75
 49
6
 49
-1.5
 49
6
 49
-1.5
 49
0.25
 49
-1.5
  0
LTYPE
  2
dashed_double-dotted
 70
   64
  3
---------    -    -    ---------
 72
   65
 73
    6
 40
11
 49
6
 49
-1.5
 49
0.25
 49
-1.5
 49
0.25
 49
-1.5
  0
LTYPE
  2
double-dashed_double-dotted
 70
   64
  3
-----   ---------   -   -   ----
 72
   65
 73
    8
 40
18.5
 49
6
 49
-1.5
 49
6
 49
-1.5
 49
0.25
 49
-1.5
 49
0.25
 49
-1.5
  0
LTYPE
  2
dashed_triplicate-dotted
 70
   64
  3
-------    -    -    -    ------
 72
   65
 73
    8
 40
12.75
 49
6
 49
-1.5
 49
0.25
 49
-1.5
 49
0.25
 49
-1.5
 49
0.25
 49
-1.5
  0
LTYPE
  2
double-dashed_triplicate-dotted
 70
   64
  3
-----  ---------  -  -  -  -----
 72
   65
 73
   10
 40
20.25
 49
6
 49
-1.5
 49
6
 49
-1.5
 49
0.25
 49
-1.5
 49
0.25
 49
-1.5
 49
0.25
 49
-1.5
  0
LTYPE
  2
undefined
 70
   64
  3
--------------------------------
 72
   65
 73
    0
 40
0
  0
LTYPE
  2
AIGENLINE001
 70
   64
  3
                                
 72
   65
 73
    4
 40
4.2333600000000002
 49
2.1166800000000001
 49
-0.7055599999999999
 49
0.7055599999999999
 49
-0.7055599999999999
  0
LTYPE
  2
2-AXIS
 70
   64
  3
                                
 72
   65
 73
    0
 40
0
  0
LTYPE
  2
BORDER
 70
   64
  3
                                
 72
   65
 73
    0
 40
0
  0
LTYPE
  2
BORDER2
 70
   64
  3
                                
 72
   65
 73
    0
 40
0
  0
LTYPE
  2
BORDERX2
 70
   64
  3
                                
 72
   65
 73
    0
 40
0
  0
LTYPE
  2
CENTER
 70
   64
  3
                                
 72
   65
 73
    0
 40
0
  0
LTYPE
  2
CENTER2_23
 70
   64
  3
                                
 72
   65
 73
    0
 40
0
  0
LTYPE
  2
CENTERX2
 70
   64
  3
                                
 72
   65
 73
    0
 40
0
  0
LTYPE
  2
DASHDOT
 70
   64
  3
                                
 72
   65
 73
    0
 40
0
  0
LTYPE
  2
DASHDOT2
 70
   64
  3
                                
 72
   65
 73
    0
 40
0
  0
LTYPE
  2
DASHDOTX2
 70
   64
  3
                                
 72
   65
 73
    0
 40
0
  0
LTYPE
  2
DASHED
 70
   64
  3
                                
 72
   65
 73
    0
 40
0
  0
LTYPE
  2
DASHED2_29
 70
   64
  3
                                
 72
   65
 73
    0
 40
0
  0
LTYPE
  2
DASHEDX2
 70
   64
  3
                                
 72
   65
 73
    0
 40
0
  0
LTYPE
  2
DIVIDE
 70
   64
  3
                                
 72
   65
 73
    0
 40
0
  0
LTYPE
  2
DIVIDE2
 70
   64
  3
                                
 72
   65
 73
    0
 40
0
  0
ENDTAB
  0
TABLE
  2
STYLE
  5
3
100
AcDbSymbolTable
 70
     1
  0
STYLE
  5
10
100
AcDbSymbolTableRecord
100
AcDbTextStyleTableRecord
  2
STANDARD
 70
     0
 40
0.0
 41
1.0
 50
0.0
 71
     0
 42
0.2
  3
txt
  4
bigfont.shx
  0
STYLE
  5
26
100
AcDbSymbolTableRecord
100
AcDbTextStyleTableRecord
  2
TATEGAKI
 70
    68
 40
0.0
 41
1.0
 50
0.0
 71
     0
 42
1.0
  3
txt
  4
bigfont.shx
  0
ENDTAB
  0
TABLE
  2
LAYER
 70
   10
  0
LAYER
  2
_1-2_ハッチング
 70
   64
 62
    7
  6
CONTINUOUS
  0
LAYER
  2
_1-4_リベットル__フ
 70
   64
 62
    7
  6
CONTINUOUS
  0
LAYER
  2
_1-6_アンカ__類
 70
   64
 62
    7
  6
CONTINUOUS
  0
LAYER
  2
_1-7_設備
 70
   64
 62
    7
  6
CONTINUOUS
  0
LAYER
  2
_1-a_元図__躯体
 70
   64
 62
    7
  6
CONTINUOUS
  0
LAYER
  2
_1-b_その他
 70
   64
 62
    7
  6
CONTINUOUS
  0
LAYER
  2
_1-c_アンカ__類②
 70
   64
 62
    7
  6
CONTINUOUS
  0
LAYER
  2
_e-e_
 70
   64
 62
    7
  6
CONTINUOUS
  0
LAYER
  2
_f-f_
 70
   64
 62
    7
  6
CONTINUOUS
  0
LAYER
  2
ADD_LINE
 70
   64
 62
    7
  6
CONTINUOUS
  0
ENDTAB
  0
ENDSEC
  0
SECTION
  2
BLOCKS
  0
ENDSEC
  0
SECTION
  2
ENTITIES
  0
LINE
  8
_f-f_
  6
CONTINUOUS
 62
    7
 10
13.5
 20
197
 11
13.5
 21
17
  0
LINE
  8
_f-f_
  6
CONTINUOUS
 62
    7
 10
13.5
 20
197
 11
283.5
 21
197
  0
LINE
  8
_f-f_
  6
CONTINUOUS
 62
    7
 10
283.5
 20
197
 11
283.5
 21
17
  0
LINE
  8
_f-f_
  6
CONTINUOUS
 62
    7
 10
283.5
 20
17
 11
13.5
 21
17
  0
SOLID
  8
_f-f_
  6
CONTINUOUS
 62
    5
 10
236.97536482015869
 20
15.135014055698207
 11
235.41260194015859
 21
14.597233959698244
 12
233.7490795136022
 22
12.030232905347191
 13
233.7490795136022
 23
12.030232905347191
  0
SOLID
  8
_f-f_
  6
CONTINUOUS
 62
    5
 10
236.97536482015869
 20
15.135014055698207
 11
235.44783384279719
 21
14.653922266010412
 12
235.41260194015859
 22
14.597233959698244
 13
235.41260194015859
 23
14.597233959698244
  0
SOLID
  8
_f-f_
  6
CONTINUOUS
 62
    5
 10
236.97536482015869
 20
15.135014055698207
 11
235.44348964523115
 21
14.814711211354776
 12
235.44783384279719
 22
14.653922266010412
 13
235.44783384279719
 23
14.653922266010412
  0
SOLID
  8
_f-f_
  6
CONTINUOUS
 62
    5
 10
236.97536482015869
 20
15.135014055698207
 11
235.37802752940809
 21
14.882325091646777
 12
235.44348964523115
 22
14.814711211354776
 13
235.44348964523115
 23
14.814711211354776
  0
SOLID
  8
_f-f_
  6
CONTINUOUS
 62
    5
 10
236.97536482015869
 20
15.135014055698207
 11
235.23671672676957
 21
14.943561152901822
 12
235.37802752940809
 22
14.882325091646777
 13
235.37802752940809
 23
14.882325091646777
  0
SOLID
  8
_f-f_
  6
CONTINUOUS
 62
    5
 10
236.97536482015869
 20
15.135014055698207
 11
231.75858153825016
 21
14.827104307519747
 12
235.23671672676957
 22
14.943561152901822
 13
235.23671672676957
 23
14.943561152901822
  0
SOLID
  8
_f-f_
  6
CONTINUOUS
 62
    5
 10
236.97536482015869
 20
15.135014055698207
 11
232.06580002015863
 21
15.134816487698203
 12
231.75858153825016
 22
14.827104307519747
 13
231.75858153825016
 23
14.827104307519747
  0
SOLID
  8
_f-f_
  6
CONTINUOUS
 62
    5
 10
233.7490795136022
 20
12.030232905347191
 11
237.28752157062101
 21
14.827697368205875
 12
236.97536482015869
 22
15.135014055698207
 13
236.97536482015869
 23
15.135014055698207
  0
SOLID
  8
_f-f_
  6
CONTINUOUS
 62
    5
 10
233.7490795136022
 20
12.030232905347191
 11
237.23911742342443
 21
14.662629348534509
 12
237.28752157062101
 22
14.827697368205875
 13
237.28752157062101
 23
14.827697368205875
  0
SOLID
  8
_f-f_
  6
CONTINUOUS
 62
    5
 10
233.7490795136022
 20
12.030232905347191
 11
234.52749735533226
 21
10.733752628573797
 12
234.7892749001586
 22
10.88042668929819
 13
234.7892749001586
 23
10.88042668929819
  0
SOLID
  8
_f-f_
  6
CONTINUOUS
 62
    5
 10
233.7490795136022
 20
12.030232905347191
 11
234.31609954015863
 21
10.81863729729821
 12
234.52749735533226
 22
10.733752628573797
 13
234.52749735533226
 23
10.733752628573797
  0
SOLID
  8
_f-f_
  6
CONTINUOUS
 62
    5
 10
233.7490795136022
 20
12.030232905347191
 11
233.74611586015862
 21
11.682740458898223
 12
234.31609954015863
 22
10.81863729729821
 13
234.31609954015863
 23
10.81863729729821
  0
SOLID
  8
_f-f_
  6
CONTINUOUS
 62
    5
 10
233.7490795136022
 20
12.030232905347191
 11
233.69277264325217
 21
11.856303946266479
 12
233.74611586015862
 22
11.682740458898223
 13
233.74611586015862
 23
11.682740458898223
  0
SOLID
  8
_f-f_
  6
CONTINUOUS
 62
    5
 10
231.75858153825016
 20
14.827104307519747
 11
235.08661474015867
 21
14.909095047698244
 12
235.23671672676957
 22
14.943561152901822
 13
235.23671672676957
 23
14.943561152901822
  0
SOLID
  8
_f-f_
  6
CONTINUOUS
 62
    5
 10
231.75858153825016
 20
14.827104307519747
 11
233.61868450015868
 21
12.669167847698219
 12
235.08661474015867
 22
14.909095047698244
 13
235.08661474015867
 23
14.909095047698244
  0
SOLID
  8
_f-f_
  6
CONTINUOUS
 62
    5
 10
231.75858153825016
 20
14.827104307519747
 11
233.36184569383056
 21
12.528992955061909
 12
233.61868450015868
 22
12.669167847698219
 13
233.61868450015868
 23
12.669167847698219
  0
SOLID
  8
_f-f_
  6
CONTINUOUS
 62
    5
 10
231.75858153825016
 20
14.827104307519747
 11
233.14254562015859
 21
12.622541799698183
 12
233.36184569383056
 22
12.528992955061909
 13
233.36184569383056
 23
12.528992955061909
  0
SOLID
  8
_f-f_
  6
CONTINUOUS
 62
    5
 10
231.75858153825016
 20
14.827104307519747
 11
231.79611970015864
 21
14.683571175698262
 12
233.14254562015859
 22
12.622541799698183
 13
233.14254562015859
 23
12.622541799698183
  0
ARC
  8
_f-f_
  6
CONTINUOUS
 62
    1
 10
235.22789232415863
 20
14.712033315698221
 40
0.217477092
 50
328.13846999999998
 51
2.2615330000000116
  0
ARC
  8
_f-f_
  6
CONTINUOUS
 62
    1
 10
235.20651958255868
 20
14.716275265298208
 40
0.2387205912
 50
1.0417719999999999
 51
44.073639999999997
  0
ARC
  8
_f-f_
  6
CONTINUOUS
 62
    1
 10
235.19156286175863
 20
14.452033827698216
 40
0.4689556368
 50
66.570734999999999
 51
102.931843
  0
ARC
  8
_f-f_
  6
CONTINUOUS
 62
    1
 10
237.02758780495867
 20
14.814288750098285
 40
0.260279376
 50
324.36078900000001
 51
2.9529709999999993
  0
ARC
  8
_f-f_
  6
CONTINUOUS
 62
    1
 10
232.07207198095867
 20
14.832415614098267
 40
0.3135354768
 50
180.97063600000004
 51
208.34173000000004
  0
ARC
  8
_f-f_
  6
CONTINUOUS
 62
    1
 10
233.98573291615867
 20
11.857541216498191
 40
0.2929628856
 50
143.88086999999999
 51
180.24197799999999
  0
ARC
  8
_f-f_
  6
CONTINUOUS
 62
    1
 10
234.52945733935863
 20
11.04430852209822
 40
0.3105620784
 50
226.60652999999999
 51
269.63839899999999
  0
ARC
  8
_f-f_
  6
CONTINUOUS
 62
    1
 10
234.52688648575864
 20
11.041782944498237
 40
0.3080315616
 50
270.11356000000001
 51
328.41042499999998
  0
ARC
  8
_f-f_
  6
CONTINUOUS
 62
    1
 10
234.00220761775864
 20
11.856427426898193
 40
0.3094359408
 50
180.022864
 51
214.145926
  0
ARC
  8
_f-f_
  6
CONTINUOUS
 62
    1
 10
233.36445399775863
 20
12.838928151698155
 40
0.3099455016
 50
224.27817500000003
 51
269.51790500000004
  0
ARC
  8
_f-f_
  6
CONTINUOUS
 62
    1
 10
233.35885129855865
 20
12.839866599698212
 40
0.3108880655999999
 50
270.55186700000002
 51
326.69684100000006
  0
ARC
  8
_f-f_
  6
CONTINUOUS
 62
    1
 10
236.97555497935861
 20
14.823012200498198
 40
0.3120026784
 50
0.860427
 51
90.034943999999982
  0
ARC
  8
_f-f_
  6
CONTINUOUS
 62
    1
 10
232.06827949855861
 20
14.825122062098245
 40
0.309704304
 50
90.458761999999993
 51
179.63327899999999
  0
SOLID
  8
_f-f_
  6
CONTINUOUS
 62
   70
 10
235.3592583789839
 20
15.664101361536453
 11
236.00431761052957
 21
15.467422329706778
 12
236.2927671804093
 22
15.73818913178016
 13
236.2927671804093
 23
15.73818913178016
  0
SOLID
  8
_f-f_
  6
CONTINUOUS
 62
   70
 10
235.60029133369804
 20
16.279624399265259
 11
235.3592583789839
 21
15.664101361536453
 12
236.5328128054206
 22
16.353613516858246
 13
236.2927671804093
 23
15.73818913178016
  0
SOLID
  8
_f-f_
  6
CONTINUOUS
 62
   70
 10
236.19101981268187
 20
16.670512794070959
 11
235.60029133369804
 21
16.279624399265259
 12
236.42019869045436
 22
16.615391008345767
 13
236.5328128054206
 23
16.353613516858246
  0
ARC
  8
_f-f_
  6
CONTINUOUS
 62
    1
 10
236.00221070815871
 20
16.616671155698256
 40
1.1492505864
 50
235.98198100000002
 51
270.10504300000002
  0
ARC
  8
_f-f_
  6
CONTINUOUS
 62
    1
 10
235.63663664335866
 20
16.148141113298266
 40
0.7736713488000001
 50
298.37509499999999
 51
328.00274300000001
  0
ARC
  8
_f-f_
  6
CONTINUOUS
 62
    1
 10
234.71712471295865
 20
16.707292304498239
 40
1.8498135431999998
 50
328.40629300000006
 51
348.97735100000006
  0
ARC
  8
_f-f_
  6
CONTINUOUS
 62
    1
 10
237.17571194335866
 20
15.307750227698264
 40
1.8510779783999998
 50
148.329635
 51
168.90069299999999
  0
ARC
  8
_f-f_
  6
CONTINUOUS
 62
    1
 10
236.05002628015859
 20
16.301035695698289
 40
0.4856410776
 50
6.2152969999999996
 51
40.338358999999997
  0
SOLID
  8
_f-f_
  6
CONTINUOUS
 62
    5
 10
233.7490795136022
 20
12.030232905347191
 11
234.7892749001586
 21
10.88042668929819
 12
237.23911742342443
 22
14.662629348534509
 13
237.23911742342443
 23
14.662629348534509
  0
ARC
  8
_f-f_
  6
CONTINUOUS
 62
    1
 10
236.23946353375865
 20
16.367937159698243
 40
0.3064287911999999
 50
53.856383000000008
 51
99.096113000000003
  0
ARC
  8
_f-f_
  6
CONTINUOUS
 62
    1
 10
236.36472164575864
 20
15.766194423698238
 40
0.9208496303999999
 50
100.872968
 51
146.11269799999999
  0
LINE
  8
_f-f_
  6
CONTINUOUS
 62
    7
 10
267.37625600000001
 20
14.687935999999993
 11
267.06892800000003
 21
14.687935999999993
  0
LINE
  8
_f-f_
  6
CONTINUOUS
 62
    7
 10
267.06892800000003
 20
14.687935999999993
 11
267.06892800000003
 21
13.853760000000037
  0
LINE
  8
_f-f_
  6
CONTINUOUS
 62
    7
 10
267.04697599999997
 20
13.458624000000043
 11
267.02502399999992
 21
13.370815999999991
  0
LINE
  8
_f-f_
  6
CONTINUOUS
 62
    7
 10
267.02502399999992
 20
13.370815999999991
 11
267.02502399999992
 21
13.326912000000021
  0
LINE
  8
_f-f_
  6
CONTINUOUS
 62
    7
 10
267.02502399999992
 20
13.326912000000021
 11
266.99209599999995
 21
13.195199999999971
  0
LINE
  8
_f-f_
  6
CONTINUOUS
 62
    7
 10
266.99209599999995
 20
13.195199999999971
 11
266.97014399999995
 21
13.151296000000031
  0
LINE
  8
_f-f_
  6
CONTINUOUS
 62
    7
 10
266.97014399999995
 20
13.151296000000031
 11
266.93721599999992
 21
13.019583999999952
  0
LINE
  8
_f-f_
  6
CONTINUOUS
 62
    7
 10
266.93721599999992
 20
13.019583999999952
 11
266.91526399999998
 21
12.975680000000011
  0
LINE
  8
_f-f_
  6
CONTINUOUS
 62
    7
 10
266.91526399999998
 20
12.975680000000011
 11
266.90428799999995
 21
12.931776000000013
  0
LINE
  8
_f-f_
  6
CONTINUOUS
 62
    7
 10
266.90428799999995
 20
12.931776000000013
 11
266.88233600000001
 21
12.887871999999987
  0
LINE
  8
_f-f_
  6
CONTINUOUS
 62
    7
 10
266.88233600000001
 20
12.887871999999987
 11
266.87135999999998
 21
12.84396799999999
  0
LINE
  8
_f-f_
  6
CONTINUOUS
 62
    7
 10
266.87135999999998
 20
12.84396799999999
 11
266.82745599999998
 21
12.756160000000023
  0
LINE
  8
_f-f_
  6
CONTINUOUS
 62
    7
 10
266.82745599999998
 20
12.756160000000023
 11
266.81647999999996
 21
12.712256000000025
  0
LINE
  8
_f-f_
  6
CONTINUOUS
 62
    7
 10
266.81647999999996
 20
12.712256000000025
 11
266.7506239999999
 21
12.580544000000003
  0
LINE
  8
_f-f_
  6
CONTINUOUS
 62
    7
 10
266.7506239999999
 20
12.580544000000003
 11
266.71769599999999
 21
12.536639999999977
  0
LINE
  8
_f-f_
  6
CONTINUOUS
 62
    7
 10
266.71769599999999
 20
12.536639999999977
 11
266.67379199999993
 21
12.448831999999982
  0
LINE
  8
_f-f_
  6
CONTINUOUS
 62
    7
 10
266.67379199999993
 20
12.448831999999982
 11
266.64086399999997
 21
12.404927999999984
  0
LINE
  8
_f-f_
  6
CONTINUOUS
 62
    7
 10
266.64086399999997
 20
12.404927999999984
 11
266.61891199999997
 21
12.361024000000015
  0
LINE
  8
_f-f_
  6
CONTINUOUS
 62
    7
 10
266.61891199999997
 20
12.361024000000015
 11
266.48719999999992
 21
12.185407999999995
  0
LINE
  8
_f-f_
  6
CONTINUOUS
 62
    7
 10
266.48719999999992
 20
12.185407999999995
 11
266.44329599999992
 21
12.141503999999998
  0
LINE
  8
_f-f_
  6
CONTINUOUS
 62
    7
 10
266.44329599999992
 20
12.141503999999998
 11
266.41036799999995
 21
12.0976
  0
LINE
  8
_f-f_
  6
CONTINUOUS
 62
    7
 10
266.41036799999995
 20
12.0976
 11
266.36646399999995
 21
12.053696000000031
  0
LINE
  8
_f-f_
  6
CONTINUOUS
 62
    7
 10
266.36646399999995
 20
12.053696000000031
 11
266.36646399999995
 21
12.009792000000004
  0
LINE
  8
_f-f_
  6
CONTINUOUS
 62
    7
 10
266.36646399999995
 20
12.009792000000004
 11
266.38841599999989
 21
11.965888000000007
  0
LINE
  8
_f-f_
  6
CONTINUOUS
 62
    7
 10
266.38841599999989
 20
11.965888000000007
 11
266.42134399999998
 21
11.921984000000009
  0
LINE
  8
_f-f_
  6
CONTINUOUS
 62
    7
 10
266.42134399999998
 20
11.921984000000009
 11
266.44329599999992
 21
11.878080000000011
  0
LINE
  8
_f-f_
  6
CONTINUOUS
 62
    7
 10
266.44329599999992
 20
11.878080000000011
 11
266.476224
 21
11.834176000000014
  0
LINE
  8
_f-f_
  6
CONTINUOUS
 62
    7
 10
266.476224
 20
11.834176000000014
 11
266.49817599999994
 21
11.790272000000016
  0
LINE
  8
_f-f_
  6
CONTINUOUS
 62
    7
 10
266.49817599999994
 20
11.790272000000016
 11
266.53110399999997
 21
11.746368000000018
  0
LINE
  8
_f-f_
  6
CONTINUOUS
 62
    7
 10
266.53110399999997
 20
11.746368000000018
 11
266.55305599999997
 21
11.70246400000002
  0
LINE
  8
_f-f_
  6
CONTINUOUS
 62
    7
 10
269.22022399999992
 20
14.687935999999993
 11
268.9019199999999
 21
14.687935999999993
  0
LINE
  8
_f-f_
  6
CONTINUOUS
 62
    7
 10
268.9019199999999
 20
14.687935999999993
 11
268.9019199999999
 21
13.941568000000032
  0
LINE
  8
_f-f_
  6
CONTINUOUS
 62
    7
 10
268.9019199999999
 20
13.941568000000032
 11
268.56166399999995
 21
13.941568000000032
  0
LINE
  8
_f-f_
  6
CONTINUOUS
 62
    7
 10
268.37507199999993
 20
14.336704000000026
 11
268.35311999999999
 21
14.336704000000026
  0
LINE
  8
_f-f_
  6
CONTINUOUS
 62
    7
 10
268.35311999999999
 20
14.336704000000026
 11
268.34214399999996
 21
14.292800000000028
  0
LINE
  8
_f-f_
  6
CONTINUOUS
 62
    7
 10
268.34214399999996
 20
14.292800000000028
 11
268.32019199999996
 21
14.248896000000016
  0
LINE
  8
_f-f_
  6
CONTINUOUS
 62
    7
 10
268.32019199999996
 20
14.248896000000016
 11
268.29823999999996
 21
14.161087999999992
  0
LINE
  8
_f-f_
  6
CONTINUOUS
 62
    7
 10
268.29823999999996
 20
14.161087999999992
 11
268.27628800000002
 21
14.117184000000023
  0
LINE
  8
_f-f_
  6
CONTINUOUS
 62
    7
 10
268.27628800000002
 20
14.117184000000023
 11
268.26531199999999
 21
14.073279999999997
  0
LINE
  8
_f-f_
  6
CONTINUOUS
 62
    7
 10
268.26531199999999
 20
14.073279999999997
 11
268.24335999999994
 21
14.029375999999999
  0
LINE
  8
_f-f_
  6
CONTINUOUS
 62
    7
 10
268.24335999999994
 20
14.029375999999999
 11
268.23238399999997
 21
13.985471999999987
  0
LINE
  8
_f-f_
  6
CONTINUOUS
 62
    7
 10
268.23238399999997
 20
13.985471999999987
 11
268.18847999999991
 21
13.897663999999992
  0
LINE
  8
_f-f_
  6
CONTINUOUS
 62
    7
 10
268.18847999999991
 20
13.897663999999992
 11
268.17750399999989
 21
13.853760000000037
  0
LINE
  8
_f-f_
  6
CONTINUOUS
 62
    7
 10
268.17750399999989
 20
13.853760000000037
 11
268.11164799999995
 21
13.722048000000001
  0
LINE
  8
_f-f_
  6
CONTINUOUS
 62
    7
 10
268.11164799999995
 20
13.722048000000001
 11
268.07871999999998
 21
13.678143999999975
  0
LINE
  8
_f-f_
  6
CONTINUOUS
 62
    7
 10
268.07871999999998
 20
13.678143999999975
 11
268.03481599999992
 21
13.590336000000008
  0
LINE
  8
_f-f_
  6
CONTINUOUS
 62
    7
 10
268.03481599999992
 20
13.590336000000008
 11
267.90310399999998
 21
13.414720000000017
  0
LINE
  8
_f-f_
  6
CONTINUOUS
 62
    7
 10
267.90310399999998
 20
13.414720000000017
 11
267.85919999999999
 21
13.370815999999991
  0
LINE
  8
_f-f_
  6
CONTINUOUS
 62
    7
 10
267.85919999999999
 20
13.370815999999991
 11
267.99091199999998
 21
13.239103999999998
  0
LINE
  8
_f-f_
  6
CONTINUOUS
 62
    7
 10
267.99091199999998
 20
13.239103999999998
 11
268.02383999999995
 21
13.195199999999971
  0
LINE
  8
_f-f_
  6
CONTINUOUS
 62
    7
 10
268.02383999999995
 20
13.195199999999971
 11
268.11164799999995
 21
13.107392000000061
  0
LINE
  8
_f-f_
  6
CONTINUOUS
 62
    7
 10
268.9019199999999
 20
13.546432000000038
 11
268.9019199999999
 21
13.019583999999952
  0
LINE
  8
_f-f_
  6
CONTINUOUS
 62
    7
 10
268.87996799999996
 20
12.624447999999973
 11
268.85801599999996
 21
12.580544000000003
  0
LINE
  8
_f-f_
  6
CONTINUOUS
 62
    7
 10
268.85801599999996
 20
12.580544000000003
 11
268.82508799999994
 21
12.536639999999977
  0
LINE
  8
_f-f_
  6
CONTINUOUS
 62
    7
 10
268.82508799999994
 20
12.536639999999977
 11
268.80313599999999
 21
12.492735999999979
  0
LINE
  8
_f-f_
  6
CONTINUOUS
 62
    7
 10
268.80313599999999
 20
12.492735999999979
 11
268.70435199999997
 21
12.361024000000015
  0
LINE
  8
_f-f_
  6
CONTINUOUS
 62
    7
 10
268.70435199999997
 20
12.361024000000015
 11
268.68239999999997
 21
12.317120000000017
  0
LINE
  8
_f-f_
  6
CONTINUOUS
 62
    7
 10
268.68239999999997
 20
12.317120000000017
 11
268.64947199999995
 21
12.273216000000019
  0
LINE
  8
_f-f_
  6
CONTINUOUS
 62
    7
 10
268.64947199999995
 20
12.273216000000019
 11
268.60556799999995
 21
12.229311999999993
  0
LINE
  8
_f-f_
  6
CONTINUOUS
 62
    7
 10
268.60556799999995
 20
12.229311999999993
 11
268.50678399999998
 21
12.0976
  0
LINE
  8
_f-f_
  6
CONTINUOUS
 62
    7
 10
268.50678399999998
 20
12.0976
 11
268.41897599999993
 21
12.009792000000004
  0
LINE
  8
_f-f_
  6
CONTINUOUS
 62
    7
 10
268.41897599999993
 20
12.009792000000004
 11
268.38604799999996
 21
11.965888000000007
  0
LINE
  8
_f-f_
  6
CONTINUOUS
 62
    7
 10
268.38604799999996
 20
11.965888000000007
 11
268.21043199999997
 21
11.790272000000016
  0
LINE
  8
_f-f_
  6
CONTINUOUS
 62
    7
 10
268.21043199999997
 20
11.790272000000016
 11
268.15555199999994
 21
11.746368000000018
  0
LINE
  8
_f-f_
  6
CONTINUOUS
 62
    7
 10
268.15555199999994
 20
11.746368000000018
 11
268.11164799999995
 21
11.70246400000002
  0
LINE
  8
_f-f_
  6
CONTINUOUS
 62
    7
 10
268.11164799999995
 20
11.70246400000002
 11
268.05676799999998
 21
11.658559999999994
  0
LINE
  8
_f-f_
  6
CONTINUOUS
 62
    7
 10
268.05676799999998
 20
11.658559999999994
 11
268.01286399999992
 21
11.614655999999997
  0
LINE
  8
_f-f_
  6
CONTINUOUS
 62
    7
 10
268.01286399999992
 20
11.614655999999997
 11
267.95798399999995
 21
11.570752000000027
  0
LINE
  8
_f-f_
  6
CONTINUOUS
 62
    7
 10
267.95798399999995
 20
11.570752000000027
 11
267.89212799999996
 21
11.52684800000003
  0
LINE
  8
_f-f_
  6
CONTINUOUS
 62
    7
 10
267.89212799999996
 20
11.52684800000003
 11
267.72748799999999
 21
11.395136000000008
  0
LINE
  8
_f-f_
  6
CONTINUOUS
 62
    7
 10
267.72748799999999
 20
11.395136000000008
 11
267.79334399999999
 21
11.263423999999986
  0
LINE
  8
_f-f_
  6
CONTINUOUS
 62
    7
 10
267.79334399999999
 20
11.263423999999986
 11
267.8262719999999
 21
11.219519999999989
  0
LINE
  8
_f-f_
  6
CONTINUOUS
 62
    7
 10
267.8262719999999
 20
11.219519999999989
 11
267.89212799999996
 21
11.087808000000024
  0
LINE
  8
_f-f_
  6
CONTINUOUS
 62
    7
 10
267.44211199999995
 20
12.536639999999977
 11
267.48601599999995
 21
12.492735999999979
  0
LINE
  8
_f-f_
  6
CONTINUOUS
 62
    7
 10
267.48601599999995
 20
12.492735999999979
 11
267.61772799999994
 21
12.317120000000017
  0
LINE
  8
_f-f_
  6
CONTINUOUS
 62
    7
 10
267.61772799999994
 20
12.317120000000017
 11
267.63968
 21
12.273216000000019
  0
LINE
  8
_f-f_
  6
CONTINUOUS
 62
    7
 10
267.63968
 20
12.273216000000019
 11
267.67260799999997
 21
12.229311999999993
  0
LINE
  8
_f-f_
  6
CONTINUOUS
 62
    7
 10
267.67260799999997
 20
12.229311999999993
 11
267.69455999999997
 21
12.185407999999995
  0
LINE
  8
_f-f_
  6
CONTINUOUS
 62
    7
 10
267.69455999999997
 20
12.185407999999995
 11
267.72748799999999
 21
12.141503999999998
  0
LINE
  8
_f-f_
  6
CONTINUOUS
 62
    7
 10
267.06892800000003
 20
12.448831999999982
 11
267.06892800000003
 21
10.736576000000014
  0
LINE
  8
_f-f_
  6
CONTINUOUS
 62
    7
 10
268.9019199999999
 20
12.0976
 11
268.9019199999999
 21
10.736576000000014
  0
LINE
  8
_f-f_
  6
CONTINUOUS
 62
    7
 10
269.27510399999994
 20
12.0976
 11
269.37388799999991
 21
11.965888000000007
  0
LINE
  8
_f-f_
  6
CONTINUOUS
 62
    7
 10
269.37388799999991
 20
11.965888000000007
 11
269.41779199999996
 21
11.921984000000009
  0
LINE
  8
_f-f_
  6
CONTINUOUS
 62
    7
 10
269.41779199999996
 20
11.921984000000009
 11
269.45071999999993
 21
11.878080000000011
  0
LINE
  8
_f-f_
  6
CONTINUOUS
 62
    7
 10
269.45071999999993
 20
11.878080000000011
 11
269.49462399999999
 21
11.834176000000014
  0
LINE
  8
_f-f_
  6
CONTINUOUS
 62
    7
 10
269.49462399999999
 20
11.834176000000014
 11
269.5275519999999
 21
11.790272000000016
  0
LINE
  8
_f-f_
  6
CONTINUOUS
 62
    7
 10
269.5275519999999
 20
11.790272000000016
 11
269.70316800000001
 21
11.614655999999997
  0
LINE
  8
_f-f_
  6
CONTINUOUS
 62
    7
 10
269.70316800000001
 20
11.614655999999997
 11
269.75804799999997
 21
11.570752000000027
  0
LINE
  8
_f-f_
  6
CONTINUOUS
 62
    7
 10
269.75804799999997
 20
11.570752000000027
 11
269.80195199999991
 21
11.52684800000003
  0
LINE
  8
_f-f_
  6
CONTINUOUS
 62
    7
 10
269.80195199999991
 20
11.52684800000003
 11
269.91171199999997
 21
11.439040000000034
  0
LINE
  8
_f-f_
  6
CONTINUOUS
 62
    7
 10
269.91171199999997
 20
11.439040000000034
 11
269.95561599999996
 21
11.395136000000008
  0
LINE
  8
_f-f_
  6
CONTINUOUS
 62
    7
 10
269.95561599999996
 20
11.395136000000008
 11
270.01049599999999
 21
11.35123200000001
  0
LINE
  8
_f-f_
  6
CONTINUOUS
 62
    7
 10
270.01049599999999
 20
11.35123200000001
 11
270.07635199999993
 21
11.307327999999984
  0
LINE
  8
_f-f_
  6
CONTINUOUS
 62
    7
 10
270.07635199999993
 20
11.307327999999984
 11
270.18611199999998
 21
11.219519999999989
  0
LINE
  8
_f-f_
  6
CONTINUOUS
 62
    7
 10
267.37625600000001
 20
14.687935999999993
 11
267.44211199999995
 21
14.644031999999967
  0
LINE
  8
_f-f_
  6
CONTINUOUS
 62
    7
 10
267.44211199999995
 20
14.644031999999967
 11
267.39820799999995
 21
14.600128000000012
  0
LINE
  8
_f-f_
  6
CONTINUOUS
 62
    7
 10
267.39820799999995
 20
14.600128000000012
 11
267.38723200000004
 21
14.556224000000014
  0
LINE
  8
_f-f_
  6
CONTINUOUS
 62
    7
 10
267.38723200000004
 20
14.556224000000014
 11
267.38723200000004
 21
13.853760000000037
  0
LINE
  8
_f-f_
  6
CONTINUOUS
 62
    7
 10
267.38723200000004
 20
13.458624000000043
 11
267.38723200000004
 21
12.975680000000011
  0
LINE
  8
_f-f_
  6
CONTINUOUS
 62
    7
 10
267.38723200000004
 20
12.975680000000011
 11
267.51894399999992
 21
12.887871999999987
  0
LINE
  8
_f-f_
  6
CONTINUOUS
 62
    7
 10
267.51894399999992
 20
12.887871999999987
 11
267.683584
 21
12.756160000000023
  0
LINE
  8
_f-f_
  6
CONTINUOUS
 62
    7
 10
267.683584
 20
12.756160000000023
 11
267.90310399999998
 21
12.536639999999977
  0
LINE
  8
_f-f_
  6
CONTINUOUS
 62
    7
 10
267.90310399999998
 20
12.536639999999977
 11
267.96895999999992
 21
12.448831999999982
  0
LINE
  8
_f-f_
  6
CONTINUOUS
 62
    7
 10
267.96895999999992
 20
12.448831999999982
 11
267.80431999999996
 21
12.229311999999993
  0
LINE
  8
_f-f_
  6
CONTINUOUS
 62
    7
 10
267.80431999999996
 20
12.229311999999993
 11
267.76041599999996
 21
12.185407999999995
  0
LINE
  8
_f-f_
  6
CONTINUOUS
 62
    7
 10
267.76041599999996
 20
12.185407999999995
 11
267.72748799999999
 21
12.141503999999998
  0
LINE
  8
_f-f_
  6
CONTINUOUS
 62
    7
 10
269.22022399999992
 20
14.687935999999993
 11
269.27510399999994
 21
14.644031999999967
  0
LINE
  8
_f-f_
  6
CONTINUOUS
 62
    7
 10
269.27510399999994
 20
14.644031999999967
 11
269.23119999999994
 21
14.600128000000012
  0
LINE
  8
_f-f_
  6
CONTINUOUS
 62
    7
 10
269.23119999999994
 20
14.600128000000012
 11
269.23119999999994
 21
13.941568000000032
  0
LINE
  8
_f-f_
  6
CONTINUOUS
 62
    7
 10
269.23119999999994
 20
13.546432000000038
 11
269.23119999999994
 21
13.019583999999952
  0
LINE
  8
_f-f_
  6
CONTINUOUS
 62
    7
 10
269.26412799999991
 20
12.624447999999973
 11
269.28607999999997
 21
12.580544000000003
  0
LINE
  8
_f-f_
  6
CONTINUOUS
 62
    7
 10
269.28607999999997
 20
12.580544000000003
 11
269.48364800000002
 21
12.317120000000017
  0
LINE
  8
_f-f_
  6
CONTINUOUS
 62
    7
 10
269.48364800000002
 20
12.317120000000017
 11
269.5275519999999
 21
12.273216000000019
  0
LINE
  8
_f-f_
  6
CONTINUOUS
 62
    7
 10
269.5275519999999
 20
12.273216000000019
 11
269.56047999999998
 21
12.229311999999993
  0
LINE
  8
_f-f_
  6
CONTINUOUS
 62
    7
 10
269.56047999999998
 20
12.229311999999993
 11
269.64828799999998
 21
12.141503999999998
  0
LINE
  8
_f-f_
  6
CONTINUOUS
 62
    7
 10
269.64828799999998
 20
12.141503999999998
 11
269.70316800000001
 21
12.0976
  0
LINE
  8
_f-f_
  6
CONTINUOUS
 62
    7
 10
269.70316800000001
 20
12.0976
 11
269.74707199999995
 21
12.053696000000031
  0
LINE
  8
_f-f_
  6
CONTINUOUS
 62
    7
 10
269.74707199999995
 20
12.053696000000031
 11
270.02147199999996
 21
11.834176000000014
  0
LINE
  8
_f-f_
  6
CONTINUOUS
 62
    7
 10
270.02147199999996
 20
11.834176000000014
 11
270.35075199999994
 21
11.614655999999997
  0
LINE
  8
_f-f_
  6
CONTINUOUS
 62
    7
 10
270.35075199999994
 20
11.614655999999997
 11
270.42758399999991
 21
11.570752000000027
  0
LINE
  8
_f-f_
  6
CONTINUOUS
 62
    7
 10
270.42758399999991
 20
11.570752000000027
 11
270.38367999999997
 21
11.482944000000003
  0
LINE
  8
_f-f_
  6
CONTINUOUS
 62
    7
 10
270.38367999999997
 20
11.482944000000003
 11
270.35075199999994
 21
11.439040000000034
  0
LINE
  8
_f-f_
  6
CONTINUOUS
 62
    7
 10
270.35075199999994
 20
11.439040000000034
 11
270.24099199999989
 21
11.219519999999989
  0
LINE
  8
_f-f_
  6
CONTINUOUS
 62
    7
 10
270.24099199999989
 20
11.219519999999989
 11
270.18611199999998
 21
11.219519999999989
  0
LINE
  8
_f-f_
  6
CONTINUOUS
 62
    7
 10
268.37507199999993
 20
14.336704000000026
 11
268.55068799999992
 21
14.292800000000028
  0
LINE
  8
_f-f_
  6
CONTINUOUS
 62
    7
 10
268.55068799999992
 20
14.292800000000028
 11
268.70435199999997
 21
14.248896000000016
  0
LINE
  8
_f-f_
  6
CONTINUOUS
 62
    7
 10
268.70435199999997
 20
14.248896000000016
 11
268.70435199999997
 21
14.204992000000018
  0
LINE
  8
_f-f_
  6
CONTINUOUS
 62
    7
 10
268.70435199999997
 20
14.204992000000018
 11
268.63849599999992
 21
14.161087999999992
  0
LINE
  8
_f-f_
  6
CONTINUOUS
 62
    7
 10
268.63849599999992
 20
14.161087999999992
 11
268.62752
 21
14.117184000000023
  0
LINE
  8
_f-f_
  6
CONTINUOUS
 62
    7
 10
268.62752
 20
14.117184000000023
 11
268.60556799999995
 21
14.073279999999997
  0
LINE
  8
_f-f_
  6
CONTINUOUS
 62
    7
 10
268.60556799999995
 20
14.073279999999997
 11
268.58361600000001
 21
13.985471999999987
  0
LINE
  8
_f-f_
  6
CONTINUOUS
 62
    7
 10
268.58361600000001
 20
13.985471999999987
 11
268.56166399999995
 21
13.941568000000032
  0
LINE
  8
_f-f_
  6
CONTINUOUS
 62
    7
 10
268.9019199999999
 20
13.546432000000038
 11
268.40799999999996
 21
13.546432000000038
  0
LINE
  8
_f-f_
  6
CONTINUOUS
 62
    7
 10
268.40799999999996
 20
13.546432000000038
 11
268.34214399999996
 21
13.414720000000017
  0
LINE
  8
_f-f_
  6
CONTINUOUS
 62
    7
 10
268.34214399999996
 20
13.414720000000017
 11
268.30921599999999
 21
13.370815999999991
  0
LINE
  8
_f-f_
  6
CONTINUOUS
 62
    7
 10
268.30921599999999
 20
13.370815999999991
 11
268.26531199999999
 21
13.283008000000024
  0
LINE
  8
_f-f_
  6
CONTINUOUS
 62
    7
 10
268.26531199999999
 20
13.283008000000024
 11
268.13359999999994
 21
13.107392000000061
  0
LINE
  8
_f-f_
  6
CONTINUOUS
 62
    7
 10
268.13359999999994
 20
13.107392000000061
 11
268.11164799999995
 21
13.107392000000061
  0
LINE
  8
_f-f_
  6
CONTINUOUS
 62
    7
 10
267.44211199999995
 20
12.536639999999977
 11
267.38723200000004
 21
12.536639999999977
  0
LINE
  8
_f-f_
  6
CONTINUOUS
 62
    7
 10
267.38723200000004
 20
12.536639999999977
 11
267.38723200000004
 21
10.736576000000014
  0
LINE
  8
_f-f_
  6
CONTINUOUS
 62
    7
 10
267.38723200000004
 20
10.736576000000014
 11
267.06892800000003
 21
10.736576000000014
  0
LINE
  8
_f-f_
  6
CONTINUOUS
 62
    7
 10
267.06892800000003
 20
12.448831999999982
 11
267.03599999999994
 21
12.448831999999982
  0
LINE
  8
_f-f_
  6
CONTINUOUS
 62
    7
 10
267.03599999999994
 20
12.448831999999982
 11
266.99209599999995
 21
12.361024000000015
  0
LINE
  8
_f-f_
  6
CONTINUOUS
 62
    7
 10
266.99209599999995
 20
12.361024000000015
 11
266.98111999999998
 21
12.317120000000017
  0
LINE
  8
_f-f_
  6
CONTINUOUS
 62
    7
 10
266.98111999999998
 20
12.317120000000017
 11
266.91526399999998
 21
12.185407999999995
  0
LINE
  8
_f-f_
  6
CONTINUOUS
 62
    7
 10
266.91526399999998
 20
12.185407999999995
 11
266.88233600000001
 21
12.141503999999998
  0
LINE
  8
_f-f_
  6
CONTINUOUS
 62
    7
 10
266.88233600000001
 20
12.141503999999998
 11
266.8384319999999
 21
12.053696000000031
  0
LINE
  8
_f-f_
  6
CONTINUOUS
 62
    7
 10
266.8384319999999
 20
12.053696000000031
 11
266.77257599999996
 21
11.965888000000007
  0
LINE
  8
_f-f_
  6
CONTINUOUS
 62
    7
 10
266.77257599999996
 20
11.965888000000007
 11
266.7506239999999
 21
11.921984000000009
  0
LINE
  8
_f-f_
  6
CONTINUOUS
 62
    7
 10
266.7506239999999
 20
11.921984000000009
 11
266.65183999999999
 21
11.790272000000016
  0
LINE
  8
_f-f_
  6
CONTINUOUS
 62
    7
 10
266.65183999999999
 20
11.790272000000016
 11
266.607936
 21
11.746368000000018
  0
LINE
  8
_f-f_
  6
CONTINUOUS
 62
    7
 10
266.607936
 20
11.746368000000018
 11
266.57500799999991
 21
11.70246400000002
  0
LINE
  8
_f-f_
  6
CONTINUOUS
 62
    7
 10
266.57500799999991
 20
11.70246400000002
 11
266.55305599999997
 21
11.70246400000002
  0
LINE
  8
_f-f_
  6
CONTINUOUS
 62
    7
 10
268.9019199999999
 20
12.0976
 11
268.87996799999996
 21
12.0976
  0
LINE
  8
_f-f_
  6
CONTINUOUS
 62
    7
 10
268.87996799999996
 20
12.0976
 11
268.84703999999994
 21
12.053696000000031
  0
LINE
  8
_f-f_
  6
CONTINUOUS
 62
    7
 10
268.84703999999994
 20
12.053696000000031
 11
268.82508799999994
 21
12.009792000000004
  0
LINE
  8
_f-f_
  6
CONTINUOUS
 62
    7
 10
268.82508799999994
 20
12.009792000000004
 11
268.79215999999997
 21
11.965888000000007
  0
LINE
  8
_f-f_
  6
CONTINUOUS
 62
    7
 10
268.79215999999997
 20
11.965888000000007
 11
268.77020799999997
 21
11.921984000000009
  0
LINE
  8
_f-f_
  6
CONTINUOUS
 62
    7
 10
268.77020799999997
 20
11.921984000000009
 11
268.60556799999995
 21
11.70246400000002
  0
LINE
  8
_f-f_
  6
CONTINUOUS
 62
    7
 10
268.60556799999995
 20
11.70246400000002
 11
268.56166399999995
 21
11.658559999999994
  0
LINE
  8
_f-f_
  6
CONTINUOUS
 62
    7
 10
268.56166399999995
 20
11.658559999999994
 11
268.52873599999998
 21
11.614655999999997
  0
LINE
  8
_f-f_
  6
CONTINUOUS
 62
    7
 10
268.52873599999998
 20
11.614655999999997
 11
268.26531199999999
 21
11.35123200000001
  0
LINE
  8
_f-f_
  6
CONTINUOUS
 62
    7
 10
268.26531199999999
 20
11.35123200000001
 11
267.99091199999998
 21
11.131712000000022
  0
LINE
  8
_f-f_
  6
CONTINUOUS
 62
    7
 10
267.99091199999998
 20
11.131712000000022
 11
267.92505599999993
 21
11.087808000000024
  0
LINE
  8
_f-f_
  6
CONTINUOUS
 62
    7
 10
267.92505599999993
 20
11.087808000000024
 11
267.89212799999996
 21
11.087808000000024
  0
LINE
  8
_f-f_
  6
CONTINUOUS
 62
    7
 10
269.27510399999994
 20
12.0976
 11
269.23119999999994
 21
12.0976
  0
LINE
  8
_f-f_
  6
CONTINUOUS
 62
    7
 10
269.23119999999994
 20
12.0976
 11
269.23119999999994
 21
10.736576000000014
  0
LINE
  8
_f-f_
  6
CONTINUOUS
 62
    7
 10
269.23119999999994
 20
10.736576000000014
 11
268.9019199999999
 21
10.736576000000014
  0
LINE
  8
_f-f_
  6
CONTINUOUS
 62
    7
 10
273.48988799999995
 20
14.600128000000012
 11
273.07279999999992
 21
14.600128000000012
  0
LINE
  8
_f-f_
  6
CONTINUOUS
 62
    7
 10
273.07279999999992
 20
14.600128000000012
 11
273.07279999999992
 21
13.853760000000037
  0
LINE
  8
_f-f_
  6
CONTINUOUS
 62
    7
 10
273.083776
 20
13.458624000000043
 11
273.083776
 21
13.414720000000017
  0
LINE
  8
_f-f_
  6
CONTINUOUS
 62
    7
 10
273.083776
 20
13.414720000000017
 11
273.09475199999997
 21
13.370815999999991
  0
LINE
  8
_f-f_
  6
CONTINUOUS
 62
    7
 10
273.09475199999997
 20
13.370815999999991
 11
273.09475199999997
 21
13.151296000000031
  0
LINE
  8
_f-f_
  6
CONTINUOUS
 62
    7
 10
273.09475199999997
 20
13.151296000000031
 11
273.105728
 21
13.107392000000061
  0
LINE
  8
_f-f_
  6
CONTINUOUS
 62
    7
 10
273.105728
 20
13.107392000000061
 11
273.105728
 21
12.975680000000011
  0
LINE
  8
_f-f_
  6
CONTINUOUS
 62
    7
 10
273.105728
 20
12.975680000000011
 11
273.11670399999991
 21
12.931776000000013
  0
LINE
  8
_f-f_
  6
CONTINUOUS
 62
    7
 10
273.11670399999991
 20
12.931776000000013
 11
273.11670399999991
 21
12.84396799999999
  0
LINE
  8
_f-f_
  6
CONTINUOUS
 62
    7
 10
273.11670399999991
 20
12.84396799999999
 11
273.12767999999994
 21
12.800064000000049
  0
LINE
  8
_f-f_
  6
CONTINUOUS
 62
    7
 10
273.12767999999994
 20
12.800064000000049
 11
273.12767999999994
 21
12.756160000000023
  0
LINE
  8
_f-f_
  6
CONTINUOUS
 62
    7
 10
273.12767999999994
 20
12.756160000000023
 11
273.13865599999997
 21
12.712256000000025
  0
LINE
  8
_f-f_
  6
CONTINUOUS
 62
    7
 10
273.13865599999997
 20
12.712256000000025
 11
273.13865599999997
 21
12.668351999999999
  0
LINE
  8
_f-f_
  6
CONTINUOUS
 62
    7
 10
273.13865599999997
 20
12.668351999999999
 11
273.149632
 21
12.624447999999973
  0
LINE
  8
_f-f_
  6
CONTINUOUS
 62
    7
 10
273.149632
 20
12.624447999999973
 11
273.149632
 21
12.580544000000003
  0
LINE
  8
_f-f_
  6
CONTINUOUS
 62
    7
 10
273.149632
 20
12.580544000000003
 11
273.17158399999994
 21
12.492735999999979
  0
LINE
  8
_f-f_
  6
CONTINUOUS
 62
    7
 10
273.17158399999994
 20
12.492735999999979
 11
273.17158399999994
 21
12.448831999999982
  0
LINE
  8
_f-f_
  6
CONTINUOUS
 62
    7
 10
273.17158399999994
 20
12.448831999999982
 11
273.20451199999991
 21
12.317120000000017
  0
LINE
  8
_f-f_
  6
CONTINUOUS
 62
    7
 10
273.20451199999991
 20
12.317120000000017
 11
273.20451199999991
 21
12.273216000000019
  0
LINE
  8
_f-f_
  6
CONTINUOUS
 62
    7
 10
273.20451199999991
 20
12.273216000000019
 11
273.25939199999999
 21
12.053696000000031
  0
LINE
  8
_f-f_
  6
CONTINUOUS
 62
    7
 10
273.25939199999999
 20
12.053696000000031
 11
273.28134399999999
 21
12.009792000000004
  0
LINE
  8
_f-f_
  6
CONTINUOUS
 62
    7
 10
273.28134399999999
 20
12.009792000000004
 11
273.31427199999996
 21
11.878080000000011
  0
LINE
  8
_f-f_
  6
CONTINUOUS
 62
    7
 10
273.31427199999996
 20
11.878080000000011
 11
273.3362239999999
 21
11.834176000000014
  0
LINE
  8
_f-f_
  6
CONTINUOUS
 62
    7
 10
273.3362239999999
 20
11.834176000000014
 11
273.34719999999999
 21
11.790272000000016
  0
LINE
  8
_f-f_
  6
CONTINUOUS
 62
    7
 10
273.34719999999999
 20
11.790272000000016
 11
273.41305599999998
 21
11.658559999999994
  0
LINE
  8
_f-f_
  6
CONTINUOUS
 62
    7
 10
273.41305599999998
 20
11.658559999999994
 11
273.42403199999995
 21
11.614655999999997
  0
LINE
  8
_f-f_
  6
CONTINUOUS
 62
    7
 10
273.42403199999995
 20
11.614655999999997
 11
273.44598400000001
 21
11.570752000000027
  0
LINE
  8
_f-f_
  6
CONTINUOUS
 62
    7
 10
273.44598400000001
 20
11.570752000000027
 11
273.47891199999992
 21
11.52684800000003
  0
LINE
  8
_f-f_
  6
CONTINUOUS
 62
    7
 10
273.47891199999992
 20
11.52684800000003
 11
273.52281599999992
 21
11.439040000000034
  0
LINE
  8
_f-f_
  6
CONTINUOUS
 62
    7
 10
273.52281599999992
 20
11.439040000000034
 11
273.555744
 21
11.395136000000008
  0
LINE
  8
_f-f_
  6
CONTINUOUS
 62
    7
 10
273.555744
 20
11.395136000000008
 11
273.57769599999995
 21
11.35123200000001
  0
LINE
  8
_f-f_
  6
CONTINUOUS
 62
    7
 10
273.57769599999995
 20
11.35123200000001
 11
273.70940799999994
 21
11.175616000000019
  0
LINE
  8
_f-f_
  6
CONTINUOUS
 62
    7
 10
273.70940799999994
 20
11.175616000000019
 11
273.79721599999993
 21
11.087808000000024
  0
LINE
  8
_f-f_
  6
CONTINUOUS
 62
    7
 10
273.79721599999993
 20
11.087808000000024
 11
273.85209599999996
 21
11.043903999999998
  0
LINE
  8
_f-f_
  6
CONTINUOUS
 62
    7
 10
273.85209599999996
 20
11.043903999999998
 11
273.98380799999995
 21
10.956095999999974
  0
LINE
  8
_f-f_
  6
CONTINUOUS
 62
    7
 10
273.98380799999995
 20
10.956095999999974
 11
274.093568
 21
10.912192000000005
  0
LINE
  8
_f-f_
  6
CONTINUOUS
 62
    7
 10
273.95087999999998
 20
14.512320000000003
 11
273.90697599999999
 21
14.512320000000003
  0
LINE
  8
_f-f_
  6
CONTINUOUS
 62
    7
 10
273.90697599999999
 20
14.512320000000003
 11
273.85209599999996
 21
14.468416000000005
  0
LINE
  8
_f-f_
  6
CONTINUOUS
 62
    7
 10
273.85209599999996
 20
14.468416000000005
 11
273.80819200000002
 21
14.424512000000007
  0
LINE
  8
_f-f_
  6
CONTINUOUS
 62
    7
 10
273.80819200000002
 20
14.424512000000007
 11
273.69843199999997
 21
14.336704000000026
  0
LINE
  8
_f-f_
  6
CONTINUOUS
 62
    7
 10
273.69843199999997
 20
14.336704000000026
 11
273.65452800000003
 21
14.292800000000028
  0
LINE
  8
_f-f_
  6
CONTINUOUS
 62
    7
 10
273.65452800000003
 20
14.292800000000028
 11
273.69843199999997
 21
14.248896000000016
  0
LINE
  8
_f-f_
  6
CONTINUOUS
 62
    7
 10
273.69843199999997
 20
14.248896000000016
 11
273.77526399999999
 21
14.204992000000018
  0
LINE
  8
_f-f_
  6
CONTINUOUS
 62
    7
 10
273.77526399999999
 20
14.204992000000018
 11
273.84111999999993
 21
14.161087999999992
  0
LINE
  8
_f-f_
  6
CONTINUOUS
 62
    7
 10
273.84111999999993
 20
14.161087999999992
 11
274.06063999999998
 21
13.985471999999987
  0
LINE
  8
_f-f_
  6
CONTINUOUS
 62
    7
 10
272.83132799999998
 20
12.84396799999999
 11
271.15199999999993
 21
12.84396799999999
  0
LINE
  8
_f-f_
  6
CONTINUOUS
 62
    7
 10
271.83251199999995
 20
12.536639999999977
 11
271.83251199999995
 21
11.570752000000027
  0
LINE
  8
_f-f_
  6
CONTINUOUS
 62
    7
 10
271.83251199999995
 20
11.570752000000027
 11
271.56908799999997
 21
11.52684800000003
  0
LINE
  8
_f-f_
  6
CONTINUOUS
 62
    7
 10
271.56908799999997
 20
11.52684800000003
 11
271.19590399999998
 21
11.482944000000003
  0
LINE
  8
_f-f_
  6
CONTINUOUS
 62
    7
 10
271.19590399999998
 20
11.482944000000003
 11
270.99833599999994
 21
11.439040000000034
  0
LINE
  8
_f-f_
  6
CONTINUOUS
 62
    7
 10
270.99833599999994
 20
11.439040000000034
 11
271.04223999999999
 21
11.263423999999986
  0
LINE
  8
_f-f_
  6
CONTINUOUS
 62
    7
 10
271.04223999999999
 20
11.263423999999986
 11
271.04223999999999
 21
11.219519999999989
  0
LINE
  8
_f-f_
  6
CONTINUOUS
 62
    7
 10
271.04223999999999
 20
11.219519999999989
 11
271.08614399999999
 21
11.043903999999998
  0
LINE
  8
_f-f_
  6
CONTINUOUS
 62
    7
 10
271.08614399999999
 20
11.043903999999998
 11
271.11907199999996
 21
11
  0
LINE
  8
_f-f_
  6
CONTINUOUS
 62
    7
 10
273.07279999999992
 20
11.746368000000018
 11
272.95206399999995
 21
11.746368000000018
  0
LINE
  8
_f-f_
  6
CONTINUOUS
 62
    7
 10
272.95206399999995
 20
11.746368000000018
 11
272.71059199999996
 21
11.70246400000002
  0
LINE
  8
_f-f_
  6
CONTINUOUS
 62
    7
 10
272.71059199999996
 20
11.70246400000002
 11
272.44716799999998
 21
11.658559999999994
  0
LINE
  8
_f-f_
  6
CONTINUOUS
 62
    7
 10
272.44716799999998
 20
11.658559999999994
 11
272.16179199999999
 21
11.658559999999994
  0
LINE
  8
_f-f_
  6
CONTINUOUS
 62
    7
 10
274.38991999999996
 20
11.70246400000002
 11
274.31308799999994
 21
11.70246400000002
  0
LINE
  8
_f-f_
  6
CONTINUOUS
 62
    7
 10
274.31308799999994
 20
11.70246400000002
 11
274.31308799999994
 21
11.614655999999997
  0
LINE
  8
_f-f_
  6
CONTINUOUS
 62
    7
 10
274.31308799999994
 20
11.614655999999997
 11
274.30211199999997
 21
11.570752000000027
  0
LINE
  8
_f-f_
  6
CONTINUOUS
 62
    7
 10
274.30211199999997
 20
11.570752000000027
 11
274.30211199999997
 21
11.52684800000003
  0
LINE
  8
_f-f_
  6
CONTINUOUS
 62
    7
 10
274.30211199999997
 20
11.52684800000003
 11
274.29113599999994
 21
11.482944000000003
  0
LINE
  8
_f-f_
  6
CONTINUOUS
 62
    7
 10
274.29113599999994
 20
11.482944000000003
 11
274.29113599999994
 21
11.439040000000034
  0
LINE
  8
_f-f_
  6
CONTINUOUS
 62
    7
 10
274.29113599999994
 20
11.439040000000034
 11
274.269184
 21
11.395136000000008
  0
LINE
  8
_f-f_
  6
CONTINUOUS
 62
    7
 10
274.269184
 20
11.395136000000008
 11
274.23625599999997
 21
11.35123200000001
  0
LINE
  8
_f-f_
  6
CONTINUOUS
 62
    7
 10
274.23625599999997
 20
11.35123200000001
 11
274.137472
 21
11.35123200000001
  0
LINE
  8
_f-f_
  6
CONTINUOUS
 62
    7
 10
273.48988799999995
 20
14.600128000000012
 11
273.51183999999995
 21
14.556224000000014
  0
LINE
  8
_f-f_
  6
CONTINUOUS
 62
    7
 10
273.51183999999995
 20
14.556224000000014
 11
273.44598400000001
 21
14.468416000000005
  0
LINE
  8
_f-f_
  6
CONTINUOUS
 62
    7
 10
273.44598400000001
 20
14.468416000000005
 11
273.44598400000001
 21
13.853760000000037
  0
LINE
  8
_f-f_
  6
CONTINUOUS
 62
    7
 10
273.44598400000001
 20
13.458624000000043
 11
273.44598400000001
 21
13.370815999999991
  0
LINE
  8
_f-f_
  6
CONTINUOUS
 62
    7
 10
273.44598400000001
 20
13.370815999999991
 11
273.45695999999998
 21
13.326912000000021
  0
LINE
  8
_f-f_
  6
CONTINUOUS
 62
    7
 10
273.45695999999998
 20
13.326912000000021
 11
273.45695999999998
 21
13.239103999999998
  0
LINE
  8
_f-f_
  6
CONTINUOUS
 62
    7
 10
273.45695999999998
 20
13.239103999999998
 11
273.46793600000001
 21
13.195199999999971
  0
LINE
  8
_f-f_
  6
CONTINUOUS
 62
    7
 10
273.46793600000001
 20
13.195199999999971
 11
273.46793600000001
 21
13.107392000000061
  0
LINE
  8
_f-f_
  6
CONTINUOUS
 62
    7
 10
273.46793600000001
 20
13.107392000000061
 11
273.47891199999992
 21
13.063488000000007
  0
LINE
  8
_f-f_
  6
CONTINUOUS
 62
    7
 10
273.47891199999992
 20
13.063488000000007
 11
273.47891199999992
 21
13.019583999999952
  0
LINE
  8
_f-f_
  6
CONTINUOUS
 62
    7
 10
273.47891199999992
 20
13.019583999999952
 11
273.48988799999995
 21
12.975680000000011
  0
LINE
  8
_f-f_
  6
CONTINUOUS
 62
    7
 10
273.48988799999995
 20
12.975680000000011
 11
273.48988799999995
 21
12.887871999999987
  0
LINE
  8
_f-f_
  6
CONTINUOUS
 62
    7
 10
273.48988799999995
 20
12.887871999999987
 11
273.50086399999998
 21
12.84396799999999
  0
LINE
  8
_f-f_
  6
CONTINUOUS
 62
    7
 10
273.50086399999998
 20
12.84396799999999
 11
273.50086399999998
 21
12.800064000000049
  0
LINE
  8
_f-f_
  6
CONTINUOUS
 62
    7
 10
273.50086399999998
 20
12.800064000000049
 11
273.52281599999992
 21
12.712256000000025
  0
LINE
  8
_f-f_
  6
CONTINUOUS
 62
    7
 10
273.52281599999992
 20
12.712256000000025
 11
273.52281599999992
 21
12.668351999999999
  0
LINE
  8
_f-f_
  6
CONTINUOUS
 62
    7
 10
273.52281599999992
 20
12.668351999999999
 11
273.53379199999995
 21
12.624447999999973
  0
LINE
  8
_f-f_
  6
CONTINUOUS
 62
    7
 10
273.53379199999995
 20
12.624447999999973
 11
273.53379199999995
 21
12.580544000000003
  0
LINE
  8
_f-f_
  6
CONTINUOUS
 62
    7
 10
273.53379199999995
 20
12.580544000000003
 11
273.56671999999992
 21
12.448831999999982
  0
LINE
  8
_f-f_
  6
CONTINUOUS
 62
    7
 10
273.56671999999992
 20
12.448831999999982
 11
273.56671999999992
 21
12.404927999999984
  0
LINE
  8
_f-f_
  6
CONTINUOUS
 62
    7
 10
273.56671999999992
 20
12.404927999999984
 11
273.63257599999997
 21
12.141503999999998
  0
LINE
  8
_f-f_
  6
CONTINUOUS
 62
    7
 10
273.63257599999997
 20
12.141503999999998
 11
273.65452800000003
 21
12.0976
  0
LINE
  8
_f-f_
  6
CONTINUOUS
 62
    7
 10
273.65452800000003
 20
12.0976
 11
273.67647999999997
 21
12.009792000000004
  0
LINE
  8
_f-f_
  6
CONTINUOUS
 62
    7
 10
273.67647999999997
 20
12.009792000000004
 11
273.69843199999997
 21
11.965888000000007
  0
LINE
  8
_f-f_
  6
CONTINUOUS
 62
    7
 10
273.69843199999997
 20
11.965888000000007
 11
273.70940799999994
 21
11.921984000000009
  0
LINE
  8
_f-f_
  6
CONTINUOUS
 62
    7
 10
273.70940799999994
 20
11.921984000000009
 11
273.84111999999993
 21
11.658559999999994
  0
LINE
  8
_f-f_
  6
CONTINUOUS
 62
    7
 10
273.84111999999993
 20
11.658559999999994
 11
273.87404799999996
 21
11.614655999999997
  0
LINE
  8
_f-f_
  6
CONTINUOUS
 62
    7
 10
273.87404799999996
 20
11.614655999999997
 11
273.89599999999996
 21
11.570752000000027
  0
LINE
  8
_f-f_
  6
CONTINUOUS
 62
    7
 10
273.89599999999996
 20
11.570752000000027
 11
273.92892799999993
 21
11.52684800000003
  0
LINE
  8
_f-f_
  6
CONTINUOUS
 62
    7
 10
273.92892799999993
 20
11.52684800000003
 11
273.97283199999998
 21
11.482944000000003
  0
LINE
  8
_f-f_
  6
CONTINUOUS
 62
    7
 10
273.97283199999998
 20
11.482944000000003
 11
274.0057599999999
 21
11.439040000000034
  0
LINE
  8
_f-f_
  6
CONTINUOUS
 62
    7
 10
274.0057599999999
 20
11.439040000000034
 11
274.06063999999998
 21
11.395136000000008
  0
LINE
  8
_f-f_
  6
CONTINUOUS
 62
    7
 10
274.06063999999998
 20
11.395136000000008
 11
274.137472
 21
11.35123200000001
  0
LINE
  8
_f-f_
  6
CONTINUOUS
 62
    7
 10
273.95087999999998
 20
14.512320000000003
 11
274.10454399999992
 21
14.424512000000007
  0
LINE
  8
_f-f_
  6
CONTINUOUS
 62
    7
 10
274.10454399999992
 20
14.424512000000007
 11
274.15942399999994
 21
14.380608000000009
  0
LINE
  8
_f-f_
  6
CONTINUOUS
 62
    7
 10
274.15942399999994
 20
14.380608000000009
 11
274.22528
 21
14.336704000000026
  0
LINE
  8
_f-f_
  6
CONTINUOUS
 62
    7
 10
274.22528
 20
14.336704000000026
 11
274.28016000000002
 21
14.292800000000028
  0
LINE
  8
_f-f_
  6
CONTINUOUS
 62
    7
 10
274.28016000000002
 20
14.292800000000028
 11
274.32406400000002
 21
14.248896000000016
  0
LINE
  8
_f-f_
  6
CONTINUOUS
 62
    7
 10
274.32406400000002
 20
14.248896000000016
 11
274.35699199999999
 21
14.204992000000018
  0
LINE
  8
_f-f_
  6
CONTINUOUS
 62
    7
 10
274.35699199999999
 20
14.204992000000018
 11
274.24723199999994
 21
14.117184000000023
  0
LINE
  8
_f-f_
  6
CONTINUOUS
 62
    7
 10
274.24723199999994
 20
14.117184000000023
 11
274.20332799999994
 21
14.073279999999997
  0
LINE
  8
_f-f_
  6
CONTINUOUS
 62
    7
 10
274.20332799999994
 20
14.073279999999997
 11
274.093568
 21
13.985471999999987
  0
LINE
  8
_f-f_
  6
CONTINUOUS
 62
    7
 10
274.093568
 20
13.985471999999987
 11
274.06063999999998
 21
13.985471999999987
  0
LINE
  8
_f-f_
  6
CONTINUOUS
 62
    7
 10
273.07279999999992
 20
11.746368000000018
 11
273.083776
 21
11.70246400000002
  0
LINE
  8
_f-f_
  6
CONTINUOUS
 62
    7
 10
273.083776
 20
11.70246400000002
 11
273.083776
 21
11.658559999999994
  0
LINE
  8
_f-f_
  6
CONTINUOUS
 62
    7
 10
273.083776
 20
11.658559999999994
 11
273.105728
 21
11.570752000000027
  0
LINE
  8
_f-f_
  6
CONTINUOUS
 62
    7
 10
273.105728
 20
11.570752000000027
 11
273.105728
 21
11.52684800000003
  0
LINE
  8
_f-f_
  6
CONTINUOUS
 62
    7
 10
273.105728
 20
11.52684800000003
 11
273.11670399999991
 21
11.482944000000003
  0
LINE
  8
_f-f_
  6
CONTINUOUS
 62
    7
 10
273.11670399999991
 20
11.482944000000003
 11
273.03987199999995
 21
11.439040000000034
  0
LINE
  8
_f-f_
  6
CONTINUOUS
 62
    7
 10
273.03987199999995
 20
11.439040000000034
 11
272.62278400000002
 21
11.35123200000001
  0
LINE
  8
_f-f_
  6
CONTINUOUS
 62
    7
 10
272.62278400000002
 20
11.35123200000001
 11
272.18374399999993
 21
11.263423999999986
  0
LINE
  8
_f-f_
  6
CONTINUOUS
 62
    7
 10
272.18374399999993
 20
11.263423999999986
 11
271.72275199999996
 21
11.175616000000019
  0
LINE
  8
_f-f_
  6
CONTINUOUS
 62
    7
 10
271.72275199999996
 20
11.175616000000019
 11
271.48127999999997
 21
11.131712000000022
  0
LINE
  8
_f-f_
  6
CONTINUOUS
 62
    7
 10
271.48127999999997
 20
11.131712000000022
 11
271.2288319999999
 21
11.087808000000024
  0
LINE
  8
_f-f_
  6
CONTINUOUS
 62
    7
 10
271.2288319999999
 20
11.087808000000024
 11
271.17395199999999
 21
11.043903999999998
  0
LINE
  8
_f-f_
  6
CONTINUOUS
 62
    7
 10
271.17395199999999
 20
11.043903999999998
 11
271.15199999999993
 21
11
  0
LINE
  8
_f-f_
  6
CONTINUOUS
 62
    7
 10
271.15199999999993
 20
11
 11
271.11907199999996
 21
11
  0
LINE
  8
_f-f_
  6
CONTINUOUS
 62
    7
 10
274.38991999999996
 20
11.70246400000002
 11
274.47772799999996
 21
11.658559999999994
  0
LINE
  8
_f-f_
  6
CONTINUOUS
 62
    7
 10
274.47772799999996
 20
11.658559999999994
 11
274.67529599999995
 21
11.570752000000027
  0
LINE
  8
_f-f_
  6
CONTINUOUS
 62
    7
 10
274.67529599999995
 20
11.570752000000027
 11
274.67529599999995
 21
11.52684800000003
  0
LINE
  8
_f-f_
  6
CONTINUOUS
 62
    7
 10
274.67529599999995
 20
11.52684800000003
 11
274.65334399999995
 21
11.439040000000034
  0
LINE
  8
_f-f_
  6
CONTINUOUS
 62
    7
 10
274.65334399999995
 20
11.439040000000034
 11
274.65334399999995
 21
11.395136000000008
  0
LINE
  8
_f-f_
  6
CONTINUOUS
 62
    7
 10
274.65334399999995
 20
11.395136000000008
 11
274.63139200000001
 21
11.307327999999984
  0
LINE
  8
_f-f_
  6
CONTINUOUS
 62
    7
 10
274.63139200000001
 20
11.307327999999984
 11
274.63139200000001
 21
11.263423999999986
  0
LINE
  8
_f-f_
  6
CONTINUOUS
 62
    7
 10
274.63139200000001
 20
11.263423999999986
 11
274.60943999999995
 21
11.175616000000019
  0
LINE
  8
_f-f_
  6
CONTINUOUS
 62
    7
 10
274.60943999999995
 20
11.175616000000019
 11
274.60943999999995
 21
11.131712000000022
  0
LINE
  8
_f-f_
  6
CONTINUOUS
 62
    7
 10
274.60943999999995
 20
11.131712000000022
 11
274.59846399999998
 21
11.087808000000024
  0
LINE
  8
_f-f_
  6
CONTINUOUS
 62
    7
 10
274.59846399999998
 20
11.087808000000024
 11
274.55455999999992
 21
11
  0
LINE
  8
_f-f_
  6
CONTINUOUS
 62
    7
 10
274.55455999999992
 20
11
 11
274.52163199999995
 21
10.956095999999974
  0
LINE
  8
_f-f_
  6
CONTINUOUS
 62
    7
 10
274.52163199999995
 20
10.956095999999974
 11
274.46675199999993
 21
10.912192000000005
  0
LINE
  8
_f-f_
  6
CONTINUOUS
 62
    7
 10
274.46675199999993
 20
10.912192000000005
 11
274.093568
 21
10.912192000000005
  0
LINE
  8
_f-f_
  6
CONTINUOUS
 62
    7
 10
277.05708800000002
 20
14.644031999999967
 11
276.99123199999997
 21
14.644031999999967
  0
LINE
  8
_f-f_
  6
CONTINUOUS
 62
    7
 10
276.99123199999997
 20
14.644031999999967
 11
276.94732799999997
 21
14.556224000000014
  0
LINE
  8
_f-f_
  6
CONTINUOUS
 62
    7
 10
276.94732799999997
 20
14.556224000000014
 11
276.9144
 21
14.512320000000003
  0
LINE
  8
_f-f_
  6
CONTINUOUS
 62
    7
 10
276.9144
 20
14.512320000000003
 11
276.89244799999994
 21
14.468416000000005
  0
LINE
  8
_f-f_
  6
CONTINUOUS
 62
    7
 10
276.89244799999994
 20
14.468416000000005
 11
276.82659199999995
 21
14.380608000000009
  0
LINE
  8
_f-f_
  6
CONTINUOUS
 62
    7
 10
276.82659199999995
 20
14.380608000000009
 11
276.80463999999995
 21
14.336704000000026
  0
LINE
  8
_f-f_
  6
CONTINUOUS
 62
    7
 10
276.80463999999995
 20
14.336704000000026
 11
276.70585599999993
 21
14.204992000000018
  0
LINE
  8
_f-f_
  6
CONTINUOUS
 62
    7
 10
276.70585599999993
 20
14.204992000000018
 11
276.66195199999999
 21
14.161087999999992
  0
LINE
  8
_f-f_
  6
CONTINUOUS
 62
    7
 10
276.66195199999999
 20
14.161087999999992
 11
276.59609599999999
 21
14.073279999999997
  0
LINE
  8
_f-f_
  6
CONTINUOUS
 62
    7
 10
276.59609599999999
 20
14.073279999999997
 11
276.42048
 21
13.897663999999992
  0
LINE
  8
_f-f_
  6
CONTINUOUS
 62
    7
 10
276.42048
 20
13.897663999999992
 11
276.36559999999997
 21
13.853760000000037
  0
LINE
  8
_f-f_
  6
CONTINUOUS
 62
    7
 10
276.36559999999997
 20
13.853760000000037
 11
276.32169599999997
 21
13.809856000000011
  0
LINE
  8
_f-f_
  6
CONTINUOUS
 62
    7
 10
276.32169599999997
 20
13.809856000000011
 11
276.21193599999998
 21
13.722048000000001
  0
LINE
  8
_f-f_
  6
CONTINUOUS
 62
    7
 10
276.21193599999998
 20
13.722048000000001
 11
276.01436799999999
 21
13.590336000000008
  0
LINE
  8
_f-f_
  6
CONTINUOUS
 62
    7
 10
276.01436799999999
 20
13.590336000000008
 11
275.860704
 21
13.502527999999984
  0
LINE
  8
_f-f_
  6
CONTINUOUS
 62
    7
 10
275.860704
 20
13.502527999999984
 11
275.68508799999995
 21
13.414720000000017
  0
LINE
  8
_f-f_
  6
CONTINUOUS
 62
    7
 10
275.68508799999995
 20
13.414720000000017
 11
275.46556799999996
 21
13.326912000000021
  0
LINE
  8
_f-f_
  6
CONTINUOUS
 62
    7
 10
275.46556799999996
 20
13.326912000000021
 11
275.33385599999997
 21
13.283008000000024
  0
LINE
  8
_f-f_
  6
CONTINUOUS
 62
    7
 10
275.33385599999997
 20
13.283008000000024
 11
275.22409599999997
 21
13.239103999999998
  0
LINE
  8
_f-f_
  6
CONTINUOUS
 62
    7
 10
275.22409599999997
 20
13.239103999999998
 11
275.23507199999995
 21
13.195199999999971
  0
LINE
  8
_f-f_
  6
CONTINUOUS
 62
    7
 10
275.23507199999995
 20
13.195199999999971
 11
275.257024
 21
13.151296000000031
  0
LINE
  8
_f-f_
  6
CONTINUOUS
 62
    7
 10
275.257024
 20
13.151296000000031
 11
275.26800000000003
 21
13.107392000000061
  0
LINE
  8
_f-f_
  6
CONTINUOUS
 62
    7
 10
275.26800000000003
 20
13.107392000000061
 11
275.28995199999997
 21
13.063488000000007
  0
LINE
  8
_f-f_
  6
CONTINUOUS
 62
    7
 10
275.28995199999997
 20
13.063488000000007
 11
275.300928
 21
13.019583999999952
  0
LINE
  8
_f-f_
  6
CONTINUOUS
 62
    7
 10
275.300928
 20
13.019583999999952
 11
275.32287999999994
 21
12.975680000000011
  0
LINE
  8
_f-f_
  6
CONTINUOUS
 62
    7
 10
275.32287999999994
 20
12.975680000000011
 11
275.33385599999997
 21
12.931776000000013
  0
LINE
  8
_f-f_
  6
CONTINUOUS
 62
    7
 10
275.33385599999997
 20
12.931776000000013
 11
275.35580800000002
 21
12.887871999999987
  0
LINE
  8
_f-f_
  6
CONTINUOUS
 62
    7
 10
277.17782399999993
 20
14.292800000000028
 11
277.19977599999999
 21
14.248896000000016
  0
LINE
  8
_f-f_
  6
CONTINUOUS
 62
    7
 10
277.19977599999999
 20
14.248896000000016
 11
277.2327039999999
 21
14.204992000000018
  0
LINE
  8
_f-f_
  6
CONTINUOUS
 62
    7
 10
277.2327039999999
 20
14.204992000000018
 11
277.25465599999995
 21
14.161087999999992
  0
LINE
  8
_f-f_
  6
CONTINUOUS
 62
    7
 10
277.25465599999995
 20
14.161087999999992
 11
277.48515199999997
 21
13.853760000000037
  0
LINE
  8
_f-f_
  6
CONTINUOUS
 62
    7
 10
277.48515199999997
 20
13.853760000000037
 11
277.70467199999996
 21
13.634240000000005
  0
LINE
  8
_f-f_
  6
CONTINUOUS
 62
    7
 10
277.70467199999996
 20
13.634240000000005
 11
277.86931199999992
 21
13.502527999999984
  0
LINE
  8
_f-f_
  6
CONTINUOUS
 62
    7
 10
277.86931199999992
 20
13.502527999999984
 11
278.06687999999991
 21
13.370815999999991
  0
LINE
  8
_f-f_
  6
CONTINUOUS
 62
    7
 10
278.06687999999991
 20
13.370815999999991
 11
278.14371199999994
 21
13.326912000000021
  0
LINE
  8
_f-f_
  6
CONTINUOUS
 62
    7
 10
278.14371199999994
 20
13.326912000000021
 11
276.27779199999998
 21
13.326912000000021
  0
LINE
  8
_f-f_
  6
CONTINUOUS
 62
    7
 10
276.24486400000001
 20
13.283008000000024
 11
276.24486400000001
 21
12.975680000000011
  0
LINE
  8
_f-f_
  6
CONTINUOUS
 62
    7
 10
278.23151999999993
 20
13.283008000000024
 11
278.38518399999998
 21
13.195199999999971
  0
LINE
  8
_f-f_
  6
CONTINUOUS
 62
    7
 10
278.38518399999998
 20
13.195199999999971
 11
278.56079999999997
 21
13.107392000000061
  0
LINE
  8
_f-f_
  6
CONTINUOUS
 62
    7
 10
278.56079999999997
 20
13.107392000000061
 11
278.78031999999996
 21
13.019583999999952
  0
LINE
  8
_f-f_
  6
CONTINUOUS
 62
    7
 10
278.78031999999996
 20
13.019583999999952
 11
278.91203199999995
 21
12.975680000000011
  0
LINE
  8
_f-f_
  6
CONTINUOUS
 62
    7
 10
278.9339839999999
 20
12.536639999999977
 11
275.43263999999999
 21
12.536639999999977
  0
LINE
  8
_f-f_
  6
CONTINUOUS
 62
    7
 10
276.66195199999999
 20
12.141503999999998
 11
276.6290239999999
 21
12.0976
  0
LINE
  8
_f-f_
  6
CONTINUOUS
 62
    7
 10
276.6290239999999
 20
12.0976
 11
276.54121599999996
 21
11.921984000000009
  0
LINE
  8
_f-f_
  6
CONTINUOUS
 62
    7
 10
276.54121599999996
 20
11.921984000000009
 11
276.50828799999999
 21
11.878080000000011
  0
LINE
  8
_f-f_
  6
CONTINUOUS
 62
    7
 10
276.50828799999999
 20
11.878080000000011
 11
276.42048
 21
11.70246400000002
  0
LINE
  8
_f-f_
  6
CONTINUOUS
 62
    7
 10
276.42048
 20
11.70246400000002
 11
276.38755199999997
 21
11.658559999999994
  0
LINE
  8
_f-f_
  6
CONTINUOUS
 62
    7
 10
276.38755199999997
 20
11.658559999999994
 11
276.29974399999992
 21
11.482944000000003
  0
LINE
  8
_f-f_
  6
CONTINUOUS
 62
    7
 10
276.29974399999992
 20
11.482944000000003
 11
276.26681599999995
 21
11.439040000000034
  0
LINE
  8
_f-f_
  6
CONTINUOUS
 62
    7
 10
276.26681599999995
 20
11.439040000000034
 11
276.20096000000001
 21
11.307327999999984
  0
LINE
  8
_f-f_
  6
CONTINUOUS
 62
    7
 10
276.20096000000001
 20
11.307327999999984
 11
275.57532799999996
 21
11.263423999999986
  0
LINE
  8
_f-f_
  6
CONTINUOUS
 62
    7
 10
275.57532799999996
 20
11.263423999999986
 11
275.49849599999993
 21
11.219519999999989
  0
LINE
  8
_f-f_
  6
CONTINUOUS
 62
    7
 10
275.49849599999993
 20
11.219519999999989
 11
275.50947199999996
 21
11.175616000000019
  0
LINE
  8
_f-f_
  6
CONTINUOUS
 62
    7
 10
275.50947199999996
 20
11.175616000000019
 11
275.53142400000002
 21
11.131712000000022
  0
LINE
  8
_f-f_
  6
CONTINUOUS
 62
    7
 10
275.53142400000002
 20
11.131712000000022
 11
275.59727999999996
 21
10.868288000000035
  0
LINE
  8
_f-f_
  6
CONTINUOUS
 62
    7
 10
275.59727999999996
 20
10.868288000000035
 11
275.63020799999993
 21
10.824384000000038
  0
LINE
  8
_f-f_
  6
CONTINUOUS
 62
    7
 10
277.81443200000001
 20
12.009792000000004
 11
277.77052800000001
 21
12.009792000000004
  0
LINE
  8
_f-f_
  6
CONTINUOUS
 62
    7
 10
277.77052800000001
 20
12.009792000000004
 11
277.50710400000003
 21
11.834176000000014
  0
LINE
  8
_f-f_
  6
CONTINUOUS
 62
    7
 10
277.50710400000003
 20
11.834176000000014
 11
277.55100799999997
 21
11.790272000000016
  0
LINE
  8
_f-f_
  6
CONTINUOUS
 62
    7
 10
277.55100799999997
 20
11.790272000000016
 11
277.88028799999995
 21
11.52684800000003
  0
LINE
  8
_f-f_
  6
CONTINUOUS
 62
    7
 10
277.88028799999995
 20
11.52684800000003
 11
277.92419200000001
 21
11.482944000000003
  0
LINE
  8
_f-f_
  6
CONTINUOUS
 62
    7
 10
277.92419200000001
 20
11.482944000000003
 11
277.97907199999997
 21
11.439040000000034
  0
LINE
  8
_f-f_
  6
CONTINUOUS
 62
    7
 10
277.97907199999997
 20
11.439040000000034
 11
277.73759999999999
 21
11.395136000000008
  0
LINE
  8
_f-f_
  6
CONTINUOUS
 62
    7
 10
277.73759999999999
 20
11.395136000000008
 11
277.14489600000002
 21
11.35123200000001
  0
LINE
  8
_f-f_
  6
CONTINUOUS
 62
    7
 10
277.14489600000002
 20
11.35123200000001
 11
276.58511999999996
 21
11.35123200000001
  0
LINE
  8
_f-f_
  6
CONTINUOUS
 62
    7
 10
278.26444799999996
 20
11.131712000000022
 11
278.30835200000001
 21
11.087808000000024
  0
LINE
  8
_f-f_
  6
CONTINUOUS
 62
    7
 10
278.30835200000001
 20
11.087808000000024
 11
278.36323199999993
 21
11.043903999999998
  0
LINE
  8
_f-f_
  6
CONTINUOUS
 62
    7
 10
278.36323199999993
 20
11.043903999999998
 11
278.3961599999999
 21
11
  0
LINE
  8
_f-f_
  6
CONTINUOUS
 62
    7
 10
278.3961599999999
 20
11
 11
278.44006399999995
 21
10.956095999999974
  0
LINE
  8
_f-f_
  6
CONTINUOUS
 62
    7
 10
278.44006399999995
 20
10.956095999999974
 11
278.47299199999998
 21
10.912192000000005
  0
LINE
  8
_f-f_
  6
CONTINUOUS
 62
    7
 10
278.47299199999998
 20
10.912192000000005
 11
278.51689599999997
 21
10.868288000000035
  0
LINE
  8
_f-f_
  6
CONTINUOUS
 62
    7
 10
278.51689599999997
 20
10.868288000000035
 11
278.54982399999994
 21
10.824384000000038
  0
LINE
  8
_f-f_
  6
CONTINUOUS
 62
    7
 10
277.05708800000002
 20
14.644031999999967
 11
277.36441599999995
 21
14.600128000000012
  0
LINE
  8
_f-f_
  6
CONTINUOUS
 62
    7
 10
277.36441599999995
 20
14.600128000000012
 11
277.40832
 21
14.556224000000014
  0
LINE
  8
_f-f_
  6
CONTINUOUS
 62
    7
 10
277.40832
 20
14.556224000000014
 11
277.36441599999995
 21
14.512320000000003
  0
LINE
  8
_f-f_
  6
CONTINUOUS
 62
    7
 10
277.36441599999995
 20
14.512320000000003
 11
277.37539199999998
 21
14.468416000000005
  0
LINE
  8
_f-f_
  6
CONTINUOUS
 62
    7
 10
277.37539199999998
 20
14.468416000000005
 11
277.50710400000003
 21
14.292800000000028
  0
LINE
  8
_f-f_
  6
CONTINUOUS
 62
    7
 10
277.50710400000003
 20
14.292800000000028
 11
277.59491200000002
 21
14.204992000000018
  0
LINE
  8
_f-f_
  6
CONTINUOUS
 62
    7
 10
277.59491200000002
 20
14.204992000000018
 11
277.62783999999999
 21
14.161087999999992
  0
LINE
  8
_f-f_
  6
CONTINUOUS
 62
    7
 10
277.62783999999999
 20
14.161087999999992
 11
277.67174399999999
 21
14.117184000000023
  0
LINE
  8
_f-f_
  6
CONTINUOUS
 62
    7
 10
277.67174399999999
 20
14.117184000000023
 11
277.72662399999996
 21
14.073279999999997
  0
LINE
  8
_f-f_
  6
CONTINUOUS
 62
    7
 10
277.72662399999996
 20
14.073279999999997
 11
277.77052800000001
 21
14.029375999999999
  0
LINE
  8
_f-f_
  6
CONTINUOUS
 62
    7
 10
277.77052800000001
 20
14.029375999999999
 11
277.93516799999998
 21
13.897663999999992
  0
LINE
  8
_f-f_
  6
CONTINUOUS
 62
    7
 10
277.93516799999998
 20
13.897663999999992
 11
278.13273600000002
 21
13.765952000000013
  0
LINE
  8
_f-f_
  6
CONTINUOUS
 62
    7
 10
278.13273600000002
 20
13.765952000000013
 11
278.28639999999996
 21
13.678143999999975
  0
LINE
  8
_f-f_
  6
CONTINUOUS
 62
    7
 10
278.28639999999996
 20
13.678143999999975
 11
278.46201599999995
 21
13.590336000000008
  0
LINE
  8
_f-f_
  6
CONTINUOUS
 62
    7
 10
278.46201599999995
 20
13.590336000000008
 11
278.68153599999994
 21
13.502527999999984
  0
LINE
  8
_f-f_
  6
CONTINUOUS
 62
    7
 10
278.68153599999994
 20
13.502527999999984
 11
278.80227199999996
 21
13.458624000000043
  0
LINE
  8
_f-f_
  6
CONTINUOUS
 62
    7
 10
278.80227199999996
 20
13.458624000000043
 11
278.94495999999992
 21
13.414720000000017
  0
LINE
  8
_f-f_
  6
CONTINUOUS
 62
    7
 10
278.94495999999992
 20
13.414720000000017
 11
279.09862399999997
 21
13.370815999999991
  0
LINE
  8
_f-f_
  6
CONTINUOUS
 62
    7
 10
279.09862399999997
 20
13.370815999999991
 11
279.08764799999994
 21
13.326912000000021
  0
LINE
  8
_f-f_
  6
CONTINUOUS
 62
    7
 10
279.08764799999994
 20
13.326912000000021
 11
279.04374399999995
 21
13.239103999999998
  0
LINE
  8
_f-f_
  6
CONTINUOUS
 62
    7
 10
279.04374399999995
 20
13.239103999999998
 11
279.03276799999992
 21
13.195199999999971
  0
LINE
  8
_f-f_
  6
CONTINUOUS
 62
    7
 10
279.03276799999992
 20
13.195199999999971
 11
278.98886399999998
 21
13.107392000000061
  0
LINE
  8
_f-f_
  6
CONTINUOUS
 62
    7
 10
278.98886399999998
 20
13.107392000000061
 11
278.97788799999995
 21
13.063488000000007
  0
LINE
  8
_f-f_
  6
CONTINUOUS
 62
    7
 10
278.97788799999995
 20
13.063488000000007
 11
278.9339839999999
 21
12.975680000000011
  0
LINE
  8
_f-f_
  6
CONTINUOUS
 62
    7
 10
278.9339839999999
 20
12.975680000000011
 11
278.91203199999995
 21
12.975680000000011
  0
LINE
  8
_f-f_
  6
CONTINUOUS
 62
    7
 10
277.17782399999993
 20
14.292800000000028
 11
277.14489600000002
 21
14.292800000000028
  0
LINE
  8
_f-f_
  6
CONTINUOUS
 62
    7
 10
277.14489600000002
 20
14.292800000000028
 11
277.11196799999999
 21
14.248896000000016
  0
LINE
  8
_f-f_
  6
CONTINUOUS
 62
    7
 10
277.11196799999999
 20
14.248896000000016
 11
277.09001599999993
 21
14.204992000000018
  0
LINE
  8
_f-f_
  6
CONTINUOUS
 62
    7
 10
277.09001599999993
 20
14.204992000000018
 11
277.05708800000002
 21
14.161087999999992
  0
LINE
  8
_f-f_
  6
CONTINUOUS
 62
    7
 10
277.05708800000002
 20
14.161087999999992
 11
277.03513599999997
 21
14.117184000000023
  0
LINE
  8
_f-f_
  6
CONTINUOUS
 62
    7
 10
277.03513599999997
 20
14.117184000000023
 11
276.83756799999998
 21
13.853760000000037
  0
LINE
  8
_f-f_
  6
CONTINUOUS
 62
    7
 10
276.83756799999998
 20
13.853760000000037
 11
276.79366399999992
 21
13.809856000000011
  0
LINE
  8
_f-f_
  6
CONTINUOUS
 62
    7
 10
276.79366399999992
 20
13.809856000000011
 11
276.76073599999995
 21
13.765952000000013
  0
LINE
  8
_f-f_
  6
CONTINUOUS
 62
    7
 10
276.76073599999995
 20
13.765952000000013
 11
276.49731199999997
 21
13.502527999999984
  0
LINE
  8
_f-f_
  6
CONTINUOUS
 62
    7
 10
276.49731199999997
 20
13.502527999999984
 11
276.27779199999998
 21
13.326912000000021
  0
LINE
  8
_f-f_
  6
CONTINUOUS
 62
    7
 10
276.24486400000001
 20
13.283008000000024
 11
276.21193599999998
 21
13.283008000000024
  0
LINE
  8
_f-f_
  6
CONTINUOUS
 62
    7
 10
276.21193599999998
 20
13.283008000000024
 11
276.01436799999999
 21
13.151296000000031
  0
LINE
  8
_f-f_
  6
CONTINUOUS
 62
    7
 10
276.01436799999999
 20
13.151296000000031
 11
275.78387199999997
 21
13.019583999999952
  0
LINE
  8
_f-f_
  6
CONTINUOUS
 62
    7
 10
275.78387199999997
 20
13.019583999999952
 11
275.58630399999993
 21
12.931776000000013
  0
LINE
  8
_f-f_
  6
CONTINUOUS
 62
    7
 10
275.58630399999993
 20
12.931776000000013
 11
275.47654399999999
 21
12.887871999999987
  0
LINE
  8
_f-f_
  6
CONTINUOUS
 62
    7
 10
275.47654399999999
 20
12.887871999999987
 11
275.35580800000002
 21
12.887871999999987
  0
LINE
  8
_f-f_
  6
CONTINUOUS
 62
    7
 10
278.23151999999993
 20
13.283008000000024
 11
278.16566399999994
 21
13.283008000000024
  0
LINE
  8
_f-f_
  6
CONTINUOUS
 62
    7
 10
278.16566399999994
 20
13.283008000000024
 11
278.16566399999994
 21
12.975680000000011
  0
LINE
  8
_f-f_
  6
CONTINUOUS
 62
    7
 10
278.16566399999994
 20
12.975680000000011
 11
276.24486400000001
 21
12.975680000000011
  0
LINE
  8
_f-f_
  6
CONTINUOUS
 62
    7
 10
277.05708800000002
 20
12.141503999999998
 11
277.01318399999997
 21
12.053696000000031
  0
LINE
  8
_f-f_
  6
CONTINUOUS
 62
    7
 10
277.01318399999997
 20
12.053696000000031
 11
276.98025599999994
 21
12.009792000000004
  0
LINE
  8
_f-f_
  6
CONTINUOUS
 62
    7
 10
276.98025599999994
 20
12.009792000000004
 11
276.958304
 21
11.965888000000007
  0
LINE
  8
_f-f_
  6
CONTINUOUS
 62
    7
 10
276.958304
 20
11.965888000000007
 11
276.92537599999997
 21
11.921984000000009
  0
LINE
  8
_f-f_
  6
CONTINUOUS
 62
    7
 10
276.92537599999997
 20
11.921984000000009
 11
276.88147199999992
 21
11.834176000000014
  0
LINE
  8
_f-f_
  6
CONTINUOUS
 62
    7
 10
276.88147199999992
 20
11.834176000000014
 11
276.84854399999995
 21
11.790272000000016
  0
LINE
  8
_f-f_
  6
CONTINUOUS
 62
    7
 10
276.84854399999995
 20
11.790272000000016
 11
276.82659199999995
 21
11.746368000000018
  0
LINE
  8
_f-f_
  6
CONTINUOUS
 62
    7
 10
276.82659199999995
 20
11.746368000000018
 11
276.79366399999992
 21
11.70246400000002
  0
LINE
  8
_f-f_
  6
CONTINUOUS
 62
    7
 10
276.79366399999992
 20
11.70246400000002
 11
276.74975999999998
 21
11.614655999999997
  0
LINE
  8
_f-f_
  6
CONTINUOUS
 62
    7
 10
276.74975999999998
 20
11.614655999999997
 11
276.71683199999995
 21
11.570752000000027
  0
LINE
  8
_f-f_
  6
CONTINUOUS
 62
    7
 10
276.71683199999995
 20
11.570752000000027
 11
276.69488000000001
 21
11.52684800000003
  0
LINE
  8
_f-f_
  6
CONTINUOUS
 62
    7
 10
276.69488000000001
 20
11.52684800000003
 11
276.66195199999999
 21
11.482944000000003
  0
LINE
  8
_f-f_
  6
CONTINUOUS
 62
    7
 10
276.66195199999999
 20
11.482944000000003
 11
276.61804799999993
 21
11.395136000000008
  0
LINE
  8
_f-f_
  6
CONTINUOUS
 62
    7
 10
276.61804799999993
 20
11.395136000000008
 11
276.58511999999996
 21
11.35123200000001
  0
LINE
  8
_f-f_
  6
CONTINUOUS
 62
    7
 10
277.81443200000001
 20
12.009792000000004
 11
277.92419200000001
 21
11.921984000000009
  0
LINE
  8
_f-f_
  6
CONTINUOUS
 62
    7
 10
277.92419200000001
 20
11.921984000000009
 11
277.990048
 21
11.878080000000011
  0
LINE
  8
_f-f_
  6
CONTINUOUS
 62
    7
 10
277.990048
 20
11.878080000000011
 11
278.20956799999988
 21
11.70246400000002
  0
LINE
  8
_f-f_
  6
CONTINUOUS
 62
    7
 10
278.20956799999988
 20
11.70246400000002
 11
278.25347199999993
 21
11.658559999999994
  0
LINE
  8
_f-f_
  6
CONTINUOUS
 62
    7
 10
278.25347199999993
 20
11.658559999999994
 11
278.36323199999993
 21
11.570752000000027
  0
LINE
  8
_f-f_
  6
CONTINUOUS
 62
    7
 10
278.36323199999993
 20
11.570752000000027
 11
278.40713599999992
 21
11.52684800000003
  0
LINE
  8
_f-f_
  6
CONTINUOUS
 62
    7
 10
278.40713599999992
 20
11.52684800000003
 11
278.46201599999995
 21
11.482944000000003
  0
LINE
  8
_f-f_
  6
CONTINUOUS
 62
    7
 10
278.46201599999995
 20
11.482944000000003
 11
278.54982399999994
 21
11.395136000000008
  0
LINE
  8
_f-f_
  6
CONTINUOUS
 62
    7
 10
278.54982399999994
 20
11.395136000000008
 11
278.60470399999997
 21
11.35123200000001
  0
LINE
  8
_f-f_
  6
CONTINUOUS
 62
    7
 10
278.60470399999997
 20
11.35123200000001
 11
278.73641599999996
 21
11.219519999999989
  0
LINE
  8
_f-f_
  6
CONTINUOUS
 62
    7
 10
278.73641599999996
 20
11.219519999999989
 11
278.76934399999993
 21
11.175616000000019
  0
LINE
  8
_f-f_
  6
CONTINUOUS
 62
    7
 10
278.76934399999993
 20
11.175616000000019
 11
278.81324799999999
 21
11.131712000000022
  0
LINE
  8
_f-f_
  6
CONTINUOUS
 62
    7
 10
278.81324799999999
 20
11.131712000000022
 11
278.87910399999993
 21
11.043903999999998
  0
LINE
  8
_f-f_
  6
CONTINUOUS
 62
    7
 10
278.87910399999993
 20
11.043903999999998
 11
278.90105599999998
 21
11
  0
LINE
  8
_f-f_
  6
CONTINUOUS
 62
    7
 10
278.90105599999998
 20
11
 11
278.82422399999996
 21
10.956095999999974
  0
LINE
  8
_f-f_
  6
CONTINUOUS
 62
    7
 10
278.82422399999996
 20
10.956095999999974
 11
278.69251199999997
 21
10.868288000000035
  0
LINE
  8
_f-f_
  6
CONTINUOUS
 62
    7
 10
278.69251199999997
 20
10.868288000000035
 11
278.61567999999994
 21
10.824384000000038
  0
LINE
  8
_f-f_
  6
CONTINUOUS
 62
    7
 10
278.61567999999994
 20
10.824384000000038
 11
278.54982399999994
 21
10.824384000000038
  0
LINE
  8
_f-f_
  6
CONTINUOUS
 62
    7
 10
278.26444799999996
 20
11.131712000000022
 11
278.08883199999997
 21
11.131712000000022
  0
LINE
  8
_f-f_
  6
CONTINUOUS
 62
    7
 10
278.08883199999997
 20
11.131712000000022
 11
277.69369599999993
 21
11.087808000000024
  0
LINE
  8
_f-f_
  6
CONTINUOUS
 62
    7
 10
277.69369599999993
 20
11.087808000000024
 11
277.28758399999992
 21
11.043903999999998
  0
LINE
  8
_f-f_
  6
CONTINUOUS
 62
    7
 10
277.28758399999992
 20
11.043903999999998
 11
276.10217599999993
 21
10.912192000000005
  0
LINE
  8
_f-f_
  6
CONTINUOUS
 62
    7
 10
276.10217599999993
 20
10.912192000000005
 11
275.73996799999998
 21
10.868288000000035
  0
LINE
  8
_f-f_
  6
CONTINUOUS
 62
    7
 10
275.73996799999998
 20
10.868288000000035
 11
275.67411199999998
 21
10.824384000000038
  0
LINE
  8
_f-f_
  6
CONTINUOUS
 62
    7
 10
275.67411199999998
 20
10.824384000000038
 11
275.63020799999993
 21
10.824384000000038
  0
LINE
  8
_f-f_
  6
CONTINUOUS
 62
    7
 10
280.723072
 20
14.600128000000012
 11
280.33891199999999
 21
14.600128000000012
  0
LINE
  8
_f-f_
  6
CONTINUOUS
 62
    7
 10
280.82185599999991
 20
13.546432000000038
 11
280.79990399999997
 21
13.502527999999984
  0
LINE
  8
_f-f_
  6
CONTINUOUS
 62
    7
 10
280.79990399999997
 20
13.502527999999984
 11
280.76697599999994
 21
13.458624000000043
  0
LINE
  8
_f-f_
  6
CONTINUOUS
 62
    7
 10
280.76697599999994
 20
13.458624000000043
 11
280.74502399999994
 21
13.414720000000017
  0
LINE
  8
_f-f_
  6
CONTINUOUS
 62
    7
 10
280.74502399999994
 20
13.414720000000017
 11
280.67916799999995
 21
13.326912000000021
  0
LINE
  8
_f-f_
  6
CONTINUOUS
 62
    7
 10
280.67916799999995
 20
13.326912000000021
 11
280.65721599999995
 21
13.283008000000024
  0
LINE
  8
_f-f_
  6
CONTINUOUS
 62
    7
 10
280.65721599999995
 20
13.283008000000024
 11
280.59135999999995
 21
13.195199999999971
  0
LINE
  8
_f-f_
  6
CONTINUOUS
 62
    7
 10
280.59135999999995
 20
13.195199999999971
 11
280.54745600000001
 21
13.151296000000031
  0
LINE
  8
_f-f_
  6
CONTINUOUS
 62
    7
 10
280.54745600000001
 20
13.151296000000031
 11
280.48159999999996
 21
13.063488000000007
  0
LINE
  8
_f-f_
  6
CONTINUOUS
 62
    7
 10
280.48159999999996
 20
13.063488000000007
 11
280.43769599999996
 21
13.019583999999952
  0
LINE
  8
_f-f_
  6
CONTINUOUS
 62
    7
 10
280.43769599999996
 20
13.019583999999952
 11
280.40476799999999
 21
12.975680000000011
  0
LINE
  8
_f-f_
  6
CONTINUOUS
 62
    7
 10
280.40476799999999
 20
12.975680000000011
 11
280.22915199999994
 21
12.800064000000049
  0
LINE
  8
_f-f_
  6
CONTINUOUS
 62
    7
 10
280.22915199999994
 20
12.800064000000049
 11
280.17427199999997
 21
12.756160000000023
  0
LINE
  8
_f-f_
  6
CONTINUOUS
 62
    7
 10
280.17427199999997
 20
12.756160000000023
 11
280.13036799999998
 21
12.712256000000025
  0
LINE
  8
_f-f_
  6
CONTINUOUS
 62
    7
 10
280.13036799999998
 20
12.712256000000025
 11
280.02060799999992
 21
12.624447999999973
  0
LINE
  8
_f-f_
  6
CONTINUOUS
 62
    7
 10
280.02060799999992
 20
12.624447999999973
 11
279.95475199999993
 21
12.580544000000003
  0
LINE
  8
_f-f_
  6
CONTINUOUS
 62
    7
 10
279.95475199999993
 20
12.580544000000003
 11
279.89987199999996
 21
12.536639999999977
  0
LINE
  8
_f-f_
  6
CONTINUOUS
 62
    7
 10
279.89987199999996
 20
12.536639999999977
 11
279.70230399999997
 21
12.404927999999984
  0
LINE
  8
_f-f_
  6
CONTINUOUS
 62
    7
 10
279.70230399999997
 20
12.404927999999984
 11
279.62547199999995
 21
12.361024000000015
  0
LINE
  8
_f-f_
  6
CONTINUOUS
 62
    7
 10
279.62547199999995
 20
12.361024000000015
 11
279.55961599999989
 21
12.317120000000017
  0
LINE
  8
_f-f_
  6
CONTINUOUS
 62
    7
 10
279.55961599999989
 20
12.317120000000017
 11
279.60351999999995
 21
12.229311999999993
  0
LINE
  8
_f-f_
  6
CONTINUOUS
 62
    7
 10
279.60351999999995
 20
12.229311999999993
 11
279.61449599999997
 21
12.185407999999995
  0
LINE
  8
_f-f_
  6
CONTINUOUS
 62
    7
 10
279.61449599999997
 20
12.185407999999995
 11
279.70230399999997
 21
12.009792000000004
  0
LINE
  8
_f-f_
  6
CONTINUOUS
 62
    7
 10
282.59996799999999
 20
14.512320000000003
 11
282.17190399999993
 21
14.512320000000003
  0
LINE
  8
_f-f_
  6
CONTINUOUS
 62
    7
 10
282.17190399999993
 20
14.512320000000003
 11
282.17190399999993
 21
13.502527999999984
  0
LINE
  8
_f-f_
  6
CONTINUOUS
 62
    7
 10
282.17190399999993
 20
13.107392000000061
 11
282.17190399999993
 21
11.35123200000001
  0
LINE
  8
_f-f_
  6
CONTINUOUS
 62
    7
 10
281.11820799999992
 20
13.941568000000032
 11
281.08528000000001
 21
13.941568000000032
  0
LINE
  8
_f-f_
  6
CONTINUOUS
 62
    7
 10
281.08528000000001
 20
13.941568000000032
 11
281.06332799999996
 21
13.897663999999992
  0
LINE
  8
_f-f_
  6
CONTINUOUS
 62
    7
 10
281.06332799999996
 20
13.897663999999992
 11
280.69014399999992
 21
13.897663999999992
  0
LINE
  8
_f-f_
  6
CONTINUOUS
 62
    7
 10
280.33891199999999
 20
12.448831999999982
 11
280.33891199999999
 21
10.78048000000004
  0
LINE
  8
_f-f_
  6
CONTINUOUS
 62
    7
 10
280.69014399999992
 20
12.448831999999982
 11
280.76697599999994
 21
12.404927999999984
  0
LINE
  8
_f-f_
  6
CONTINUOUS
 62
    7
 10
280.76697599999994
 20
12.404927999999984
 11
281.03039999999999
 21
12.229311999999993
  0
LINE
  8
_f-f_
  6
CONTINUOUS
 62
    7
 10
281.03039999999999
 20
12.229311999999993
 11
281.14015999999992
 21
12.141503999999998
  0
LINE
  8
_f-f_
  6
CONTINUOUS
 62
    7
 10
281.14015999999992
 20
12.141503999999998
 11
281.20601599999998
 21
12.0976
  0
LINE
  8
_f-f_
  6
CONTINUOUS
 62
    7
 10
280.723072
 20
14.600128000000012
 11
280.67916799999995
 21
14.556224000000014
  0
LINE
  8
_f-f_
  6
CONTINUOUS
 62
    7
 10
280.67916799999995
 20
14.556224000000014
 11
280.66819199999998
 21
14.512320000000003
  0
LINE
  8
_f-f_
  6
CONTINUOUS
 62
    7
 10
280.66819199999998
 20
14.512320000000003
 11
280.66819199999998
 21
13.941568000000032
  0
LINE
  8
_f-f_
  6
CONTINUOUS
 62
    7
 10
280.66819199999998
 20
13.941568000000032
 11
280.69014399999992
 21
13.897663999999992
  0
LINE
  8
_f-f_
  6
CONTINUOUS
 62
    7
 10
282.59996799999999
 20
14.512320000000003
 11
282.62191999999993
 21
14.468416000000005
  0
LINE
  8
_f-f_
  6
CONTINUOUS
 62
    7
 10
282.62191999999993
 20
14.468416000000005
 11
282.57801599999993
 21
14.424512000000007
  0
LINE
  8
_f-f_
  6
CONTINUOUS
 62
    7
 10
282.57801599999993
 20
14.424512000000007
 11
282.55606399999994
 21
14.380608000000009
  0
LINE
  8
_f-f_
  6
CONTINUOUS
 62
    7
 10
282.55606399999994
 20
14.380608000000009
 11
282.55606399999994
 21
13.502527999999984
  0
LINE
  8
_f-f_
  6
CONTINUOUS
 62
    7
 10
282.55606399999994
 20
13.107392000000061
 11
282.55606399999994
 21
11.35123200000001
  0
LINE
  8
_f-f_
  6
CONTINUOUS
 62
    7
 10
283.5
 20
11
 11
281.16211199999998
 21
11
  0
LINE
  8
_f-f_
  6
CONTINUOUS
 62
    7
 10
281.11820799999992
 20
13.941568000000032
 11
281.33772799999997
 21
13.722048000000001
  0
LINE
  8
_f-f_
  6
CONTINUOUS
 62
    7
 10
281.33772799999997
 20
13.722048000000001
 11
281.29382399999997
 21
13.678143999999975
  0
LINE
  8
_f-f_
  6
CONTINUOUS
 62
    7
 10
281.29382399999997
 20
13.678143999999975
 11
281.22796799999992
 21
13.634240000000005
  0
LINE
  8
_f-f_
  6
CONTINUOUS
 62
    7
 10
281.22796799999992
 20
13.634240000000005
 11
281.16211199999998
 21
13.502527999999984
  0
LINE
  8
_f-f_
  6
CONTINUOUS
 62
    7
 10
281.16211199999998
 20
13.502527999999984
 11
281.12918399999995
 21
13.458624000000043
  0
LINE
  8
_f-f_
  6
CONTINUOUS
 62
    7
 10
281.12918399999995
 20
13.458624000000043
 11
281.08528000000001
 21
13.370815999999991
  0
LINE
  8
_f-f_
  6
CONTINUOUS
 62
    7
 10
281.08528000000001
 20
13.370815999999991
 11
281.05235199999998
 21
13.326912000000021
  0
LINE
  8
_f-f_
  6
CONTINUOUS
 62
    7
 10
281.05235199999998
 20
13.326912000000021
 11
281.03039999999999
 21
13.283008000000024
  0
LINE
  8
_f-f_
  6
CONTINUOUS
 62
    7
 10
281.03039999999999
 20
13.283008000000024
 11
280.93161599999996
 21
13.151296000000031
  0
LINE
  8
_f-f_
  6
CONTINUOUS
 62
    7
 10
280.93161599999996
 20
13.151296000000031
 11
280.90966400000002
 21
13.107392000000061
  0
LINE
  8
_f-f_
  6
CONTINUOUS
 62
    7
 10
280.90966400000002
 20
13.107392000000061
 11
280.74502399999994
 21
12.887871999999987
  0
LINE
  8
_f-f_
  6
CONTINUOUS
 62
    7
 10
280.74502399999994
 20
12.887871999999987
 11
280.70111999999995
 21
12.84396799999999
  0
LINE
  8
_f-f_
  6
CONTINUOUS
 62
    7
 10
280.70111999999995
 20
12.84396799999999
 11
280.66819199999998
 21
12.800064000000049
  0
LINE
  8
_f-f_
  6
CONTINUOUS
 62
    7
 10
280.66819199999998
 20
12.800064000000049
 11
280.75599999999997
 21
12.756160000000023
  0
LINE
  8
_f-f_
  6
CONTINUOUS
 62
    7
 10
280.75599999999997
 20
12.756160000000023
 11
280.87673599999994
 21
12.712256000000025
  0
LINE
  8
_f-f_
  6
CONTINUOUS
 62
    7
 10
280.87673599999994
 20
12.712256000000025
 11
281.07430399999998
 21
12.624447999999973
  0
LINE
  8
_f-f_
  6
CONTINUOUS
 62
    7
 10
281.07430399999998
 20
12.624447999999973
 11
281.16211199999998
 21
12.580544000000003
  0
LINE
  8
_f-f_
  6
CONTINUOUS
 62
    7
 10
281.16211199999998
 20
12.580544000000003
 11
281.31577599999991
 21
12.492735999999979
  0
LINE
  8
_f-f_
  6
CONTINUOUS
 62
    7
 10
281.31577599999991
 20
12.492735999999979
 11
281.38163199999997
 21
12.448831999999982
  0
LINE
  8
_f-f_
  6
CONTINUOUS
 62
    7
 10
281.38163199999997
 20
12.448831999999982
 11
281.40358399999991
 21
12.404927999999984
  0
LINE
  8
_f-f_
  6
CONTINUOUS
 62
    7
 10
281.40358399999991
 20
12.404927999999984
 11
281.24991999999997
 21
12.0976
  0
LINE
  8
_f-f_
  6
CONTINUOUS
 62
    7
 10
281.24991999999997
 20
12.0976
 11
281.20601599999998
 21
12.0976
  0
LINE
  8
_f-f_
  6
CONTINUOUS
 62
    7
 10
280.33891199999999
 20
12.448831999999982
 11
280.31695999999999
 21
12.448831999999982
  0
LINE
  8
_f-f_
  6
CONTINUOUS
 62
    7
 10
280.31695999999999
 20
12.448831999999982
 11
280.27305599999988
 21
12.404927999999984
  0
LINE
  8
_f-f_
  6
CONTINUOUS
 62
    7
 10
280.27305599999988
 20
12.404927999999984
 11
280.05353599999995
 21
12.229311999999993
  0
LINE
  8
_f-f_
  6
CONTINUOUS
 62
    7
 10
280.05353599999995
 20
12.229311999999993
 11
279.98767999999995
 21
12.185407999999995
  0
LINE
  8
_f-f_
  6
CONTINUOUS
 62
    7
 10
279.98767999999995
 20
12.185407999999995
 11
279.93279999999993
 21
12.141503999999998
  0
LINE
  8
_f-f_
  6
CONTINUOUS
 62
    7
 10
279.93279999999993
 20
12.141503999999998
 11
279.80108799999994
 21
12.053696000000031
  0
LINE
  8
_f-f_
  6
CONTINUOUS
 62
    7
 10
279.80108799999994
 20
12.053696000000031
 11
279.72425599999997
 21
12.009792000000004
  0
LINE
  8
_f-f_
  6
CONTINUOUS
 62
    7
 10
279.72425599999997
 20
12.009792000000004
 11
279.70230399999997
 21
12.009792000000004
  0
LINE
  8
_f-f_
  6
CONTINUOUS
 62
    7
 10
280.69014399999992
 20
12.448831999999982
 11
280.66819199999998
 21
12.448831999999982
  0
LINE
  8
_f-f_
  6
CONTINUOUS
 62
    7
 10
280.66819199999998
 20
12.448831999999982
 11
280.66819199999998
 21
10.78048000000004
  0
LINE
  8
_f-f_
  6
CONTINUOUS
 62
    7
 10
280.66819199999998
 20
10.78048000000004
 11
280.33891199999999
 21
10.78048000000004
  0
LINE
  8
_f-f_
  6
CONTINUOUS
 62
    7
 10
261.69803650015848
 20
10.818143377298185
 11
261.46786978015854
 21
11.320637828498263
  0
ARC
  8
_f-f_
  6
CONTINUOUS
 62
    7
 10
261.14397350815852
 20
13.801814490098195
 40
2.5022283551999998
 50
277.43740700000006
 51
318.25330200000008
  0
LINE
  8
_f-f_
  6
CONTINUOUS
 62
    7
 10
259.91794882015853
 20
11.278091559698225
 11
259.38451522015851
 21
10.85915849409821
  0
ARC
  8
_f-f_
  6
CONTINUOUS
 62
    7
 10
248.43833509135854
 20
2.5524020556982236
 40
13.741217431199997
 50
37.193868000000002
 51
44.067300000000003
  0
ARC
  8
_f-f_
  6
CONTINUOUS
 62
    7
 10
251.63328789295852
 20
5.1972563964982612
 40
9.6114510576000001
 50
45.985430000000001
 51
52.858862000000002
  0
LINE
  8
_f-f_
  6
CONTINUOUS
 62
    7
 10
257.43649474015854
 20
12.859030695698209
 11
257.84546050015854
 21
13.256932647698193
  0
ARC
  8
_f-f_
  6
CONTINUOUS
 62
    7
 10
259.60822146655852
 20
14.802502172498251
 40
1.5138771480000004
 50
335.50113199999998
 51
353.79681699999998
  0
ARC
  8
_f-f_
  6
CONTINUOUS
 62
    7
 10
255.5557247609585
 20
17.049016618898278
 40
6.1438791120000014
 50
318.37204700000001
 51
332.10656799999998
  0
ARC
  8
_f-f_
  6
CONTINUOUS
 62
    7
 10
253.24143214255852
 20
15.569703169298236
 40
3.3701116512000007
 50
327.63748900000002
 51
343.65418099999999
  0
ARC
  8
_f-f_
  6
CONTINUOUS
 62
    7
 10
253.40907764575854
 20
15.622958446898267
 40
3.2597962655999995
 50
295.64126099999999
 51
325.26891000000001
  0
LINE
  8
_f-f_
  6
CONTINUOUS
 62
    7
 10
254.81970658015848
 20
12.68418301569821
 11
254.54706274015854
 21
13.113498279698177
  0
LINE
  8
_f-f_
  6
CONTINUOUS
 62
    7
 10
253.63923778015851
 20
15.293364807698225
 11
253.08308386015847
 21
15.228364935698238
  0
LINE
  8
_f-f_
  6
CONTINUOUS
 62
    7
 10
253.74691234015856
 20
10.796371383698215
 11
254.30800546015854
 21
10.877532318098247
  0
LINE
  8
_f-f_
  6
CONTINUOUS
 62
    7
 10
251.82161218015855
 20
14.621238471698234
 11
251.82161218015855
 21
14.055798855698214
  0
LINE
  8
_f-f_
  6
CONTINUOUS
 62
    7
 10
265.43503522015851
 20
13.13197088769823
 11
265.43799874015849
 21
13.697410503698194
  0
LINE
  8
_f-f_
  6
CONTINUOUS
 62
    7
 10
265.43799874015849
 20
13.697410503698194
 11
261.28709506015849
 21
13.697410503698194
  0
LINE
  8
_f-f_
  6
CONTINUOUS
 62
    7
 10
261.28709506015849
 20
13.697410503698194
 11
261.28709506015849
 21
13.13197088769823
  0
LINE
  8
_f-f_
  6
CONTINUOUS
 62
    7
 10
261.62197282015848
 20
14.929049415698273
 11
261.62197282015848
 21
14.363609799698224
  0
LINE
  8
_f-f_
  6
CONTINUOUS
 62
    7
 10
261.62197282015848
 20
14.363609799698224
 11
264.40866946015854
 21
14.363609799698224
  0
LINE
  8
_f-f_
  6
CONTINUOUS
 62
    7
 10
261.11323522015851
 20
14.63892080769827
 11
256.72228642015853
 21
14.63892080769827
  0
LINE
  8
_f-f_
  6
CONTINUOUS
 62
    7
 10
256.72228642015853
 20
14.63892080769827
 11
256.72228642015853
 21
14.073678759698211
  0
LINE
  8
_f-f_
  6
CONTINUOUS
 62
    7
 10
248.28712066015856
 20
15.250196199698237
 11
247.73096674015852
 21
15.185295111698224
  0
LINE
  8
_f-f_
  6
CONTINUOUS
 62
    7
 10
248.17648258015853
 20
10.813381988498236
 11
248.73757570015857
 21
10.894552801298175
  0
LINE
  8
_f-f_
  6
CONTINUOUS
 62
    7
 10
240.27079906015857
 20
13.902288519698203
 11
240.87041794015852
 21
13.944370503698195
  0
ARC
  8
_f-f_
  6
CONTINUOUS
 62
    7
 10
236.74753516495866
 20
13.76305823409821
 40
4.1268670632000006
 50
321.70218699999998
 51
2.5180820000000264
  0
ARC
  8
_f-f_
  6
CONTINUOUS
 62
    7
 10
238.33115299375856
 20
13.078716433298212
 40
2.4997389984000002
 50
293.16671400000001
 51
311.462399
  0
LINE
  8
_f-f_
  6
CONTINUOUS
 62
    7
 10
239.31456994015855
 20
10.780546186898221
 11
238.93326370015848
 21
11.179910142098237
  0
ARC
  8
_f-f_
  6
CONTINUOUS
 62
    7
 10
237.93835982095854
 20
13.317551449298207
 40
2.3578267271999995
 50
294.95826699999998
 51
355.396568
  0
ARC
  8
_f-f_
  6
CONTINUOUS
 62
    7
 10
236.41950066655863
 20
13.426618863698252
 40
3.8805615072000004
 50
355.59126199999997
 51
7.040883000000008
  0
LINE
  8
_f-f_
  6
CONTINUOUS
 62
    7
 10
250.53149314015846
 20
12.585794151698195
 11
250.53346882015853
 21
13.151233767698216
  0
LINE
  8
_f-f_
  6
CONTINUOUS
 62
    7
 10
246.08917666015856
 20
13.151233767698216
 11
246.08917666015856
 21
12.585794151698195
  0
LINE
  8
_f-f_
  6
CONTINUOUS
 62
    7
 10
250.33491298015849
 20
14.089879335698242
 11
250.33787650015853
 21
14.65531895169822
  0
LINE
  8
_f-f_
  6
CONTINUOUS
 62
    7
 10
246.3025501001585
 20
14.65531895169822
 11
246.3025501001585
 21
14.089879335698242
  0
LINE
  8
_f-f_
  6
CONTINUOUS
 62
    7
 10
245.69107714015851
 20
12.768050631698202
 11
245.69305282015858
 21
13.333292679698218
  0
LINE
  8
_f-f_
  6
CONTINUOUS
 62
    7
 10
245.69305282015858
 20
13.333292679698218
 11
242.56061218015859
 21
13.333292679698218
  0
LINE
  8
_f-f_
  6
CONTINUOUS
 62
    7
 10
242.56061218015859
 20
13.333292679698218
 11
242.56061218015859
 21
12.768050631698202
  0
LINE
  8
_f-f_
  6
CONTINUOUS
 62
    7
 10
242.56061218015859
 20
12.768050631698202
 11
245.69107714015851
 21
12.768050631698202
  0
LINE
  8
_f-f_
  6
CONTINUOUS
 62
    7
 10
242.94685762015857
 20
15.086511111698243
 11
238.61320354015854
 21
15.086511111698243
  0
LINE
  8
_f-f_
  6
CONTINUOUS
 62
    7
 10
238.61320354015854
 20
15.086511111698243
 11
238.61320354015854
 21
14.526603399698274
  0
LINE
  8
_f-f_
  6
CONTINUOUS
 62
    7
 10
241.43249890015855
 20
12.940725063698153
 11
241.04921698015858
 21
13.386537255698215
  0
LINE
  8
_f-f_
  6
CONTINUOUS
 62
    7
 10
264.40866946015854
 20
14.363609799698224
 11
264.41163298015852
 21
14.929049415698273
  0
LINE
  8
_f-f_
  6
CONTINUOUS
 62
    7
 10
264.41163298015852
 20
14.929049415698273
 11
261.62197282015848
 21
14.929049415698273
  0
LINE
  8
_f-f_
  6
CONTINUOUS
 62
    7
 10
264.76923106015852
 20
15.129383367698281
 11
264.76923106015852
 21
14.298116007698198
  0
LINE
  8
_f-f_
  6
CONTINUOUS
 62
    7
 10
264.76923106015852
 20
14.298116007698198
 11
265.18906306015845
 21
14.298116007698198
  0
LINE
  8
_f-f_
  6
CONTINUOUS
 62
    7
 10
265.18906306015845
 20
14.298116007698198
 11
265.18906306015845
 21
15.129383367698281
  0
LINE
  8
_f-f_
  6
CONTINUOUS
 62
    7
 10
265.18906306015845
 20
15.129383367698281
 11
264.76923106015852
 21
15.129383367698281
  0
LINE
  8
_f-f_
  6
CONTINUOUS
 62
    7
 10
265.35403234015854
 20
15.129383367698281
 11
265.35403234015854
 21
14.298116007698198
  0
LINE
  8
_f-f_
  6
CONTINUOUS
 62
    7
 10
265.35403234015854
 20
14.298116007698198
 11
265.77386434015853
 21
14.298116007698198
  0
LINE
  8
_f-f_
  6
CONTINUOUS
 62
    7
 10
265.77386434015853
 20
14.298116007698198
 11
265.77386434015853
 21
15.129383367698281
  0
LINE
  8
_f-f_
  6
CONTINUOUS
 62
    7
 10
265.77386434015853
 20
15.129383367698281
 11
265.35403234015854
 21
15.129383367698281
  0
ARC
  8
_f-f_
  6
CONTINUOUS
 62
    7
 10
240.40335977935854
 20
15.112665822098251
 40
1.8430007399999995
 50
290.51408900000007
 51
341.45836900000006
  0
ARC
  8
_f-f_
  6
CONTINUOUS
 62
    7
 10
240.32372670415859
 20
15.330920014898268
 40
2.6348450520000002
 50
294.88580100000001
 51
354.697475
  0
LINE
  8
_f-f_
  6
CONTINUOUS
 62
    7
 10
250.33787650015853
 20
14.65531895169822
 11
248.34864168895854
 21
14.65531895169822
  0
LINE
  8
_f-f_
  6
CONTINUOUS
 62
    7
 10
247.78497359935855
 20
14.65531895169822
 11
246.3025501001585
 21
14.65531895169822
  0
LINE
  8
_f-f_
  6
CONTINUOUS
 62
    7
 10
246.3025501001585
 20
14.089879335698242
 11
247.84259348335851
 21
14.089879335698242
  0
LINE
  8
_f-f_
  6
CONTINUOUS
 62
    7
 10
248.40711852415853
 20
14.089879335698242
 11
250.33491298015849
 21
14.089879335698242
  0
LINE
  8
_f-f_
  6
CONTINUOUS
 62
    7
 10
250.53346882015853
 20
13.151233767698216
 11
248.50419273775856
 21
13.151233767698216
  0
LINE
  8
_f-f_
  6
CONTINUOUS
 62
    7
 10
247.93824603055856
 20
13.151233767698216
 11
246.08917666015856
 21
13.151233767698216
  0
LINE
  8
_f-f_
  6
CONTINUOUS
 62
    7
 10
246.08917666015856
 20
12.585794151698195
 11
247.99586591455852
 21
12.585794151698195
  0
LINE
  8
_f-f_
  6
CONTINUOUS
 62
    7
 10
248.5626695729585
 20
12.585794151698195
 11
250.53149314015846
 21
12.585794151698195
  0
LINE
  8
_f-f_
  6
CONTINUOUS
 62
    7
 10
248.34864168895854
 20
14.65531895169822
 11
248.28712066015856
 21
15.250196199698237
  0
LINE
  8
_f-f_
  6
CONTINUOUS
 62
    7
 10
247.73096674015852
 20
15.185295111698224
 11
247.78497359935855
 21
14.65531895169822
  0
LINE
  8
_f-f_
  6
CONTINUOUS
 62
    7
 10
247.84259348335851
 20
14.089879335698242
 11
247.93824603055856
 21
13.151233767698216
  0
LINE
  8
_f-f_
  6
CONTINUOUS
 62
    7
 10
247.99586591455852
 20
12.585794151698195
 11
248.17648258015853
 21
10.813381988498236
  0
LINE
  8
_f-f_
  6
CONTINUOUS
 62
    7
 10
248.73757570015857
 20
10.894552801298175
 11
248.5626695729585
 21
12.585794151698195
  0
LINE
  8
_f-f_
  6
CONTINUOUS
 62
    7
 10
248.50419273775856
 20
13.151233767698216
 11
248.40711852415853
 21
14.089879335698242
  0
LINE
  8
_f-f_
  6
CONTINUOUS
 62
    7
 10
256.47532642015847
 20
14.621238471698234
 11
253.74102975295853
 21
14.621238471698234
  0
LINE
  8
_f-f_
  6
CONTINUOUS
 62
    7
 10
253.1740194713586
 20
14.621238471698234
 11
251.82161218015855
 21
14.621238471698234
  0
LINE
  8
_f-f_
  6
CONTINUOUS
 62
    7
 10
251.82161218015855
 20
14.055798855698214
 11
253.25871193375849
 21
14.055798855698214
  0
LINE
  8
_f-f_
  6
CONTINUOUS
 62
    7
 10
253.08308386015847
 20
15.228364935698238
 11
253.1740194713586
 21
14.621238471698234
  0
LINE
  8
_f-f_
  6
CONTINUOUS
 62
    7
 10
253.25871193375849
 20
14.055798855698214
 11
253.74691234015856
 21
10.796371383698215
  0
LINE
  8
_f-f_
  6
CONTINUOUS
 62
    7
 10
254.30800546015854
 20
10.877532318098247
 11
253.82666395615848
 21
14.055798855698214
  0
LINE
  8
_f-f_
  6
CONTINUOUS
 62
    7
 10
253.74102975295853
 20
14.621238471698234
 11
253.63923778015851
 21
15.293364807698225
  0
ARC
  8
_f-f_
  6
CONTINUOUS
 62
    7
 10
253.30606651375854
 20
15.707678898098237
 40
2.8757339520000005
 50
295.56537500000002
 51
324.94094800000005
  0
LINE
  8
_f-f_
  6
CONTINUOUS
 62
    7
 10
253.82666395615848
 20
14.055798855698214
 11
255.66727330015857
 21
14.055798855698214
  0
ARC
  8
_f-f_
  6
CONTINUOUS
 62
    7
 10
255.50034562735851
 20
17.562717291698277
 40
6.535748654399999
 50
304.14080200000001
 51
315.32696499999997
  0
ARC
  8
_f-f_
  6
CONTINUOUS
 62
    7
 10
251.77672308415856
 20
5.0645516172982639
 40
10.241466597600002
 50
37.351568999999991
 51
43.801712000000002
  0
ARC
  8
_f-f_
  6
CONTINUOUS
 62
    7
 10
251.93372790415847
 20
4.8052798380982154
 40
10.3140201528
 50
48.700563000000002
 51
55.028115999999997
  0
ARC
  8
_f-f_
  6
CONTINUOUS
 62
    7
 10
257.08223226655855
 20
15.662920690898247
 40
3.5238129696000002
 50
298.08031299999999
 51
333.19209899999998
  0
LINE
  8
_f-f_
  6
CONTINUOUS
 62
    7
 10
256.72228642015853
 20
14.073678759698211
 11
260.22731890495857
 21
14.073678759698211
  0
ARC
  8
_f-f_
  6
CONTINUOUS
 62
    7
 10
261.53521000975854
 20
13.090698932498213
 40
2.2783813415999994
 50
274.09817199999998
 51
1.0379469999999982
  0
ARC
  8
_f-f_
  6
CONTINUOUS
 62
    7
 10
261.63552269215853
 20
12.913413757298173
 40
1.5799941024000002
 50
330.51444500000002
 51
7.9510959999999775
  0
LINE
  8
_f-f_
  6
CONTINUOUS
 62
    7
 10
261.28709506015849
 20
13.13197088769823
 11
263.20032710815855
 21
13.13197088769823
  0
LINE
  8
_f-f_
  6
CONTINUOUS
 62
    7
 10
263.8132176185585
 20
13.13197088769823
 11
265.43503522015851
 21
13.13197088769823
  0
LINE
  8
_f-f_
  6
CONTINUOUS
 62
    7
 10
238.61320354015854
 20
14.526603399698274
 11
242.15069562415852
 21
14.526603399698274
  0
LINE
  8
_f-f_
  6
CONTINUOUS
 62
    7
 10
269.23119999999994
 20
13.941568000000032
 11
270.02147199999996
 21
13.941568000000032
  0
LINE
  8
_f-f_
  6
CONTINUOUS
 62
    7
 10
269.23119999999994
 20
13.546432000000038
 11
270.02147199999996
 21
13.546432000000038
  0
LINE
  8
_f-f_
  6
CONTINUOUS
 62
    7
 10
270.02147199999996
 20
13.941568000000032
 11
270.02147199999996
 21
13.546432000000038
  0
LINE
  8
_f-f_
  6
CONTINUOUS
 62
    7
 10
267.06892800000003
 20
13.853760000000037
 11
266.48719999999992
 21
13.853760000000037
  0
LINE
  8
_f-f_
  6
CONTINUOUS
 62
    7
 10
266.48719999999992
 20
13.853760000000037
 11
266.48719999999992
 21
13.458624000000043
  0
LINE
  8
_f-f_
  6
CONTINUOUS
 62
    7
 10
267.04697599999997
 20
13.458624000000043
 11
266.48719999999992
 21
13.458624000000043
  0
LINE
  8
_f-f_
  6
CONTINUOUS
 62
    7
 10
267.38723200000004
 20
13.853760000000037
 11
267.87017599999996
 21
13.853760000000037
  0
LINE
  8
_f-f_
  6
CONTINUOUS
 62
    7
 10
267.87017599999996
 20
13.853760000000037
 11
267.87017599999996
 21
13.458624000000043
  0
LINE
  8
_f-f_
  6
CONTINUOUS
 62
    7
 10
267.38723200000004
 20
13.458624000000043
 11
267.87017599999996
 21
13.458624000000043
  0
LINE
  8
_f-f_
  6
CONTINUOUS
 62
    7
 10
268.9019199999999
 20
13.019583999999952
 11
267.89212799999996
 21
13.019583999999952
  0
LINE
  8
_f-f_
  6
CONTINUOUS
 62
    7
 10
267.89212799999996
 20
13.019583999999952
 11
267.89212799999996
 21
12.624447999999973
  0
LINE
  8
_f-f_
  6
CONTINUOUS
 62
    7
 10
268.87996799999996
 20
12.624447999999973
 11
267.89212799999996
 21
12.624447999999973
  0
LINE
  8
_f-f_
  6
CONTINUOUS
 62
    7
 10
269.23119999999994
 20
13.019583999999952
 11
270.306848
 21
13.019583999999952
  0
LINE
  8
_f-f_
  6
CONTINUOUS
 62
    7
 10
270.306848
 20
13.019583999999952
 11
270.306848
 21
12.624447999999973
  0
LINE
  8
_f-f_
  6
CONTINUOUS
 62
    7
 10
269.26412799999991
 20
12.624447999999973
 11
270.306848
 21
12.624447999999973
  0
LINE
  8
_f-f_
  6
CONTINUOUS
 62
    7
 10
273.07279999999992
 20
13.853760000000037
 11
270.97638399999994
 21
13.853760000000037
  0
LINE
  8
_f-f_
  6
CONTINUOUS
 62
    7
 10
270.97638399999994
 20
13.853760000000037
 11
270.97638399999994
 21
13.458624000000043
  0
LINE
  8
_f-f_
  6
CONTINUOUS
 62
    7
 10
273.083776
 20
13.458624000000043
 11
270.97638399999994
 21
13.458624000000043
  0
LINE
  8
_f-f_
  6
CONTINUOUS
 62
    7
 10
273.44598400000001
 20
13.853760000000037
 11
274.64236799999992
 21
13.853760000000037
  0
LINE
  8
_f-f_
  6
CONTINUOUS
 62
    7
 10
274.64236799999992
 20
13.853760000000037
 11
274.64236799999992
 21
13.458624000000043
  0
LINE
  8
_f-f_
  6
CONTINUOUS
 62
    7
 10
273.44598400000001
 20
13.458624000000043
 11
274.64236799999992
 21
13.458624000000043
  0
LINE
  8
_f-f_
  6
CONTINUOUS
 62
    7
 10
272.16179199999999
 20
12.536639999999977
 11
272.16179199999999
 21
12.522973737441333
  0
LINE
  8
_f-f_
  6
CONTINUOUS
 62
    7
 10
272.16179199999999
 20
12.522973737441333
 11
272.16179199999999
 21
11.658559999999994
  0
LINE
  8
_f-f_
  6
CONTINUOUS
 62
    7
 10
271.15199999999993
 20
12.84396799999999
 11
271.15199999999993
 21
12.536639999999977
  0
LINE
  8
_f-f_
  6
CONTINUOUS
 62
    7
 10
271.83251199999995
 20
12.536639999999977
 11
271.15199999999993
 21
12.536639999999977
  0
LINE
  8
_f-f_
  6
CONTINUOUS
 62
    7
 10
272.16179199999999
 20
12.522973737441333
 11
272.83132799999998
 21
12.522973737441333
  0
LINE
  8
_f-f_
  6
CONTINUOUS
 62
    7
 10
272.83132799999998
 20
12.84396799999999
 11
272.83132799999998
 21
12.522973737441333
  0
LINE
  8
_f-f_
  6
CONTINUOUS
 62
    7
 10
277.05708800000002
 20
12.141503999999998
 11
278.9339839999999
 21
12.141503999999998
  0
LINE
  8
_f-f_
  6
CONTINUOUS
 62
    7
 10
278.9339839999999
 20
12.536639999999977
 11
278.9339839999999
 21
12.141503999999998
  0
LINE
  8
_f-f_
  6
CONTINUOUS
 62
    7
 10
276.66195199999999
 20
12.141503999999998
 11
275.43263999999999
 21
12.141503999999998
  0
LINE
  8
_f-f_
  6
CONTINUOUS
 62
    7
 10
275.43263999999999
 20
12.536639999999977
 11
275.43263999999999
 21
12.141503999999998
  0
LINE
  8
_f-f_
  6
CONTINUOUS
 62
    7
 10
280.33891199999999
 20
14.600128000000012
 11
280.33891199999999
 21
13.897663999999992
  0
LINE
  8
_f-f_
  6
CONTINUOUS
 62
    7
 10
280.33891199999999
 20
13.897663999999992
 11
279.70230399999997
 21
13.897663999999992
  0
LINE
  8
_f-f_
  6
CONTINUOUS
 62
    7
 10
279.70230399999997
 20
13.897663999999992
 11
279.70230399999997
 21
13.546432000000038
  0
LINE
  8
_f-f_
  6
CONTINUOUS
 62
    7
 10
280.82185599999991
 20
13.546432000000038
 11
279.70230399999997
 21
13.546432000000038
  0
LINE
  8
_f-f_
  6
CONTINUOUS
 62
    7
 10
282.17190399999993
 20
13.502527999999984
 11
281.43651199999999
 21
13.502527999999984
  0
LINE
  8
_f-f_
  6
CONTINUOUS
 62
    7
 10
281.43651199999999
 20
13.502527999999984
 11
281.43651199999999
 21
13.107392000000061
  0
LINE
  8
_f-f_
  6
CONTINUOUS
 62
    7
 10
282.17190399999993
 20
13.107392000000061
 11
281.43651199999999
 21
13.107392000000061
  0
LINE
  8
_f-f_
  6
CONTINUOUS
 62
    7
 10
282.55606399999994
 20
13.107392000000061
 11
283.34633599999995
 21
13.107392000000061
  0
LINE
  8
_f-f_
  6
CONTINUOUS
 62
    7
 10
283.34633599999995
 20
13.502527999999984
 11
283.34633599999995
 21
13.107392000000061
  0
LINE
  8
_f-f_
  6
CONTINUOUS
 62
    7
 10
282.55606399999994
 20
13.502527999999984
 11
283.34633599999995
 21
13.502527999999984
  0
LINE
  8
_f-f_
  6
CONTINUOUS
 62
    7
 10
283.5
 20
11.35123200000001
 11
283.5
 21
11
  0
LINE
  8
_f-f_
  6
CONTINUOUS
 62
    7
 10
282.55606399999994
 20
11.35123200000001
 11
283.5
 21
11.35123200000001
  0
LINE
  8
_f-f_
  6
CONTINUOUS
 62
    7
 10
281.16211199999998
 20
11.35123200000001
 11
281.16211199999998
 21
11
  0
LINE
  8
_f-f_
  6
CONTINUOUS
 62
    7
 10
282.17190399999993
 20
11.35123200000001
 11
281.16211199999998
 21
11.35123200000001
  0
LINE
  8
_f-f_
  6
CONTINUOUS
 62
    7
 10
233.5
 20
17
 11
233.5
 21
27
  0
LINE
  8
_f-f_
  6
CONTINUOUS
 62
    7
 10
183.5
 20
17
 11
183.5
 21
27
  0
LINE
  8
_f-f_
  6
CONTINUOUS
 62
    7
 10
253.5
 20
17
 11
253.5
 21
27
  0
TEXT
  8
_e-e_
 62
    7
 10
165.5
 20
20
 40
4
 41
1
 50
0
  1
図面名称
  0
TEXT
  8
_e-e_
 62
    7
 10
237.5
 20
20
 40
4
 41
1
 50
0
  1
作成日
  0
LINE
  8
_f-f_
  6
CONTINUOUS
 62
    7
 10
163.5
 20
17
 11
163.5
 21
27
  0
LINE
  8
_f-f_
  6
CONTINUOUS
 62
    7
 10
283.5
 20
27
 11
188.61822686063675
 21
27
  0
LINE
  8
_f-f_
  6
CONTINUOUS
 62
    7
 10
188.61822686063675
 20
27
 11
163.5
 21
27
  0
LINE
  8
_f-f_
  6
CONTINUOUS
 62
    7
 10
248.5
 20
197
 11
248.5
 21
187
  0
TEXT
  8
_e-e_
 62
    7
 10
237
 20
190
 40
4
 41
1
 50
0
  1
縮尺
  0
LINE
  8
_f-f_
  6
CONTINUOUS
 62
    7
 10
233.5
 20
197
 11
233.5
 21
187
  0
LINE
  8
_f-f_
  6
CONTINUOUS
 62
    7
 10
233.5
 20
187
 11
283.5
 21
187
  0
TEXT
  8
_e-e_
 62
    7
 10
255
 20
190
 40
4
 41
1
 50
0
  1
Ａ４：１/３
  0
TEXT
  8
_e-e_
 62
    7
 10
258.5
 20
20
 40
4
 41
1
 50
0
  1
2020.03.10
  0
TEXT
  8
_e-e_
 62
    7
 10
188.5
 20
22.5
 40
4
 41
1
 50
0
  1
笠木部の例
  0
TEXT
  8
_e-e_
 62
    7
 10
188.5
 20
17.5
 40
4
 41
1
 50
0
  1
（接着工法）
  0
LINE
  8
_1-a_元図__躯体
  6
CONTINUOUS
 62
    7
 10
147.02746231869793
 20
35.561181898239624
 11
157.14766231869791
 21
45.68143189823963
  0
LINE
  8
_1-a_元図__躯体
  6
CONTINUOUS
 62
    7
 10
117.14766231869791
 20
144.22783189823963
 11
117.14766231869791
 21
35.561181898239624
  0
LINE
  8
_1-a_元図__躯体
  6
CONTINUOUS
 62
    7
 10
117.14766231869791
 20
82.982781898239637
 11
157.14766231869791
 21
122.98278189823964
  0
LINE
  8
_1-a_元図__躯体
  6
CONTINUOUS
 62
    7
 10
157.14766231869791
 20
35.561181898239624
 11
157.14766231869791
 21
144.22783189823963
  0
LINE
  8
_1-a_元図__躯体
  6
CONTINUOUS
 62
    7
 10
155.64766231869791
 20
145.72783189823963
 11
118.64766231869791
 21
145.72783189823963
  0
LINE
  8
_1-a_元図__躯体
  6
CONTINUOUS
 62
    7
 10
117.14766231869791
 20
84.868381898239633
 11
157.14766231869791
 21
124.86838189823965
  0
LINE
  8
_1-a_元図__躯体
  6
CONTINUOUS
 62
    7
 10
117.14766231869791
 20
81.097131898239638
 11
157.14766231869791
 21
121.09713189823964
  0
LINE
  8
_1-a_元図__躯体
  6
CONTINUOUS
 62
    7
 10
145.14181231869793
 20
35.561181898239624
 11
157.14766231869791
 21
47.56703189823962
  0
LINE
  8
_1-a_元図__躯体
  6
CONTINUOUS
 62
    7
 10
148.91306231869791
 20
35.561181898239624
 11
157.14766231869791
 21
43.795781898239625
  0
LINE
  8
_1-a_元図__躯体
  6
CONTINUOUS
 62
    7
 10
155.64766231869791
 20
145.72783189823963
 11
157.14766231869791
 21
144.22783189823963
  0
LINE
  8
_1-a_元図__躯体
  6
CONTINUOUS
 62
    7
 10
155.64766231869791
 20
145.72783189823963
 11
157.14766231869791
 21
144.22783189823963
  0
LINE
  8
_1-a_元図__躯体
  6
CONTINUOUS
 62
    7
 10
157.14766231869791
 20
144.22783189823963
 11
157.14766231869791
 21
35.561181898239624
  0
LINE
  8
_1-a_元図__躯体
  6
CONTINUOUS
 62
    7
 10
118.64766231869791
 20
145.72783189823963
 11
117.14766231869791
 21
144.22783189823963
  0
LINE
  8
_1-b_その他
  6
CONTINUOUS
 62
    5
 10
121.8476623186979
 20
145.90318189823964
 11
122.00566231869789
 21
146.06118189823962
  0
LINE
  8
_1-b_その他
  6
CONTINUOUS
 62
    5
 10
121.96696231869791
 20
145.72783189823963
 11
122.30031231869788
 21
146.06118189823962
  0
LINE
  8
_1-b_その他
  6
CONTINUOUS
 62
    5
 10
122.2616123186979
 20
145.72783189823963
 11
122.59491231869788
 21
146.06118189823962
  0
LINE
  8
_1-b_その他
  6
CONTINUOUS
 62
    5
 10
122.5562123186979
 20
145.72783189823963
 11
122.88956231869787
 21
146.06118189823962
  0
LINE
  8
_1-b_その他
  6
CONTINUOUS
 62
    5
 10
122.85086231869789
 20
145.72783189823963
 11
123.18416231869787
 21
146.06118189823962
  0
LINE
  8
_1-b_その他
  6
CONTINUOUS
 62
    5
 10
123.14546231869789
 20
145.72783189823963
 11
123.47881231869789
 21
146.06118189823962
  0
LINE
  8
_1-b_その他
  6
CONTINUOUS
 62
    5
 10
123.44011231869789
 20
145.72783189823963
 11
123.77341231869789
 21
146.06118189823962
  0
LINE
  8
_1-b_その他
  6
CONTINUOUS
 62
    5
 10
123.73471231869789
 20
145.72783189823963
 11
124.06806231869791
 21
146.06118189823962
  0
LINE
  8
_1-b_その他
  6
CONTINUOUS
 62
    5
 10
124.02936231869791
 20
145.72783189823963
 11
124.3627123186979
 21
146.06118189823962
  0
LINE
  8
_1-b_その他
  6
CONTINUOUS
 62
    5
 10
124.32396231869791
 20
145.72783189823963
 11
124.6573123186979
 21
146.06118189823962
  0
LINE
  8
_1-b_その他
  6
CONTINUOUS
 62
    5
 10
124.6186123186979
 20
145.72783189823963
 11
124.95196231869789
 21
146.06118189823962
  0
LINE
  8
_1-b_その他
  6
CONTINUOUS
 62
    5
 10
124.91326231869789
 20
145.72783189823963
 11
125.2465623186979
 21
146.06118189823962
  0
LINE
  8
_1-b_その他
  6
CONTINUOUS
 62
    5
 10
125.20786231869789
 20
145.72783189823963
 11
125.54121231869789
 21
146.06118189823962
  0
LINE
  8
_1-b_その他
  6
CONTINUOUS
 62
    5
 10
125.50251231869791
 20
145.72783189823963
 11
125.83581231869789
 21
146.06118189823962
  0
LINE
  8
_1-b_その他
  6
CONTINUOUS
 62
    5
 10
125.79711231869791
 20
145.72783189823963
 11
126.13046231869788
 21
146.06118189823962
  0
LINE
  8
_1-b_その他
  6
CONTINUOUS
 62
    5
 10
126.0917623186979
 20
145.72783189823963
 11
126.42506231869788
 21
146.06118189823962
  0
LINE
  8
_1-b_その他
  6
CONTINUOUS
 62
    5
 10
126.38636231869791
 20
145.72783189823963
 11
126.71971231869787
 21
146.06118189823962
  0
LINE
  8
_1-b_その他
  6
CONTINUOUS
 62
    5
 10
126.6810123186979
 20
145.72783189823963
 11
127.01436231869789
 21
146.06118189823962
  0
LINE
  8
_1-b_その他
  6
CONTINUOUS
 62
    5
 10
126.97566231869789
 20
145.72783189823963
 11
127.30896231869789
 21
146.06118189823962
  0
LINE
  8
_1-b_その他
  6
CONTINUOUS
 62
    5
 10
127.27026231869789
 20
145.72783189823963
 11
127.60361231869791
 21
146.06118189823962
  0
LINE
  8
_1-b_その他
  6
CONTINUOUS
 62
    5
 10
127.56491231869791
 20
145.72783189823963
 11
127.89821231869792
 21
146.06118189823962
  0
LINE
  8
_1-b_その他
  6
CONTINUOUS
 62
    5
 10
127.85951231869791
 20
145.72783189823963
 11
128.19286231869791
 21
146.06118189823962
  0
LINE
  8
_1-b_その他
  6
CONTINUOUS
 62
    5
 10
128.1541623186979
 20
145.72783189823963
 11
128.48746231869791
 21
146.06118189823962
  0
LINE
  8
_1-b_その他
  6
CONTINUOUS
 62
    5
 10
128.4487623186979
 20
145.72783189823963
 11
128.7821123186979
 21
146.06118189823962
  0
LINE
  8
_1-b_その他
  6
CONTINUOUS
 62
    5
 10
128.74341231869789
 20
145.72783189823963
 11
129.07676231869789
 21
146.06118189823962
  0
LINE
  8
_1-b_その他
  6
CONTINUOUS
 62
    5
 10
129.03801231869789
 20
145.72783189823963
 11
129.37136231869789
 21
146.06118189823962
  0
LINE
  8
_1-b_その他
  6
CONTINUOUS
 62
    5
 10
129.33266231869791
 20
145.72783189823963
 11
129.66601231869788
 21
146.06118189823962
  0
LINE
  8
_1-b_その他
  6
CONTINUOUS
 62
    5
 10
129.6273123186979
 20
145.72783189823963
 11
129.96061231869788
 21
146.06118189823962
  0
LINE
  8
_1-b_その他
  6
CONTINUOUS
 62
    5
 10
129.92191231869791
 20
145.72783189823963
 11
130.25526231869787
 21
146.06118189823962
  0
LINE
  8
_1-b_その他
  6
CONTINUOUS
 62
    5
 10
130.2165623186979
 20
145.72783189823963
 11
130.54986231869788
 21
146.06118189823962
  0
LINE
  8
_1-b_その他
  6
CONTINUOUS
 62
    5
 10
130.5111623186979
 20
145.72783189823963
 11
130.84451231869789
 21
146.06118189823962
  0
LINE
  8
_1-b_その他
  6
CONTINUOUS
 62
    5
 10
130.80581231869789
 20
145.72783189823963
 11
131.1391123186979
 21
146.06118189823962
  0
LINE
  8
_1-b_その他
  6
CONTINUOUS
 62
    5
 10
131.10041231869789
 20
145.72783189823963
 11
131.43376231869792
 21
146.06118189823962
  0
LINE
  8
_1-b_その他
  6
CONTINUOUS
 62
    5
 10
131.39506231869791
 20
145.72783189823963
 11
131.72841231869791
 21
146.06118189823962
  0
LINE
  8
_1-b_その他
  6
CONTINUOUS
 62
    5
 10
131.68966231869791
 20
145.72783189823963
 11
131.8476623186979
 21
145.88583189823964
  0
LINE
  8
_1-b_その他
  6
CONTINUOUS
 62
    5
 10
121.8476623186979
 20
145.72783189823963
 11
131.8476623186979
 21
145.72783189823963
  0
LINE
  8
_1-b_その他
  6
CONTINUOUS
 62
    5
 10
131.8476623186979
 20
145.72783189823963
 11
131.8476623186979
 21
146.06118189823962
  0
LINE
  8
_1-b_その他
  6
CONTINUOUS
 62
    5
 10
131.8476623186979
 20
146.06118189823962
 11
121.8476623186979
 21
146.06118189823962
  0
LINE
  8
_1-b_その他
  6
CONTINUOUS
 62
    5
 10
121.8476623186979
 20
146.06118189823962
 11
121.8476623186979
 21
145.72783189823963
  0
LINE
  8
_e-e_
  6
CONTINUOUS
 62
    7
 10
172.09587528058194
 20
108.68178879004347
 11
177.09587528058194
 21
108.68178879004347
  0
LINE
  8
_e-e_
  6
CONTINUOUS
 62
    7
 10
172.09587528058194
 20
108.68178879004347
 11
157.09587528058194
 21
82.70102667651031
  0
LINE
  8
_e-e_
  6
CONTINUOUS
 62
    7
 10
172.09587528058194
 20
108.68178879004347
 11
177.09587528058194
 21
117.34204282788787
  0
LINE
  8
_e-e_
  6
CONTINUOUS
 62
    7
 10
177.09587528058194
 20
117.34204282788787
 11
182.09587528058194
 21
117.34204282788787
  0
TEXT
  8
_e-e_
 62
    7
 10
177.09587528058194
 20
106.68178879004347
 40
4
 41
1
 50
0
  1
ＡＹボンド５８０ＮＦ
  0
TEXT
  8
_e-e_
 62
    7
 10
182.09587528058194
 20
115.34204282788787
 40
4
 41
1
 50
0
  1
リベットルーフ
  0
LINE
  8
_e-e_
  6
CONTINUOUS
 62
    7
 10
154.79949670314272
 20
160.1857726571269
 11
159.79949670314272
 21
160.1857726571269
  0
TEXT
  8
_e-e_
 62
    7
 10
159.79949670314272
 20
158.1857726571269
 40
4
 41
1
 50
0
  1
パラトップ笠木
  0
LINE
  8
_e-e_
  6
CONTINUOUS
 62
    7
 10
149.79949670314272
 20
151.52551861928251
 11
154.79949670314272
 21
160.1857726571269
  0
LINE
  8
_e-e_
  6
CONTINUOUS
 62
    7
 10
144.95290579405184
 20
171.75001735025714
 11
129.95290579405184
 21
145.76925523672398
  0
LINE
  8
_e-e_
  6
CONTINUOUS
 62
    7
 10
144.95290579405184
 20
171.75001735025714
 11
149.95290579405184
 21
171.75001735025714
  0
LINE
  8
_e-e_
  6
CONTINUOUS
 62
    7
 10
140.64040579405184
 20
181.41420851315311
 11
145.64040579405184
 21
181.41420851315311
  0
LINE
  8
_e-e_
  6
CONTINUOUS
 62
    7
 10
140.64040579405184
 20
181.41420851315311
 11
120.64040579405184
 21
146.77319236177556
  0
TEXT
  8
_e-e_
 62
    7
 10
145.64040579405184
 20
179.41420851315311
 40
4
 41
1
 50
0
  1
ＡＹシールＭＳ－１
  0
TEXT
  8
_e-e_
 62
    7
 10
149.95290579405184
 20
169.75001735025714
 40
4
 41
1
 50
0
  1
ＡＹブチルテープ
  0
LINE
  8
_1-2_ハッチング
  6
CONTINUOUS
 62
    4
 10
118.1593623186979
 20
145.23953189823965
 11
118.01076231869791
 21
145.38818189823965
  0
LINE
  8
_1-2_ハッチング
  6
CONTINUOUS
 62
    4
 10
118.45401231869789
 20
145.53418189823967
 11
118.12906231869789
 21
145.85913189823964
  0
LINE
  8
_1-2_ハッチング
  6
CONTINUOUS
 62
    4
 10
118.84956231869791
 20
145.72783189823966
 11
118.3031623186979
 21
146.27428189823965
  0
LINE
  8
_1-2_ハッチング
  6
CONTINUOUS
 62
    4
 10
119.43881231869793
 20
145.72783189823966
 11
118.5215623186979
 21
146.64513189823964
  0
LINE
  8
_1-2_ハッチング
  6
CONTINUOUS
 62
    4
 10
120.02811231869791
 20
145.72783189823966
 11
118.78861231869789
 21
146.96733189823965
  0
LINE
  8
_1-2_ハッチング
  6
CONTINUOUS
 62
    4
 10
120.6173623186979
 20
145.72783189823966
 11
119.0999123186979
 21
147.24528189823965
  0
LINE
  8
_1-2_ハッチング
  6
CONTINUOUS
 62
    4
 10
121.20661231869789
 20
145.72783189823966
 11
119.44891231869789
 21
147.48553189823966
  0
LINE
  8
_1-2_ハッチング
  6
CONTINUOUS
 62
    4
 10
121.79586231869789
 20
145.72783189823966
 11
119.83981231869788
 21
147.68393189823965
  0
LINE
  8
_1-2_ハッチング
  6
CONTINUOUS
 62
    4
 10
121.83846231869791
 20
146.27453189823967
 11
120.28146231869792
 21
147.83153189823966
  0
LINE
  8
_1-2_ハッチング
  6
CONTINUOUS
 62
    4
 10
121.8476623186979
 20
146.85453189823966
 11
120.79701231869788
 21
147.90523189823966
  0
LINE
  8
_1-2_ハッチング
  6
CONTINUOUS
 62
    4
 10
121.8476623186979
 20
147.44378189823965
 11
121.41576231869789
 21
147.87573189823965
  0
ARC
  8
_1-2_ハッチング
  6
CONTINUOUS
 62
    4
 10
120.9709623186979
 20
144.90033189823964
 40
3.0120499999999995
 50
71.748000000000019
 51
177.29500000000004
  0
LINE
  8
_1-4_リベットル__フ
  6
CONTINUOUS
 62
    6
 10
121.84766231869793
 20
146.56118189823965
 11
121.84766231869793
 21
146.06118189823965
  0
LINE
  8
_1-4_リベットル__フ
  6
CONTINUOUS
 62
    6
 10
130.12476231869792
 20
146.06118189823965
 11
121.84766231869793
 21
146.06118189823965
  0
LINE
  8
_1-4_リベットル__フ
  6
CONTINUOUS
 62
    6
 10
121.84766231869793
 20
146.56118189823965
 11
132.17066231869791
 21
146.56118189823965
  0
LINE
  8
_1-4_リベットル__フ
  6
CONTINUOUS
 62
    6
 10
121.84766231869793
 20
146.06118189823965
 11
131.8740623186979
 21
146.06118189823965
  0
LINE
  8
_1-4_リベットル__フ
  6
CONTINUOUS
 62
    6
 10
132.04991231869792
 20
146.03758189823967
 11
132.48671231869793
 21
145.91813189823964
  0
LINE
  8
_1-4_リベットル__フ
  6
CONTINUOUS
 62
    6
 10
132.04991231869792
 20
146.53758189823967
 11
132.48671231869793
 21
146.41813189823966
  0
ARC
  8
_1-4_リベットル__フ
  6
CONTINUOUS
 62
    6
 10
131.8740623186979
 20
145.39453189823965
 40
0.6666499999999999
 50
74.706000000000017
 51
90.000000000000028
  0
ARC
  8
_1-4_リベットル__フ
  6
CONTINUOUS
 62
    6
 10
131.8740623186979
 20
145.89453189823965
 40
0.6666499999999999
 50
74.706000000000017
 51
90.000000000000028
  0
ARC
  8
_1-4_リベットル__フ
  6
CONTINUOUS
 62
    6
 10
132.66256231869789
 20
147.06118189823965
 40
0.6666499999999999
 50
254.70600000000005
 51
270.00000000000006
  0
LINE
  8
_1-4_リベットル__フ
  6
CONTINUOUS
 62
    6
 10
155.92381231869788
 20
146.39453189823965
 11
132.66256231869789
 21
146.39453189823965
  0
ARC
  8
_1-4_リベットル__フ
  6
CONTINUOUS
 62
    6
 10
132.66256231869789
 20
146.56118189823965
 40
0.6666499999999999
 50
254.70600000000005
 51
270.00000000000006
  0
LINE
  8
_1-4_リベットル__フ
  6
CONTINUOUS
 62
    6
 10
155.71671231869789
 20
145.89453189823965
 11
132.66256231869789
 21
145.89453189823965
  0
LINE
  8
_1-4_リベットル__フ
  6
CONTINUOUS
 62
    6
 10
155.92381231869788
 20
146.39453189823965
 11
157.81436231869793
 21
144.50398189823966
  0
LINE
  8
_1-4_リベットル__フ
  6
CONTINUOUS
 62
    6
 10
155.71671231869789
 20
145.89453189823965
 11
157.31436231869793
 21
144.29688189823966
  0
LINE
  8
_1-4_リベットル__フ
  6
CONTINUOUS
 62
    6
 10
157.31436231869793
 20
35.561181898239624
 11
157.31436231869793
 21
144.29688189823966
  0
LINE
  8
_1-4_リベットル__フ
  6
CONTINUOUS
 62
    6
 10
157.81436231869793
 20
35.561181898239624
 11
157.81436231869793
 21
144.50398189823966
  0
LINE
  8
_1-7_設備
  6
CONTINUOUS
 62
    3
 10
122.74766231869791
 20
153.22743189823962
 11
114.74551231869793
 21
154.17543189823965
  0
LINE
  8
_1-7_設備
  6
CONTINUOUS
 62
    3
 10
114.74551231869793
 20
154.17543189823965
 11
114.69566231869794
 21
153.8456818982396
  0
LINE
  8
_1-7_設備
  6
CONTINUOUS
 62
    3
 10
114.36436231869794
 20
153.88493189823964
 11
114.69566231869794
 21
153.8456818982396
  0
LINE
  8
_1-7_設備
  6
CONTINUOUS
 62
    3
 10
114.36436231869794
 20
153.88493189823964
 11
113.26896231869793
 21
146.66008189823964
  0
LINE
  8
_1-7_設備
  6
CONTINUOUS
 62
    3
 10
115.12301231869793
 20
151.82838189823963
 11
112.08101231869793
 21
132.76118189823961
  0
LINE
  8
_1-7_設備
  6
CONTINUOUS
 62
    3
 10
116.41241231869793
 20
152.8031318982396
 11
121.17906231869793
 21
152.23843189823964
  0
LINE
  8
_1-7_設備
  6
CONTINUOUS
 62
    3
 10
121.91436231869793
 20
151.41088189823961
 11
121.91436231869793
 21
147.56118189823962
  0
LINE
  8
_1-7_設備
  6
CONTINUOUS
 62
    3
 10
121.91436231869793
 20
147.56118189823962
 11
121.84766231869793
 21
147.49453189823961
  0
LINE
  8
_1-7_設備
  6
CONTINUOUS
 62
    3
 10
121.84766231869793
 20
147.49453189823961
 11
121.84766231869793
 21
146.56118189823962
  0
LINE
  8
_1-7_設備
  6
CONTINUOUS
 62
    3
 10
121.84766231869793
 20
146.56118189823962
 11
152.28101231869792
 21
146.56118189823962
  0
LINE
  8
_1-7_設備
  6
CONTINUOUS
 62
    3
 10
152.28101231869792
 20
147.32783189823962
 11
152.28101231869792
 21
146.56118189823962
  0
LINE
  8
_1-7_設備
  6
CONTINUOUS
 62
    3
 10
152.28101231869792
 20
147.32783189823962
 11
152.21436231869791
 21
147.39453189823962
  0
LINE
  8
_1-7_設備
  6
CONTINUOUS
 62
    3
 10
152.21436231869791
 20
148.4043318982396
 11
152.21436231869791
 21
147.39453189823962
  0
LINE
  8
_1-7_設備
  6
CONTINUOUS
 62
    3
 10
153.12996231869795
 20
149.23358189823961
 11
156.64466231869793
 21
148.88478189823962
  0
LINE
  8
_1-7_設備
  6
CONTINUOUS
 62
    3
 10
157.68046231869795
 20
147.91428189823961
 11
160.08101231869793
 21
133.4063818982396
  0
LINE
  8
_1-7_設備
  6
CONTINUOUS
 62
    3
 10
158.91856231869792
 20
146.65998189823964
 11
158.46816231869792
 21
149.50773189823963
  0
LINE
  8
_1-7_設備
  6
CONTINUOUS
 62
    3
 10
158.46816231869792
 20
149.50773189823963
 11
158.12531231869792
 21
149.54178189823961
  0
LINE
  8
_1-7_設備
  6
CONTINUOUS
 62
    3
 10
158.12531231869792
 20
149.54178189823961
 11
158.07146231869794
 21
149.88208189823962
  0
LINE
  8
_1-7_設備
  6
CONTINUOUS
 62
    3
 10
158.07146231869794
 20
149.88208189823962
 11
151.24771231869792
 21
150.55928189823962
  0
LINE
  8
_1-7_設備
  6
CONTINUOUS
 62
    3
 10
151.08101231869793
 20
149.89453189823962
 11
151.24771231869792
 21
150.55928189823962
  0
LINE
  8
_1-7_設備
  6
CONTINUOUS
 62
    3
 10
151.08101231869793
 20
148.48873189823962
 11
151.08101231869793
 21
149.89453189823962
  0
LINE
  8
_1-7_設備
  6
CONTINUOUS
 62
    3
 10
150.38736231869794
 20
147.82263189823962
 11
144.49771231869795
 21
148.06118189823962
  0
LINE
  8
_1-7_設備
  6
CONTINUOUS
 62
    3
 10
144.49771231869795
 20
148.06118189823962
 11
141.58101231869793
 21
148.06118189823962
  0
LINE
  8
_1-7_設備
  6
CONTINUOUS
 62
    3
 10
141.58101231869793
 20
148.11118189823964
 11
141.58101231869793
 21
148.06118189823962
  0
LINE
  8
_1-7_設備
  6
CONTINUOUS
 62
    3
 10
141.58101231869793
 20
148.11118189823964
 11
140.58101231869793
 21
148.11118189823964
  0
LINE
  8
_1-7_設備
  6
CONTINUOUS
 62
    3
 10
140.58101231869793
 20
148.11118189823964
 11
140.58101231869793
 21
148.06118189823962
  0
LINE
  8
_1-7_設備
  6
CONTINUOUS
 62
    3
 10
140.58101231869793
 20
148.06118189823962
 11
131.58101231869793
 21
148.06118189823962
  0
LINE
  8
_1-7_設備
  6
CONTINUOUS
 62
    3
 10
131.58101231869793
 20
148.12783189823961
 11
131.58101231869793
 21
148.06118189823962
  0
LINE
  8
_1-7_設備
  6
CONTINUOUS
 62
    3
 10
130.58101231869793
 20
148.12783189823961
 11
131.58101231869793
 21
148.12783189823961
  0
LINE
  8
_1-7_設備
  6
CONTINUOUS
 62
    3
 10
130.58101231869793
 20
148.12783189823961
 11
130.58101231869793
 21
148.06118189823962
  0
LINE
  8
_1-7_設備
  6
CONTINUOUS
 62
    3
 10
127.83101231869793
 20
148.06118189823962
 11
130.58101231869793
 21
148.06118189823962
  0
LINE
  8
_1-7_設備
  6
CONTINUOUS
 62
    3
 10
124.48906231869793
 20
147.87358189823962
 11
127.83101231869793
 21
148.06118189823962
  0
LINE
  8
_1-7_設備
  6
CONTINUOUS
 62
    3
 10
123.08101231869793
 20
149.20478189823962
 11
123.08101231869793
 21
151.89453189823962
  0
LINE
  8
_1-7_設備
  6
CONTINUOUS
 62
    3
 10
123.08101231869793
 20
151.89453189823962
 11
122.74766231869791
 21
153.22743189823962
  0
LINE
  8
_1-7_設備
  6
CONTINUOUS
 62
    3
 10
111.41436231869793
 20
132.76118189823961
 11
112.08101231869793
 21
132.76118189823961
  0
LINE
  8
_1-7_設備
  6
CONTINUOUS
 62
    3
 10
111.41436231869793
 20
134.42783189823962
 11
111.41436231869793
 21
132.76118189823961
  0
LINE
  8
_1-7_設備
  6
CONTINUOUS
 62
    3
 10
113.23896231869793
 20
146.46233189823963
 11
111.41436231869793
 21
134.42783189823962
  0
LINE
  8
_1-7_設備
  6
CONTINUOUS
 62
    3
 10
160.74766231869791
 20
135.09453189823961
 11
160.74766231869791
 21
132.76118189823961
  0
LINE
  8
_1-7_設備
  6
CONTINUOUS
 62
    3
 10
160.74766231869791
 20
132.76118189823961
 11
160.08101231869793
 21
132.76118189823961
  0
LINE
  8
_1-7_設備
  6
CONTINUOUS
 62
    3
 10
160.08101231869793
 20
133.4063818982396
 11
160.08101231869793
 21
132.76118189823961
  0
LINE
  8
_1-7_設備
  6
CONTINUOUS
 62
    3
 10
160.74766231869791
 20
135.09453189823961
 11
158.94981231869792
 21
146.46243189823963
  0
LINE
  8
_1-7_設備
  6
CONTINUOUS
 62
    3
 10
160.49766231869793
 20
132.76118189823961
 11
159.16431231869794
 21
132.76118189823961
  0
LINE
  8
_1-7_設備
  6
CONTINUOUS
 62
    3
 10
111.66431231869791
 20
132.76118189823961
 11
112.99766231869793
 21
132.76118189823961
  0
LINE
  8
_1-7_設備
  6
CONTINUOUS
 62
    3
 10
111.73066231869791
 20
158.82128189823965
 11
119.33101231869793
 21
158.06123189823961
  0
LINE
  8
_1-7_設備
  6
CONTINUOUS
 62
    3
 10
119.33101231869793
 20
158.06123189823961
 11
119.99766231869793
 21
154.7951818982396
  0
LINE
  8
_1-7_設備
  6
CONTINUOUS
 62
    3
 10
160.56401231869793
 20
150.73853189823961
 11
119.99766231869793
 21
154.7951818982396
  0
LINE
  8
_1-7_設備
  6
CONTINUOUS
 62
    3
 10
159.89731231869791
 20
150.13523189823962
 11
119.44271231869794
 21
154.18068189823964
  0
LINE
  8
_1-7_設備
  6
CONTINUOUS
 62
    3
 10
118.87426231869793
 20
156.96558189823963
 11
119.44271231869794
 21
154.18068189823964
  0
LINE
  8
_1-7_設備
  6
CONTINUOUS
 62
    3
 10
118.28736231869792
 20
157.49558189823961
 11
112.39731231869791
 21
158.08458189823961
  0
LINE
  8
_1-7_設備
  6
CONTINUOUS
 62
    3
 10
110.99766231869793
 20
132.39453189823962
 11
110.99766231869793
 21
158.15783189823964
  0
LINE
  8
_1-7_設備
  6
CONTINUOUS
 62
    3
 10
161.16431231869794
 20
132.39453189823962
 11
161.16431231869794
 21
150.07523189823962
  0
LINE
  8
_1-7_設備
  6
CONTINUOUS
 62
    3
 10
159.16431231869794
 20
132.39453189823962
 11
159.16431231869794
 21
132.76118189823961
  0
LINE
  8
_1-7_設備
  6
CONTINUOUS
 62
    3
 10
159.33096231869791
 20
132.22783189823963
 11
160.99766231869793
 21
132.22783189823963
  0
LINE
  8
_1-7_設備
  6
CONTINUOUS
 62
    3
 10
112.83096231869791
 20
132.22783189823963
 11
111.16431231869791
 21
132.22783189823963
  0
LINE
  8
_1-7_設備
  6
CONTINUOUS
 62
    3
 10
112.99766231869793
 20
132.39453189823962
 11
112.99766231869793
 21
132.76118189823961
  0
LINE
  8
_1-7_設備
  6
CONTINUOUS
 62
    3
 10
160.49766231869793
 20
149.47188189823962
 11
160.49766231869793
 21
132.76118189823961
  0
LINE
  8
_1-7_設備
  6
CONTINUOUS
 62
    3
 10
111.66431231869791
 20
157.42123189823963
 11
111.66431231869791
 21
132.76118189823961
  0
LINE
  8
_1-7_設備
  6
CONTINUOUS
 62
    3
 10
116.41236604622564
 20
152.80312997094939
 11
116.41236604622564
 21
152.80312997094939
  0
LINE
  8
_1-7_設備
  6
CONTINUOUS
 62
    3
 10
116.41236604622564
 20
152.80312997094939
 11
116.20910109213148
 21
152.80936288214468
  0
LINE
  8
_1-7_設備
  6
CONTINUOUS
 62
    3
 10
116.20910109213148
 20
152.80936288214468
 11
116.00784185575323
 21
152.78020451255165
  0
LINE
  8
_1-7_設備
  6
CONTINUOUS
 62
    3
 10
116.00784185575323
 20
152.78020451255165
 11
115.81470349714617
 21
152.71654082447552
  0
LINE
  8
_1-7_設備
  6
CONTINUOUS
 62
    3
 10
115.81470349714617
 20
152.71654082447552
 11
115.63555442760386
 21
152.62030620686309
  0
LINE
  8
_1-7_設備
  6
CONTINUOUS
 62
    3
 10
115.63555442760386
 20
152.62030620686309
 11
115.47583800095055
 21
152.49442469987346
  0
LINE
  8
_1-7_設備
  6
CONTINUOUS
 62
    3
 10
115.47583800095055
 20
152.49442469987346
 11
115.34040711998965
 21
152.34272114939739
  0
LINE
  8
_1-7_設備
  6
CONTINUOUS
 62
    3
 10
115.34040711998965
 20
152.34272114939739
 11
115.23337678350786
 21
152.1698049910504
  0
LINE
  8
_1-7_設備
  6
CONTINUOUS
 62
    3
 10
115.23337678350786
 20
152.1698049910504
 11
115.15799905411922
 21
151.98093019480407
  0
LINE
  8
_1-7_設備
  6
CONTINUOUS
 62
    3
 10
115.15799905411922
 20
151.98093019480407
 11
115.12303259559523
 21
151.82838759487387
  0
LINE
  8
_1-7_設備
  6
CONTINUOUS
 62
    3
 10
121.91436231869791
 20
151.41088189823111
 11
121.91436231869791
 21
151.41088189823111
  0
LINE
  8
_1-7_設備
  6
CONTINUOUS
 62
    3
 10
121.91436231869791
 20
151.41088189823111
 11
121.90170185967212
 21
151.55559160708998
  0
LINE
  8
_1-7_設備
  6
CONTINUOUS
 62
    3
 10
121.90170185967212
 20
151.55559160708998
 11
121.86410516423275
 21
151.69590438467205
  0
LINE
  8
_1-7_設備
  6
CONTINUOUS
 62
    3
 10
121.86410516423275
 20
151.69590438467205
 11
121.80271458894592
 21
151.82755689823225
  0
LINE
  8
_1-7_設備
  6
CONTINUOUS
 62
    3
 10
121.80271458894592
 20
151.82755689823225
 11
121.71939545537657
 21
151.94654895276537
  0
LINE
  8
_1-7_設備
  6
CONTINUOUS
 62
    3
 10
121.71939545537657
 20
151.94654895276537
 11
121.61667937323669
 21
152.04926503490734
  0
LINE
  8
_1-7_設備
  6
CONTINUOUS
 62
    3
 10
121.61667937323669
 20
152.04926503490734
 11
121.49768731870526
 21
152.1325841684791
  0
LINE
  8
_1-7_設備
  6
CONTINUOUS
 62
    3
 10
121.49768731870526
 20
152.1325841684791
 11
121.36603480514634
 21
152.19397474376862
  0
LINE
  8
_1-7_設備
  6
CONTINUOUS
 62
    3
 10
121.36603480514634
 20
152.19397474376862
 11
121.22572202756501
 21
152.23157143921085
  0
LINE
  8
_1-7_設備
  6
CONTINUOUS
 62
    3
 10
121.22572202756501
 20
152.23157143921085
 11
121.1790540568754
 21
152.23844460889973
  0
LINE
  8
_1-7_設備
  6
CONTINUOUS
 62
    3
 10
153.12996088714988
 20
149.23360819003307
 11
153.12996088714988
 21
149.23360819003307
  0
LINE
  8
_1-7_設備
  6
CONTINUOUS
 62
    3
 10
153.12996088714988
 20
149.23360819003307
 11
152.98470827011889
 21
149.23530061622327
  0
LINE
  8
_1-7_設備
  6
CONTINUOUS
 62
    3
 10
152.98470827011889
 20
149.23530061622327
 11
152.8413684799977
 21
149.21174447840801
  0
LINE
  8
_1-7_設備
  6
CONTINUOUS
 62
    3
 10
152.8413684799977
 20
149.21174447840801
 11
152.70429682377571
 21
149.1636555179148
  0
LINE
  8
_1-7_設備
  6
CONTINUOUS
 62
    3
 10
152.70429682377571
 20
149.1636555179148
 11
152.57765815436557
 21
149.09249489347408
  0
LINE
  8
_1-7_設備
  6
CONTINUOUS
 62
    3
 10
152.57765815436557
 20
149.09249489347408
 11
152.4653003236551
 21
149.00042478465042
  0
LINE
  8
_1-7_設備
  6
CONTINUOUS
 62
    3
 10
152.4653003236551
 20
149.00042478465042
 11
152.37063726747462
 21
148.89024269511071
  0
LINE
  8
_1-7_設備
  6
CONTINUOUS
 62
    3
 10
152.37063726747462
 20
148.89024269511071
 11
152.29654527488438
 21
148.76529645189083
  0
LINE
  8
_1-7_設備
  6
CONTINUOUS
 62
    3
 10
152.29654527488438
 20
148.76529645189083
 11
152.24527559358683
 21
148.62938248336511
  0
LINE
  8
_1-7_設備
  6
CONTINUOUS
 62
    3
 10
152.24527559358683
 20
148.62938248336511
 11
152.21838602690451
 21
148.48663046669145
  0
LINE
  8
_1-7_設備
  6
CONTINUOUS
 62
    3
 10
152.21838602690451
 20
148.48663046669145
 11
152.21431231869798
 21
148.4043318982481
  0
LINE
  8
_1-7_設備
  6
CONTINUOUS
 62
    3
 10
157.68041215585839
 20
147.91428293487758
 11
157.68041215585839
 21
147.91428293487758
  0
LINE
  8
_1-7_設備
  6
CONTINUOUS
 62
    3
 10
157.68041215585839
 20
147.91428293487758
 11
157.62985440660242
 21
148.11125857990774
  0
LINE
  8
_1-7_設備
  6
CONTINUOUS
 62
    3
 10
157.62985440660242
 20
148.11125857990774
 11
157.54586028135603
 21
148.29646246126276
  0
LINE
  8
_1-7_設備
  6
CONTINUOUS
 62
    3
 10
157.54586028135603
 20
148.29646246126276
 11
157.43098189911177
 21
148.46426725272536
  0
LINE
  8
_1-7_設備
  6
CONTINUOUS
 62
    3
 10
157.43098189911177
 20
148.46426725272536
 11
157.28870978138283
 21
148.60957429062032
  0
LINE
  8
_1-7_設備
  6
CONTINUOUS
 62
    3
 10
157.28870978138283
 20
148.60957429062032
 11
157.1233667944733
 21
148.72796849413004
  0
LINE
  8
_1-7_設備
  6
CONTINUOUS
 62
    3
 10
157.1233667944733
 20
148.72796849413004
 11
156.93997680137278
 21
148.81585251529125
  0
LINE
  8
_1-7_設備
  6
CONTINUOUS
 62
    3
 10
156.93997680137278
 20
148.81585251529125
 11
156.74411201422186
 21
148.87055604259245
  0
LINE
  8
_1-7_設備
  6
CONTINUOUS
 62
    3
 10
156.74411201422186
 20
148.87055604259245
 11
156.64462636430233
 21
148.88477890228211
  0
LINE
  8
_1-7_設備
  6
CONTINUOUS
 62
    3
 10
150.38738132178938
 20
147.82262811630639
 11
150.38738132178938
 21
147.82262811630639
  0
LINE
  8
_1-7_設備
  6
CONTINUOUS
 62
    3
 10
150.38738132178938
 20
147.82262811630639
 11
150.50345893162816
 21
147.82806252853624
  0
LINE
  8
_1-7_設備
  6
CONTINUOUS
 62
    3
 10
150.50345893162816
 20
147.82806252853624
 11
150.61682938596809
 21
147.85357104524971
  0
LINE
  8
_1-7_設備
  6
CONTINUOUS
 62
    3
 10
150.61682938596809
 20
147.85357104524971
 11
150.72404798092231
 21
147.89837860307435
  0
LINE
  8
_1-7_設備
  6
CONTINUOUS
 62
    3
 10
150.72404798092231
 20
147.89837860307435
 11
150.82185693373833
 21
147.96112374703941
  0
LINE
  8
_1-7_設備
  6
CONTINUOUS
 62
    3
 10
150.82185693373833
 20
147.96112374703941
 11
150.90728436887861
 21
148.0398999976961
  0
LINE
  8
_1-7_設備
  6
CONTINUOUS
 62
    3
 10
150.90728436887861
 20
148.0398999976961
 11
150.97773461695471
 21
148.13231377853089
  0
LINE
  8
_1-7_設備
  6
CONTINUOUS
 62
    3
 10
150.97773461695471
 20
148.13231377853089
 11
151.03106708282843
 21
148.23555714357676
  0
LINE
  8
_1-7_設備
  6
CONTINUOUS
 62
    3
 10
151.03106708282843
 20
148.23555714357676
 11
151.0656612865117
 21
148.34649309543045
  0
LINE
  8
_1-7_設備
  6
CONTINUOUS
 62
    3
 10
151.0656612865117
 20
148.34649309543045
 11
151.08046610063116
 21
148.46175090133121
  0
LINE
  8
_1-7_設備
  6
CONTINUOUS
 62
    3
 10
151.08046610063116
 20
148.46175090133121
 11
151.08101231869787
 21
148.48873189822601
  0
LINE
  8
_1-7_設備
  6
CONTINUOUS
 62
    3
 10
123.08096231869796
 20
149.20478189823962
 11
123.08096231869796
 21
149.20478189823962
  0
LINE
  8
_1-7_設備
  6
CONTINUOUS
 62
    3
 10
123.08096231869796
 20
149.20478189823962
 11
123.10121890121914
 21
148.97324810054744
  0
LINE
  8
_1-7_設備
  6
CONTINUOUS
 62
    3
 10
123.10121890121914
 20
148.97324810054744
 11
123.1613731627731
 21
148.74874934013636
  0
LINE
  8
_1-7_設備
  6
CONTINUOUS
 62
    3
 10
123.1613731627731
 20
148.74874934013636
 11
123.25959734656202
 21
148.53810689823965
  0
LINE
  8
_1-7_設備
  6
CONTINUOUS
 62
    3
 10
123.25959734656202
 20
148.53810689823965
 11
123.39290696046533
 21
148.34772103886411
  0
LINE
  8
_1-7_設備
  6
CONTINUOUS
 62
    3
 10
123.39290696046533
 20
148.34772103886411
 11
123.55725145932247
 21
148.18337654000698
  0
LINE
  8
_1-7_設備
  6
CONTINUOUS
 62
    3
 10
123.55725145932247
 20
148.18337654000698
 11
123.74763731869801
 21
148.05006692610368
  0
LINE
  8
_1-7_設備
  6
CONTINUOUS
 62
    3
 10
123.74763731869801
 20
148.05006692610368
 11
123.95827976059473
 21
147.95184274231477
  0
LINE
  8
_1-7_設備
  6
CONTINUOUS
 62
    3
 10
123.95827976059473
 20
147.95184274231477
 11
124.18277852100582
 21
147.89168848076085
  0
LINE
  8
_1-7_設備
  6
CONTINUOUS
 62
    3
 10
124.18277852100582
 20
147.89168848076085
 11
124.41431231869801
 21
147.87143189823968
  0
LINE
  8
_1-7_設備
  6
CONTINUOUS
 62
    3
 10
124.41431231869801
 20
147.87143189823968
 11
124.48904772206902
 21
147.8735280374066
  0
LINE
  8
_1-7_設備
  6
CONTINUOUS
 62
    3
 10
156.34000582630782
 20
150.0538892941961
 11
156.34000582630782
 21
150.0538892941961
  0
LINE
  8
_1-7_設備
  6
CONTINUOUS
 62
    3
 10
156.34000582630782
 20
150.0538892941961
 11
156.39304768967796
 21
150.39030322973534
  0
LINE
  8
_1-7_設備
  6
CONTINUOUS
 62
    3
 10
156.39304768967796
 20
150.39030322973534
 11
156.3973024326055
 21
150.48521311666286
  0
LINE
  8
_1-7_設備
  6
CONTINUOUS
 62
    3
 10
151.29090760096514
 20
150.99586661870447
 11
151.29090760096514
 21
150.99586661870447
  0
LINE
  8
_1-7_設備
  6
CONTINUOUS
 62
    3
 10
151.29090760096514
 20
150.99586661870447
 11
151.25130055740783
 21
150.65760775718644
  0
LINE
  8
_1-7_設備
  6
CONTINUOUS
 62
    3
 10
151.25130055740783
 20
150.65760775718644
 11
151.25090178332547
 21
150.55894448949394
  0
LINE
  8
_1-7_設備
  6
CONTINUOUS
 62
    3
 10
119.31085797275371
 20
154.8265399440794
 11
119.31085797275371
 21
154.8265399440794
  0
LINE
  8
_1-7_設備
  6
CONTINUOUS
 62
    3
 10
119.31085797275371
 20
154.8265399440794
 11
119.17390710146904
 21
154.8381794740923
  0
LINE
  8
_1-7_設備
  6
CONTINUOUS
 62
    3
 10
119.17390710146904
 20
154.8381794740923
 11
119.03701563847048
 21
154.82586090426193
  0
LINE
  8
_1-7_設備
  6
CONTINUOUS
 62
    3
 10
119.03701563847048
 20
154.82586090426193
 11
118.90434296159083
 21
154.78995852809911
  0
LINE
  8
_1-7_設備
  6
CONTINUOUS
 62
    3
 10
118.90434296159083
 20
154.78995852809911
 11
118.77992026298145
 21
154.73156322113604
  0
LINE
  8
_1-7_設備
  6
CONTINUOUS
 62
    3
 10
118.77992026298145
 20
154.73156322113604
 11
118.66752806337867
 21
154.65244929522535
  0
LINE
  8
_1-7_設備
  6
CONTINUOUS
 62
    3
 10
118.66752806337867
 20
154.65244929522535
 11
118.57058134289422
 21
154.55502058697229
  0
LINE
  8
_1-7_設備
  6
CONTINUOUS
 62
    3
 10
118.57058134289422
 20
154.55502058697229
 11
118.4920257785726
 21
154.44223741837581
  0
LINE
  8
_1-7_設備
  6
CONTINUOUS
 62
    3
 10
118.4920257785726
 20
154.44223741837581
 11
118.43424824148471
 21
154.31752664894265
  0
LINE
  8
_1-7_設備
  6
CONTINUOUS
 62
    3
 10
118.43424824148471
 20
154.31752664894265
 11
118.39900427285812
 21
154.18467755229537
  0
LINE
  8
_1-7_設備
  6
CONTINUOUS
 62
    3
 10
118.39900427285812
 20
154.18467755229537
 11
118.38736474284522
 21
154.04772668101072
  0
LINE
  8
_1-7_設備
  6
CONTINUOUS
 62
    3
 10
118.38736474284522
 20
154.04772668101072
 11
118.39968331267559
 21
153.91083521801215
  0
LINE
  8
_1-7_設備
  6
CONTINUOUS
 62
    3
 10
118.39968331267559
 20
153.91083521801215
 11
118.43558568883842
 21
153.7781625411325
  0
LINE
  8
_1-7_設備
  6
CONTINUOUS
 62
    3
 10
118.43558568883842
 20
153.7781625411325
 11
118.44165147521935
 21
153.76216374695437
  0
LINE
  8
_1-7_設備
  6
CONTINUOUS
 62
    3
 10
122.67453928325665
 20
153.23605521927871
 11
122.67453928325665
 21
153.23605521927871
  0
LINE
  8
_1-7_設備
  6
CONTINUOUS
 62
    3
 10
122.67453928325665
 20
153.23605521927871
 11
122.77820521865131
 21
153.32630151362537
  0
LINE
  8
_1-7_設備
  6
CONTINUOUS
 62
    3
 10
122.77820521865131
 20
153.32630151362537
 11
122.86462513099674
 21
153.43317816474598
  0
LINE
  8
_1-7_設備
  6
CONTINUOUS
 62
    3
 10
122.86462513099674
 20
153.43317816474598
 11
122.93117319498693
 21
153.55343777967843
  0
LINE
  8
_1-7_設備
  6
CONTINUOUS
 62
    3
 10
122.93117319498693
 20
153.55343777967843
 11
122.97582738137248
 21
153.68342633087735
  0
LINE
  8
_1-7_設備
  6
CONTINUOUS
 62
    3
 10
122.97582738137248
 20
153.68342633087735
 11
122.99723089529616
 21
153.81919418199192
  0
LINE
  8
_1-7_設備
  6
CONTINUOUS
 62
    3
 10
122.99723089529616
 20
153.81919418199192
 11
122.99762222539134
 21
153.82517927430521
  0
LINE
  8
_1-7_設備
  6
CONTINUOUS
 62
    3
 10
113.26895261404003
 20
146.66005196977574
 11
113.26895261404003
 21
146.66005196977574
  0
LINE
  8
_1-7_設備
  6
CONTINUOUS
 62
    3
 10
113.26895261404003
 20
146.66005196977574
 11
113.25155627002273
 21
146.66115294869812
  0
LINE
  8
_1-7_設備
  6
CONTINUOUS
 62
    3
 10
113.25155627002273
 20
146.66115294869812
 11
113.23423303257691
 21
146.65921635784008
  0
LINE
  8
_1-7_設備
  6
CONTINUOUS
 62
    3
 10
113.23423303257691
 20
146.65921635784008
 11
113.21750925950637
 21
146.65430103953494
  0
LINE
  8
_1-7_設備
  6
CONTINUOUS
 62
    3
 10
113.21750925950637
 20
146.65430103953494
 11
113.20189309419322
 21
146.64655634324208
  0
LINE
  8
_1-7_設備
  6
CONTINUOUS
 62
    3
 10
113.20189309419322
 20
146.64655634324208
 11
113.18785902591836
 21
146.63621758763941
  0
LINE
  8
_1-7_設備
  6
CONTINUOUS
 62
    3
 10
113.18785902591836
 20
146.63621758763941
 11
113.17583347274471
 21
146.62359891058418
  0
LINE
  8
_1-7_設備
  6
CONTINUOUS
 62
    3
 10
113.17583347274471
 20
146.62359891058418
 11
113.16618182502026
 21
146.6090837241934
  0
LINE
  8
_1-7_設備
  6
CONTINUOUS
 62
    3
 10
113.16618182502026
 20
146.6090837241934
 11
113.15919734317713
 21
146.59311306506052
  0
LINE
  8
_1-7_設備
  6
CONTINUOUS
 62
    3
 10
113.15919734317713
 20
146.59311306506052
 11
113.1550922471618
 21
146.57617219358173
  0
LINE
  8
_1-7_設備
  6
CONTINUOUS
 62
    3
 10
113.1550922471618
 20
146.57617219358173
 11
113.15399126823944
 21
146.55877584956443
  0
LINE
  8
_1-7_設備
  6
CONTINUOUS
 62
    3
 10
113.15399126823944
 20
146.55877584956443
 11
113.15592785909745
 21
146.5414526121186
  0
LINE
  8
_1-7_設備
  6
CONTINUOUS
 62
    3
 10
113.15592785909745
 20
146.5414526121186
 11
113.1608431774026
 21
146.52472883904807
  0
LINE
  8
_1-7_設備
  6
CONTINUOUS
 62
    3
 10
113.1608431774026
 20
146.52472883904807
 11
113.16858787369544
 21
146.50911267373493
  0
LINE
  8
_1-7_設備
  6
CONTINUOUS
 62
    3
 10
113.16858787369544
 20
146.50911267373493
 11
113.17892662929813
 21
146.49507860546007
  0
LINE
  8
_1-7_設備
  6
CONTINUOUS
 62
    3
 10
113.17892662929813
 20
146.49507860546007
 11
113.19154530635335
 21
146.48305305228644
  0
LINE
  8
_1-7_設備
  6
CONTINUOUS
 62
    3
 10
113.19154530635335
 20
146.48305305228644
 11
113.20606049274413
 21
146.47340140456197
  0
LINE
  8
_1-7_設備
  6
CONTINUOUS
 62
    3
 10
113.20606049274413
 20
146.47340140456197
 11
113.222031151877
 21
146.46641692271885
  0
LINE
  8
_1-7_設備
  6
CONTINUOUS
 62
    3
 10
113.222031151877
 20
146.46641692271885
 11
113.23897202335479
 21
146.46231182670365
  0
LINE
  8
_1-7_設備
  6
CONTINUOUS
 62
    3
 10
158.94978441242358
 20
146.46240968459844
 11
158.94978441242358
 21
146.46240968459844
  0
LINE
  8
_1-7_設備
  6
CONTINUOUS
 62
    3
 10
158.94978441242358
 20
146.46240968459844
 11
158.96669869262016
 21
146.46662300457049
  0
LINE
  8
_1-7_設備
  6
CONTINUOUS
 62
    3
 10
158.96669869262016
 20
146.46662300457049
 11
158.98262437155933
 21
146.47370944867754
  0
LINE
  8
_1-7_設備
  6
CONTINUOUS
 62
    3
 10
158.98262437155933
 20
146.47370944867754
 11
158.99707755554525
 21
146.48345369890137
  0
LINE
  8
_1-7_設備
  6
CONTINUOUS
 62
    3
 10
158.99707755554525
 20
146.48345369890137
 11
159.00961909189624
 21
146.49555968112969
  0
LINE
  8
_1-7_設備
  6
CONTINUOUS
 62
    3
 10
159.00961909189624
 20
146.49555968112969
 11
159.01986791237655
 21
146.50965956121848
  0
LINE
  8
_1-7_設備
  6
CONTINUOUS
 62
    3
 10
159.01986791237655
 20
146.50965956121848
 11
159.02751261176209
 21
146.52532492144607
  0
LINE
  8
_1-7_設備
  6
CONTINUOUS
 62
    3
 10
159.02751261176209
 20
146.52532492144607
 11
159.03232090973037
 21
146.54207977776903
  0
LINE
  8
_1-7_設備
  6
CONTINUOUS
 62
    3
 10
159.03232090973037
 20
146.54207977776903
 11
159.03414670858078
 21
146.55941504235636
  0
LINE
  8
_1-7_設備
  6
CONTINUOUS
 62
    3
 10
159.03414670858078
 20
146.55941504235636
 11
159.03293453233917
 21
146.57680399196565
  0
LINE
  8
_1-7_設備
  6
CONTINUOUS
 62
    3
 10
159.03293453233917
 20
146.57680399196565
 11
159.0287212123672
 21
146.59371827216222
  0
LINE
  8
_1-7_設備
  6
CONTINUOUS
 62
    3
 10
159.0287212123672
 20
146.59371827216222
 11
159.02163476826018
 21
146.60964395110133
  0
LINE
  8
_1-7_設備
  6
CONTINUOUS
 62
    3
 10
159.02163476826018
 20
146.60964395110133
 11
159.01189051803644
 21
146.62409713508725
  0
LINE
  8
_1-7_設備
  6
CONTINUOUS
 62
    3
 10
159.01189051803644
 20
146.62409713508725
 11
158.99978453580815
 21
146.63663867143819
  0
LINE
  8
_1-7_設備
  6
CONTINUOUS
 62
    3
 10
158.99978453580815
 20
146.63663867143819
 11
158.98568465571941
 21
146.64688749191845
  0
LINE
  8
_1-7_設備
  6
CONTINUOUS
 62
    3
 10
158.98568465571941
 20
146.64688749191845
 11
158.97001929549182
 21
146.6545321913039
  0
LINE
  8
_1-7_設備
  6
CONTINUOUS
 62
    3
 10
158.97001929549182
 20
146.6545321913039
 11
158.95326443916889
 21
146.65934048927215
  0
LINE
  8
_1-7_設備
  6
CONTINUOUS
 62
    3
 10
158.95326443916889
 20
146.65934048927215
 11
158.93592917458156
 21
146.6611662881225
  0
LINE
  8
_1-7_設備
  6
CONTINUOUS
 62
    3
 10
158.93592917458156
 20
146.6611662881225
 11
158.9185402249733
 21
146.65995411188095
  0
LINE
  8
_1-7_設備
  6
CONTINUOUS
 62
    3
 10
118.87419631224695
 20
156.96554691266533
 11
118.87419631224695
 21
156.96554691266533
  0
LINE
  8
_1-7_設備
  6
CONTINUOUS
 62
    3
 10
118.87419631224695
 20
156.96554691266533
 11
118.84112307037782
 21
157.07694576820001
  0
LINE
  8
_1-7_設備
  6
CONTINUOUS
 62
    3
 10
118.84112307037782
 20
157.07694576820001
 11
118.78920807711008
 21
157.18090911662711
  0
LINE
  8
_1-7_設備
  6
CONTINUOUS
 62
    3
 10
118.78920807711008
 20
157.18090911662711
 11
118.7200287432439
 21
157.27427808421268
  0
LINE
  8
_1-7_設備
  6
CONTINUOUS
 62
    3
 10
118.7200287432439
 20
157.27427808421268
 11
118.63568704783241
 21
157.35421570212364
  0
LINE
  8
_1-7_設備
  6
CONTINUOUS
 62
    3
 10
118.63568704783241
 20
157.35421570212364
 11
118.53874567061169
 21
157.41829310629015
  0
LINE
  8
_1-7_設備
  6
CONTINUOUS
 62
    3
 10
118.53874567061169
 20
157.41829310629015
 11
118.43215012627391
 21
157.4645633372113
  0
LINE
  8
_1-7_設備
  6
CONTINUOUS
 62
    3
 10
118.43215012627391
 20
157.4645633372113
 11
118.31913926649381
 21
157.49162049733445
  0
LINE
  8
_1-7_設備
  6
CONTINUOUS
 62
    3
 10
118.31913926649381
 20
157.49162049733445
 11
118.28734992987805
 21
157.49557309539452
  0
LINE
  8
_1-7_設備
  6
CONTINUOUS
 62
    3
 10
110.99766231869798
 20
132.39453189824133
 11
110.99766231869798
 21
132.39453189824133
  0
LINE
  8
_1-7_設備
  6
CONTINUOUS
 62
    3
 10
110.99766231869798
 20
132.39453189824133
 11
111.00019410665817
 21
132.36559342943312
  0
LINE
  8
_1-7_設備
  6
CONTINUOUS
 62
    3
 10
111.00019410665817
 20
132.36559342943312
 11
111.00771254344338
 21
132.33753424135602
  0
LINE
  8
_1-7_設備
  6
CONTINUOUS
 62
    3
 10
111.00771254344338
 20
132.33753424135602
 11
111.01998918515638
 21
132.31120689824112
  0
LINE
  8
_1-7_設備
  6
CONTINUOUS
 62
    3
 10
111.01998918515638
 20
132.31120689824112
 11
111.036651012251
 21
132.28741134308669
  0
LINE
  8
_1-7_設備
  6
CONTINUOUS
 62
    3
 10
111.036651012251
 20
132.28741134308669
 11
111.05719176354229
 21
132.266870591795
  0
LINE
  8
_1-7_設備
  6
CONTINUOUS
 62
    3
 10
111.05719176354229
 20
132.266870591795
 11
111.08098731869636
 21
132.25020876469983
  0
LINE
  8
_1-7_設備
  6
CONTINUOUS
 62
    3
 10
111.08098731869636
 20
132.25020876469983
 11
111.10731466181099
 21
132.23793212298628
  0
LINE
  8
_1-7_設備
  6
CONTINUOUS
 62
    3
 10
111.10731466181099
 20
132.23793212298628
 11
111.13537384988793
 21
132.23041368620051
  0
LINE
  8
_1-7_設備
  6
CONTINUOUS
 62
    3
 10
111.13537384988793
 20
132.23041368620051
 11
111.16431231869535
 21
132.22788189823967
  0
LINE
  8
_1-7_設備
  6
CONTINUOUS
 62
    3
 10
160.99766231869708
 20
132.22788189823967
 11
160.99766231869708
 21
132.22788189823967
  0
LINE
  8
_1-7_設備
  6
CONTINUOUS
 62
    3
 10
160.99766231869708
 20
132.22788189823967
 11
161.02660078750529
 21
132.23041368620002
  0
LINE
  8
_1-7_設備
  6
CONTINUOUS
 62
    3
 10
161.02660078750529
 20
132.23041368620002
 11
161.05465997558233
 21
132.23793212298537
  0
LINE
  8
_1-7_設備
  6
CONTINUOUS
 62
    3
 10
161.05465997558233
 20
132.23793212298537
 11
161.08098731869717
 21
132.2502087646985
  0
LINE
  8
_1-7_設備
  6
CONTINUOUS
 62
    3
 10
161.08098731869717
 20
132.2502087646985
 11
161.10478287385149
 21
132.26687059179326
  0
LINE
  8
_1-7_設備
  6
CONTINUOUS
 62
    3
 10
161.10478287385149
 20
132.26687059179326
 11
161.12532362514312
 21
132.28741134308464
  0
LINE
  8
_1-7_設備
  6
CONTINUOUS
 62
    3
 10
161.12532362514312
 20
132.28741134308464
 11
161.14198545223812
 21
132.31120689823879
  0
LINE
  8
_1-7_設備
  6
CONTINUOUS
 62
    3
 10
161.14198545223812
 20
132.31120689823879
 11
161.15426209395156
 21
132.3375342413535
  0
LINE
  8
_1-7_設備
  6
CONTINUOUS
 62
    3
 10
161.15426209395156
 20
132.3375342413535
 11
161.16178053073722
 21
132.36559342943048
  0
LINE
  8
_1-7_設備
  6
CONTINUOUS
 62
    3
 10
161.16178053073722
 20
132.36559342943048
 11
161.16431231869788
 21
132.39453189823791
  0
LINE
  8
_1-7_設備
  6
CONTINUOUS
 62
    3
 10
111.73063721044451
 20
158.82117436728163
 11
111.73063721044451
 21
158.82117436728163
  0
LINE
  8
_1-7_設備
  6
CONTINUOUS
 62
    3
 10
111.73063721044451
 20
158.82117436728163
 11
111.61444137538945
 21
158.82261390124017
  0
LINE
  8
_1-7_設備
  6
CONTINUOUS
 62
    3
 10
111.61444137538945
 20
158.82261390124017
 11
111.49976084371089
 21
158.80385437043347
  0
LINE
  8
_1-7_設備
  6
CONTINUOUS
 62
    3
 10
111.49976084371089
 20
158.80385437043347
 11
111.39008012533274
 21
158.76546577371232
  0
LINE
  8
_1-7_設備
  6
CONTINUOUS
 62
    3
 10
111.39008012533274
 20
158.76546577371232
 11
111.28873181338182
 21
158.70861452916247
  0
LINE
  8
_1-7_設備
  6
CONTINUOUS
 62
    3
 10
111.28873181338182
 20
158.70861452916247
 11
111.19879532503201
 21
158.63502803308154
  0
LINE
  8
_1-7_設備
  6
CONTINUOUS
 62
    3
 10
111.19879532503201
 20
158.63502803308154
 11
111.12300333497178
 21
158.54694217391631
  0
LINE
  8
_1-7_設備
  6
CONTINUOUS
 62
    3
 10
111.12300333497178
 20
158.54694217391631
 11
111.06365874446651
 21
158.44703339592394
  0
LINE
  8
_1-7_設備
  6
CONTINUOUS
 62
    3
 10
111.06365874446651
 20
158.44703339592394
 11
111.02256470886887
 21
158.33833737676744
  0
LINE
  8
_1-7_設備
  6
CONTINUOUS
 62
    3
 10
111.02256470886887
 20
158.33833737676744
 11
111.00096984965595
 21
158.22415678998607
  0
LINE
  8
_1-7_設備
  6
CONTINUOUS
 62
    3
 10
111.00096984965595
 20
158.22415678998607
 11
110.99766231869799
 21
158.15783189824643
  0
LINE
  8
_1-7_設備
  6
CONTINUOUS
 62
    3
 10
112.39728844704896
 20
158.08457424363746
 11
112.39728844704896
 21
158.08457424363746
  0
LINE
  8
_1-7_設備
  6
CONTINUOUS
 62
    3
 10
112.39728844704896
 20
158.08457424363746
 11
112.28109261467768
 21
158.0860139942086
  0
LINE
  8
_1-7_設備
  6
CONTINUOUS
 62
    3
 10
112.28109261467768
 20
158.0860139942086
 11
112.16641204802774
 21
158.06725467718968
  0
LINE
  8
_1-7_設備
  6
CONTINUOUS
 62
    3
 10
112.16641204802774
 20
158.06725467718968
 11
112.05673125808566
 21
158.02886628493567
  0
LINE
  8
_1-7_設備
  6
CONTINUOUS
 62
    3
 10
112.05673125808566
 20
158.02886628493567
 11
111.95538284015269
 21
157.97201522931974
  0
LINE
  8
_1-7_設備
  6
CONTINUOUS
 62
    3
 10
111.95538284015269
 20
157.97201522931974
 11
111.86544621462292
 21
157.89842890089872
  0
LINE
  8
_1-7_設備
  6
CONTINUOUS
 62
    3
 10
111.86544621462292
 20
157.89842890089872
 11
111.78965406035296
 21
157.81034318302528
  0
LINE
  8
_1-7_設備
  6
CONTINUOUS
 62
    3
 10
111.78965406035296
 20
157.81034318302528
 11
111.73030928359761
 21
157.71043451566342
  0
LINE
  8
_1-7_設備
  6
CONTINUOUS
 62
    3
 10
111.73030928359761
 20
157.71043451566342
 11
111.68921504536867
 21
157.60173857311474
  0
LINE
  8
_1-7_設備
  6
CONTINUOUS
 62
    3
 10
111.68921504536867
 20
157.60173857311474
 11
111.66761997330006
 21
157.48755802659073
  0
LINE
  8
_1-7_設備
  6
CONTINUOUS
 62
    3
 10
111.66761997330006
 20
157.48755802659073
 11
111.66431231869795
 21
157.42123189823963
  0
LINE
  8
_1-7_設備
  6
CONTINUOUS
 62
    3
 10
160.49761231869786
 20
149.471881898226
 11
160.49761231869786
 21
149.471881898226
  0
LINE
  8
_1-7_設備
  6
CONTINUOUS
 62
    3
 10
160.49761231869786
 20
149.471881898226
 11
160.48748440724583
 21
149.58764445586786
  0
LINE
  8
_1-7_設備
  6
CONTINUOUS
 62
    3
 10
160.48748440724583
 20
149.58764445586786
 11
160.45740840434951
 21
149.69988962677485
  0
LINE
  8
_1-7_設備
  6
CONTINUOUS
 62
    3
 10
160.45740840434951
 20
149.69988962677485
 11
160.40829815413764
 21
149.80520689822779
  0
LINE
  8
_1-7_設備
  6
CONTINUOUS
 62
    3
 10
160.40829815413764
 20
149.80520689822779
 11
160.341645846712
 21
149.90039625822666
  0
LINE
  8
_1-7_設備
  6
CONTINUOUS
 62
    3
 10
160.341645846712
 20
149.90039625822666
 11
160.25947667870597
 21
149.98256542623608
  0
LINE
  8
_1-7_設備
  6
CONTINUOUS
 62
    3
 10
160.25947667870597
 20
149.98256542623608
 11
160.16428731870982
 21
150.04921773366564
  0
LINE
  8
_1-7_設備
  6
CONTINUOUS
 62
    3
 10
160.16428731870982
 20
150.04921773366564
 11
160.0589700472589
 21
150.0983279838818
  0
LINE
  8
_1-7_設備
  6
CONTINUOUS
 62
    3
 10
160.0589700472589
 20
150.0983279838818
 11
159.94672487635316
 21
150.12840398678276
  0
LINE
  8
_1-7_設備
  6
CONTINUOUS
 62
    3
 10
159.94672487635316
 20
150.12840398678276
 11
159.89729992987836
 21
150.13522309539445
  0
LINE
  8
_1-7_設備
  6
CONTINUOUS
 62
    3
 10
161.16431231869785
 20
150.07523189823283
 11
161.16431231869785
 21
150.07523189823283
  0
LINE
  8
_1-7_設備
  6
CONTINUOUS
 62
    3
 10
161.16431231869785
 20
150.07523189823283
 11
161.1541844072446
 21
150.19099445587457
  0
LINE
  8
_1-7_設備
  6
CONTINUOUS
 62
    3
 10
161.1541844072446
 20
150.19099445587457
 11
161.12410840434706
 21
150.30323962678125
  0
LINE
  8
_1-7_設備
  6
CONTINUOUS
 62
    3
 10
161.12410840434706
 20
150.30323962678125
 11
161.07499815413408
 21
150.40855689823368
  0
LINE
  8
_1-7_設備
  6
CONTINUOUS
 62
    3
 10
161.07499815413408
 20
150.40855689823368
 11
161.00834584670741
 21
150.5037462582319
  0
LINE
  8
_1-7_設備
  6
CONTINUOUS
 62
    3
 10
161.00834584670741
 20
150.5037462582319
 11
160.9261766787005
 21
150.58591542624046
  0
LINE
  8
_1-7_設備
  6
CONTINUOUS
 62
    3
 10
160.9261766787005
 20
150.58591542624046
 11
160.83098731870365
 21
150.65256773366906
  0
LINE
  8
_1-7_設備
  6
CONTINUOUS
 62
    3
 10
160.83098731870365
 20
150.65256773366906
 11
160.72567004725221
 21
150.70167798388414
  0
LINE
  8
_1-7_設備
  6
CONTINUOUS
 62
    3
 10
160.72567004725221
 20
150.70167798388414
 11
160.61342487634613
 21
150.73175398678396
  0
LINE
  8
_1-7_設備
  6
CONTINUOUS
 62
    3
 10
160.61342487634613
 20
150.73175398678396
 11
160.5639999298713
 21
150.73857309539511
  0
LINE
  8
_1-7_設備
  6
CONTINUOUS
 62
    3
 10
159.16431231869797
 20
132.39453189824133
 11
159.16431231869797
 21
132.39453189824133
  0
LINE
  8
_1-7_設備
  6
CONTINUOUS
 62
    3
 10
159.16431231869797
 20
132.39453189824133
 11
159.16684410665817
 21
132.36559342943312
  0
LINE
  8
_1-7_設備
  6
CONTINUOUS
 62
    3
 10
159.16684410665817
 20
132.36559342943312
 11
159.17436254344338
 21
132.33753424135602
  0
LINE
  8
_1-7_設備
  6
CONTINUOUS
 62
    3
 10
159.17436254344338
 20
132.33753424135602
 11
159.18663918515637
 21
132.31120689824112
  0
LINE
  8
_1-7_設備
  6
CONTINUOUS
 62
    3
 10
159.18663918515637
 20
132.31120689824112
 11
159.20330101225102
 21
132.28741134308669
  0
LINE
  8
_1-7_設備
  6
CONTINUOUS
 62
    3
 10
159.20330101225102
 20
132.28741134308669
 11
159.22384176354228
 21
132.266870591795
  0
LINE
  8
_1-7_設備
  6
CONTINUOUS
 62
    3
 10
159.22384176354228
 20
132.266870591795
 11
159.24763731869635
 21
132.25020876469983
  0
LINE
  8
_1-7_設備
  6
CONTINUOUS
 62
    3
 10
159.24763731869635
 20
132.25020876469983
 11
159.27396466181099
 21
132.23793212298628
  0
LINE
  8
_1-7_設備
  6
CONTINUOUS
 62
    3
 10
159.27396466181099
 20
132.23793212298628
 11
159.30202384988795
 21
132.23041368620051
  0
LINE
  8
_1-7_設備
  6
CONTINUOUS
 62
    3
 10
159.30202384988795
 20
132.23041368620051
 11
159.33096231869536
 21
132.22788189823967
  0
LINE
  8
_1-7_設備
  6
CONTINUOUS
 62
    3
 10
112.83096231869706
 20
132.22788189823967
 11
112.83096231869706
 21
132.22788189823967
  0
LINE
  8
_1-7_設備
  6
CONTINUOUS
 62
    3
 10
112.83096231869706
 20
132.22788189823967
 11
112.85990078750525
 21
132.23041368620002
  0
LINE
  8
_1-7_設備
  6
CONTINUOUS
 62
    3
 10
112.85990078750525
 20
132.23041368620002
 11
112.88795997558232
 21
132.23793212298537
  0
LINE
  8
_1-7_設備
  6
CONTINUOUS
 62
    3
 10
112.88795997558232
 20
132.23793212298537
 11
112.91428731869715
 21
132.2502087646985
  0
LINE
  8
_1-7_設備
  6
CONTINUOUS
 62
    3
 10
112.91428731869715
 20
132.2502087646985
 11
112.93808287385149
 21
132.26687059179326
  0
LINE
  8
_1-7_設備
  6
CONTINUOUS
 62
    3
 10
112.93808287385149
 20
132.26687059179326
 11
112.95862362514309
 21
132.28741134308464
  0
LINE
  8
_1-7_設備
  6
CONTINUOUS
 62
    3
 10
112.95862362514309
 20
132.28741134308464
 11
112.97528545223811
 21
132.31120689823879
  0
LINE
  8
_1-7_設備
  6
CONTINUOUS
 62
    3
 10
112.97528545223811
 20
132.31120689823879
 11
112.98756209395154
 21
132.3375342413535
  0
LINE
  8
_1-7_設備
  6
CONTINUOUS
 62
    3
 10
112.98756209395154
 20
132.3375342413535
 11
112.99508053073718
 21
132.36559342943048
  0
LINE
  8
_1-7_設備
  6
CONTINUOUS
 62
    3
 10
112.99508053073718
 20
132.36559342943048
 11
112.99761231869785
 21
132.39453189823791
  0
LINE
  8
_1-6_アンカ__類
  6
CONTINUOUS
 62
    4
 10
131.58103211388374
 20
148.06118189823962
 11
130.58101231869793
 21
148.06118189823962
  0
LINE
  8
_1-6_アンカ__類
  6
CONTINUOUS
 62
    4
 10
130.58101231869793
 20
148.06118189823962
 11
130.58101231869793
 21
148.02787649811293
  0
LINE
  8
_1-6_アンカ__類
  6
CONTINUOUS
 62
    4
 10
131.58103211388374
 20
148.06118189823962
 11
131.58103211388374
 21
148.02787649811293
  0
LINE
  8
_1-6_アンカ__類
  6
CONTINUOUS
 62
    4
 10
131.914308810991
 20
149.16123336572275
 11
130.24769438162025
 21
149.16123336572275
  0
LINE
  8
_1-6_アンカ__類
  6
CONTINUOUS
 62
    4
 10
128.99774386958475
 20
148.39442560337054
 11
133.1642593230265
 21
148.39442560337054
  0
LINE
  8
_1-6_アンカ__類
  6
CONTINUOUS
 62
    4
 10
129.58110799542936
 20
148.4945480036028
 11
129.58110799542936
 21
148.39442560337054
  0
LINE
  8
_1-6_アンカ__類
  6
CONTINUOUS
 62
    4
 10
132.58107665305181
 20
148.4945480036028
 11
132.58107665305181
 21
148.39442560337054
  0
LINE
  8
_1-6_アンカ__類
  6
CONTINUOUS
 62
    4
 10
128.99774386958475
 20
148.39442560337054
 11
128.99774386958475
 21
148.06118189823962
  0
LINE
  8
_1-6_アンカ__類
  6
CONTINUOUS
 62
    4
 10
133.1642593230265
 20
148.39442560337054
 11
133.1642593230265
 21
148.06118189823962
  0
LINE
  8
_1-6_アンカ__類
  6
CONTINUOUS
 62
    4
 10
128.99774386958475
 20
148.06118189823962
 11
133.1642593230265
 21
148.06118189823962
  0
LINE
  8
_1-6_アンカ__類
  6
CONTINUOUS
 62
    4
 10
130.16429066540402
 20
148.06118189823962
 11
130.16429066540402
 21
129.93884600032999
  0
LINE
  8
_1-6_アンカ__類
  6
CONTINUOUS
 62
    4
 10
131.02608232767176
 20
127.85847919553692
 11
130.16429066540402
 21
129.93884600032999
  0
LINE
  8
_1-6_アンカ__類
  6
CONTINUOUS
 62
    4
 10
131.02608232767176
 20
127.85847919553692
 11
131.99771252720723
 21
130.20418397013574
  0
LINE
  8
_1-6_アンカ__類
  6
CONTINUOUS
 62
    4
 10
131.99771252720723
 20
148.06118189823962
 11
131.99771252720723
 21
130.20418397013574
  0
ARC
  8
_1-6_アンカ__類
  6
CONTINUOUS
 62
    4
 10
130.24769438162025
 20
148.4945480036028
 40
0.6666584272642392
 50
90
 51
180
  0
ARC
  8
_1-6_アンカ__類
  6
CONTINUOUS
 62
    4
 10
131.914308810991
 20
148.4945480036028
 40
0.6666584272642392
 50
0
 51
90
  0
LINE
  8
_1-6_アンカ__類
  6
CONTINUOUS
 62
    4
 10
141.58103211388374
 20
148.06118189823962
 11
140.58101231869793
 21
148.06118189823962
  0
LINE
  8
_1-6_アンカ__類
  6
CONTINUOUS
 62
    4
 10
140.58101231869793
 20
148.06118189823962
 11
140.58101231869793
 21
148.02787649811293
  0
LINE
  8
_1-6_アンカ__類
  6
CONTINUOUS
 62
    4
 10
141.58103211388374
 20
148.06118189823962
 11
141.58103211388374
 21
148.02787649811293
  0
LINE
  8
_1-6_アンカ__類
  6
CONTINUOUS
 62
    4
 10
141.914308810991
 20
149.16123336572275
 11
140.24769438162025
 21
149.16123336572275
  0
LINE
  8
_1-6_アンカ__類
  6
CONTINUOUS
 62
    4
 10
138.99774386958475
 20
148.39442560337054
 11
143.1642593230265
 21
148.39442560337054
  0
LINE
  8
_1-6_アンカ__類
  6
CONTINUOUS
 62
    4
 10
139.58110799542936
 20
148.4945480036028
 11
139.58110799542936
 21
148.39442560337054
  0
LINE
  8
_1-6_アンカ__類
  6
CONTINUOUS
 62
    4
 10
142.58107665305181
 20
148.4945480036028
 11
142.58107665305181
 21
148.39442560337054
  0
LINE
  8
_1-6_アンカ__類
  6
CONTINUOUS
 62
    4
 10
138.99774386958475
 20
148.39442560337054
 11
138.99774386958475
 21
148.06118189823962
  0
LINE
  8
_1-6_アンカ__類
  6
CONTINUOUS
 62
    4
 10
143.1642593230265
 20
148.39442560337054
 11
143.1642593230265
 21
148.06118189823962
  0
LINE
  8
_1-6_アンカ__類
  6
CONTINUOUS
 62
    4
 10
138.99774386958475
 20
148.06118189823962
 11
143.1642593230265
 21
148.06118189823962
  0
LINE
  8
_1-6_アンカ__類
  6
CONTINUOUS
 62
    4
 10
140.16429066540402
 20
148.06118189823962
 11
140.16429066540402
 21
129.93884600032999
  0
LINE
  8
_1-6_アンカ__類
  6
CONTINUOUS
 62
    4
 10
141.02608232767176
 20
127.85847919553692
 11
140.16429066540402
 21
129.93884600032999
  0
LINE
  8
_1-6_アンカ__類
  6
CONTINUOUS
 62
    4
 10
141.02608232767176
 20
127.85847919553692
 11
141.99771252720723
 21
130.20418397013574
  0
LINE
  8
_1-6_アンカ__類
  6
CONTINUOUS
 62
    4
 10
141.99771252720723
 20
148.06118189823962
 11
141.99771252720723
 21
130.20418397013574
  0
ARC
  8
_1-6_アンカ__類
  6
CONTINUOUS
 62
    4
 10
140.24769438162025
 20
148.4945480036028
 40
0.6666584272642392
 50
90
 51
180
  0
ARC
  8
_1-6_アンカ__類
  6
CONTINUOUS
 62
    4
 10
141.914308810991
 20
148.4945480036028
 40
0.6666584272642392
 50
0
 51
90
  0
LINE
  8
_1-c_アンカ__類②
  6
CONTINUOUS
 62
    4
 10
132.41415924736489
 20
135.66132007391531
 11
132.41415924736489
 21
134.99464295978947
  0
LINE
  8
_1-c_アンカ__類②
  6
CONTINUOUS
 62
    4
 10
129.74762399873737
 20
145.72783189823963
 11
129.74762399873737
 21
142.51080902820163
  0
LINE
  8
_1-c_アンカ__類②
  6
CONTINUOUS
 62
    4
 10
129.74762399873737
 20
133.32793780248372
 11
132.41415924736489
 21
133.32793780248372
  0
LINE
  8
_1-c_アンカ__類②
  6
CONTINUOUS
 62
    4
 10
132.41415924736489
 20
133.99471389253861
 11
132.41415924736489
 21
133.32793780248372
  0
LINE
  8
_1-c_アンカ__類②
  6
CONTINUOUS
 62
    4
 10
132.08091554223398
 20
138.32794605047781
 11
131.91419883773651
 21
138.16132832190939
  0
LINE
  8
_1-c_アンカ__類②
  6
CONTINUOUS
 62
    4
 10
130.91426977048567
 20
143.72789128379708
 11
131.24751347561659
 21
143.72789128379708
  0
LINE
  8
_1-c_アンカ__類②
  6
CONTINUOUS
 62
    4
 10
130.91426977048567
 20
143.72789128379708
 11
130.91426977048567
 21
133.32793780248372
  0
LINE
  8
_1-c_アンカ__類②
  6
CONTINUOUS
 62
    4
 10
131.91419883773651
 20
135.82794605047781
 11
132.08091554223398
 21
135.66132007391531
  0
LINE
  8
_1-c_アンカ__類②
  6
CONTINUOUS
 62
    4
 10
129.74762399873737
 20
133.32793780248372
 11
130.24758440836575
 21
132.39461128749218
  0
LINE
  8
_1-c_アンカ__類②
  6
CONTINUOUS
 62
    4
 10
132.08091554223398
 20
134.99464295978947
 11
131.91419883773651
 21
134.82801698322697
  0
LINE
  8
_1-c_アンカ__類②
  6
CONTINUOUS
 62
    4
 10
131.91419883773651
 20
134.16133986910111
 11
132.08091554223398
 21
133.99471389253861
  0
LINE
  8
_1-c_アンカ__類②
  6
CONTINUOUS
 62
    4
 10
132.41415924736489
 20
133.32793780248372
 11
131.91419883773651
 21
132.39461128749218
  0
LINE
  8
_1-c_アンカ__類②
  6
CONTINUOUS
 62
    4
 10
133.36346212690461
 20
142.3945288075513
 11
133.74752172361067
 21
142.3945288075513
  0
LINE
  8
_1-c_アンカ__類②
  6
CONTINUOUS
 62
    4
 10
132.08091554223398
 20
135.66132007391531
 11
132.41415924736489
 21
135.66132007391531
  0
LINE
  8
_1-c_アンカ__類②
  6
CONTINUOUS
 62
    4
 10
130.24758440836575
 20
136.49462316460364
 11
130.08086770386828
 21
136.32800543603526
  0
LINE
  8
_1-c_アンカ__類②
  6
CONTINUOUS
 62
    4
 10
130.08086770386828
 20
137.327926255292
 11
130.24758440836575
 21
137.16130852672359
  0
LINE
  8
_1-c_アンカ__類②
  6
CONTINUOUS
 62
    4
 10
130.24758440836575
 20
137.16130852672359
 11
130.24758440836575
 21
136.49462316460364
  0
LINE
  8
_1-c_アンカ__類②
  6
CONTINUOUS
 62
    4
 10
128.79832111919768
 20
142.3945288075513
 11
128.41426152249159
 21
142.3945288075513
  0
LINE
  8
_1-c_アンカ__類②
  6
CONTINUOUS
 62
    4
 10
130.08086770386828
 20
142.3945288075513
 11
129.74762399873737
 21
142.51080902820163
  0
LINE
  8
_1-c_アンカ__類②
  6
CONTINUOUS
 62
    4
 10
131.24751347561659
 20
143.72789128379708
 11
131.24751347561659
 21
133.32793780248372
  0
LINE
  8
_1-c_アンカ__類②
  6
CONTINUOUS
 62
    4
 10
130.08086770386828
 20
137.327926255292
 11
129.74762399873737
 21
137.327926255292
  0
LINE
  8
_1-c_アンカ__類②
  6
CONTINUOUS
 62
    4
 10
130.08086770386828
 20
137.99461161741192
 11
129.74762399873737
 21
137.99461161741192
  0
LINE
  8
_1-c_アンカ__類②
  6
CONTINUOUS
 62
    4
 10
130.08086770386828
 20
142.3945288075513
 11
130.08086770386828
 21
140.14987845651666
  0
LINE
  8
_1-c_アンカ__類②
  6
CONTINUOUS
 62
    4
 10
128.79832111919768
 20
142.3945288075513
 11
130.08086770386828
 21
140.14987845651666
  0
LINE
  8
_1-c_アンカ__類②
  6
CONTINUOUS
 62
    4
 10
130.08086770386828
 20
134.6613002787295
 11
129.74762399873737
 21
134.6613002787295
  0
LINE
  8
_1-c_アンカ__類②
  6
CONTINUOUS
 62
    4
 10
130.08086770386828
 20
135.66132007391531
 11
129.74762399873737
 21
135.66132007391531
  0
LINE
  8
_1-c_アンカ__類②
  6
CONTINUOUS
 62
    4
 10
130.24758440836575
 20
135.49460336941786
 11
130.24758440836575
 21
134.82801698322697
  0
LINE
  8
_1-c_アンカ__類②
  6
CONTINUOUS
 62
    4
 10
132.08091554223398
 20
142.3945288075513
 11
132.41415924736489
 21
142.51080902820163
  0
LINE
  8
_1-c_アンカ__類②
  6
CONTINUOUS
 62
    4
 10
131.91419883773651
 20
136.49462316460364
 11
131.91419883773651
 21
135.82794605047781
  0
LINE
  8
_1-c_アンカ__類②
  6
CONTINUOUS
 62
    4
 10
130.24758440836575
 20
138.82791470810028
 11
130.24758440836575
 21
138.16132832190939
  0
LINE
  8
_1-c_アンカ__類②
  6
CONTINUOUS
 62
    4
 10
130.08086770386828
 20
138.99453243666869
 11
129.74762399873737
 21
138.99453243666869
  0
LINE
  8
_1-c_アンカ__類②
  6
CONTINUOUS
 62
    4
 10
132.08091554223398
 20
137.327926255292
 11
132.41415924736489
 21
137.327926255292
  0
LINE
  8
_1-c_アンカ__類②
  6
CONTINUOUS
 62
    4
 10
132.08091554223398
 20
136.66124914116614
 11
132.41415924736489
 21
136.66124914116614
  0
LINE
  8
_1-c_アンカ__類②
  6
CONTINUOUS
 62
    4
 10
130.08086770386828
 20
138.99453243666869
 11
130.24758440836575
 21
138.82791470810028
  0
LINE
  8
_1-c_アンカ__類②
  6
CONTINUOUS
 62
    4
 10
130.24758440836575
 20
138.16132832190939
 11
130.08086770386828
 21
137.99461161741192
  0
LINE
  8
_1-c_アンカ__類②
  6
CONTINUOUS
 62
    4
 10
130.08086770386828
 20
135.66132007391531
 11
130.24758440836575
 21
135.49460336941786
  0
LINE
  8
_1-c_アンカ__類②
  6
CONTINUOUS
 62
    4
 10
130.24758440836575
 20
134.82801698322697
 11
130.08086770386828
 21
134.6613002787295
  0
LINE
  8
_1-c_アンカ__類②
  6
CONTINUOUS
 62
    4
 10
133.74752172361067
 20
142.3945288075513
 11
132.41415924736489
 21
140.06114653611971
  0
LINE
  8
_1-c_アンカ__類②
  6
CONTINUOUS
 62
    4
 10
133.36346212690461
 20
142.3945288075513
 11
132.08091554223398
 21
140.14987845651666
  0
LINE
  8
_1-c_アンカ__類②
  6
CONTINUOUS
 62
    4
 10
132.41415924736489
 20
140.06114653611971
 11
132.41415924736489
 21
138.32794605047781
  0
LINE
  8
_1-c_アンカ__類②
  6
CONTINUOUS
 62
    4
 10
132.08091554223398
 20
142.3945288075513
 11
132.08091554223398
 21
140.14987845651666
  0
LINE
  8
_1-c_アンカ__類②
  6
CONTINUOUS
 62
    4
 10
128.41426152249159
 20
142.3945288075513
 11
129.74762399873737
 21
140.06114653611971
  0
LINE
  8
_1-c_アンカ__類②
  6
CONTINUOUS
 62
    4
 10
131.91419883773651
 20
134.82801698322697
 11
131.91419883773651
 21
134.16133986910111
  0
LINE
  8
_1-c_アンカ__類②
  6
CONTINUOUS
 62
    4
 10
131.91419883773651
 20
138.16132832190939
 11
131.91419883773651
 21
137.4945522318545
  0
LINE
  8
_1-c_アンカ__類②
  6
CONTINUOUS
 62
    4
 10
132.08091554223398
 20
136.66124914116614
 11
131.91419883773651
 21
136.49462316460364
  0
LINE
  8
_1-c_アンカ__類②
  6
CONTINUOUS
 62
    4
 10
132.08091554223398
 20
138.32794605047781
 11
132.41415924736489
 21
138.32794605047781
  0
LINE
  8
_1-c_アンカ__類②
  6
CONTINUOUS
 62
    4
 10
132.08091554223398
 20
134.99464295978947
 11
132.41415924736489
 21
134.99464295978947
  0
LINE
  8
_1-c_アンカ__類②
  6
CONTINUOUS
 62
    4
 10
132.08091554223398
 20
133.99471389253861
 11
132.41415924736489
 21
133.99471389253861
  0
LINE
  8
_1-c_アンカ__類②
  6
CONTINUOUS
 62
    4
 10
131.91419883773651
 20
137.4945522318545
 11
132.08091554223398
 21
137.327926255292
  0
LINE
  8
_1-c_アンカ__類②
  6
CONTINUOUS
 62
    4
 10
130.08086770386828
 20
136.32800543603526
 11
129.74762399873737
 21
136.32800543603526
  0
LINE
  8
_1-c_アンカ__類②
  6
CONTINUOUS
 62
    4
 10
130.24758440836575
 20
132.39461128749218
 11
131.91419883773651
 21
132.39461128749218
  0
LINE
  8
_1-c_アンカ__類②
  6
CONTINUOUS
 62
    4
 10
129.74762399873737
 20
145.13083383816786
 11
129.52038351362336
 21
145.72783189823963
  0
LINE
  8
_1-c_アンカ__類②
  6
CONTINUOUS
 62
    4
 10
132.41415924736489
 20
145.13083383816786
 11
132.64158118834885
 21
145.72783189823963
  0
LINE
  8
_1-c_アンカ__類②
  6
CONTINUOUS
 62
    4
 10
129.74762399873737
 20
140.06114653611971
 11
129.74762399873737
 21
138.99453243666869
  0
LINE
  8
_1-c_アンカ__類②
  6
CONTINUOUS
 62
    4
 10
132.41415924736489
 20
145.72783189823963
 11
132.41415924736489
 21
142.51080902820163
  0
LINE
  8
_1-c_アンカ__類②
  6
CONTINUOUS
 62
    4
 10
129.74762399873737
 20
137.99461161741192
 11
129.74762399873737
 21
137.327926255292
  0
LINE
  8
_1-c_アンカ__類②
  6
CONTINUOUS
 62
    4
 10
129.74762399873737
 20
136.32800543603526
 11
129.74762399873737
 21
135.66132007391531
  0
LINE
  8
_1-c_アンカ__類②
  6
CONTINUOUS
 62
    4
 10
129.74762399873737
 20
134.6613002787295
 11
129.74762399873737
 21
133.32793780248372
  0
LINE
  8
_1-c_アンカ__類②
  6
CONTINUOUS
 62
    4
 10
132.41415924736489
 20
137.327926255292
 11
132.41415924736489
 21
136.66124914116614
  0
LINE
  8
_1-c_アンカ__類②
  6
CONTINUOUS
 62
    4
 10
129.52038351362336
 20
145.72783189823963
 11
132.64158118834885
 21
145.72783189823963
  0
LINE
  8
_1-c_アンカ__類②
  6
CONTINUOUS
 62
    4
 10
142.41415924736489
 20
135.66132007391531
 11
142.41415924736489
 21
134.99464295978947
  0
LINE
  8
_1-c_アンカ__類②
  6
CONTINUOUS
 62
    4
 10
139.74762399873737
 20
145.72783189823963
 11
139.74762399873737
 21
142.51080902820163
  0
LINE
  8
_1-c_アンカ__類②
  6
CONTINUOUS
 62
    4
 10
139.74762399873737
 20
133.32793780248372
 11
142.41415924736489
 21
133.32793780248372
  0
LINE
  8
_1-c_アンカ__類②
  6
CONTINUOUS
 62
    4
 10
142.41415924736489
 20
133.99471389253861
 11
142.41415924736489
 21
133.32793780248372
  0
LINE
  8
_1-c_アンカ__類②
  6
CONTINUOUS
 62
    4
 10
142.08091554223398
 20
138.32794605047781
 11
141.91419883773651
 21
138.16132832190939
  0
LINE
  8
_1-c_アンカ__類②
  6
CONTINUOUS
 62
    4
 10
140.91426977048567
 20
143.72789128379708
 11
141.24751347561659
 21
143.72789128379708
  0
LINE
  8
_1-c_アンカ__類②
  6
CONTINUOUS
 62
    4
 10
140.91426977048567
 20
143.72789128379708
 11
140.91426977048567
 21
133.32793780248372
  0
LINE
  8
_1-c_アンカ__類②
  6
CONTINUOUS
 62
    4
 10
141.91419883773651
 20
135.82794605047781
 11
142.08091554223398
 21
135.66132007391531
  0
LINE
  8
_1-c_アンカ__類②
  6
CONTINUOUS
 62
    4
 10
139.74762399873737
 20
133.32793780248372
 11
140.24758440836575
 21
132.39461128749218
  0
LINE
  8
_1-c_アンカ__類②
  6
CONTINUOUS
 62
    4
 10
142.08091554223398
 20
134.99464295978947
 11
141.91419883773651
 21
134.82801698322697
  0
LINE
  8
_1-c_アンカ__類②
  6
CONTINUOUS
 62
    4
 10
141.91419883773651
 20
134.16133986910111
 11
142.08091554223398
 21
133.99471389253861
  0
LINE
  8
_1-c_アンカ__類②
  6
CONTINUOUS
 62
    4
 10
142.41415924736489
 20
133.32793780248372
 11
141.91419883773651
 21
132.39461128749218
  0
LINE
  8
_1-c_アンカ__類②
  6
CONTINUOUS
 62
    4
 10
143.36346212690461
 20
142.3945288075513
 11
143.74752172361067
 21
142.3945288075513
  0
LINE
  8
_1-c_アンカ__類②
  6
CONTINUOUS
 62
    4
 10
142.08091554223398
 20
135.66132007391531
 11
142.41415924736489
 21
135.66132007391531
  0
LINE
  8
_1-c_アンカ__類②
  6
CONTINUOUS
 62
    4
 10
140.24758440836575
 20
136.49462316460364
 11
140.08086770386828
 21
136.32800543603526
  0
LINE
  8
_1-c_アンカ__類②
  6
CONTINUOUS
 62
    4
 10
140.08086770386828
 20
137.327926255292
 11
140.24758440836575
 21
137.16130852672359
  0
LINE
  8
_1-c_アンカ__類②
  6
CONTINUOUS
 62
    4
 10
140.24758440836575
 20
137.16130852672359
 11
140.24758440836575
 21
136.49462316460364
  0
LINE
  8
_1-c_アンカ__類②
  6
CONTINUOUS
 62
    4
 10
138.79832111919768
 20
142.3945288075513
 11
138.41426152249159
 21
142.3945288075513
  0
LINE
  8
_1-c_アンカ__類②
  6
CONTINUOUS
 62
    4
 10
140.08086770386828
 20
142.3945288075513
 11
139.74762399873737
 21
142.51080902820163
  0
LINE
  8
_1-c_アンカ__類②
  6
CONTINUOUS
 62
    4
 10
141.24751347561659
 20
143.72789128379708
 11
141.24751347561659
 21
133.32793780248372
  0
LINE
  8
_1-c_アンカ__類②
  6
CONTINUOUS
 62
    4
 10
140.08086770386828
 20
137.327926255292
 11
139.74762399873737
 21
137.327926255292
  0
LINE
  8
_1-c_アンカ__類②
  6
CONTINUOUS
 62
    4
 10
140.08086770386828
 20
137.99461161741192
 11
139.74762399873737
 21
137.99461161741192
  0
LINE
  8
_1-c_アンカ__類②
  6
CONTINUOUS
 62
    4
 10
140.08086770386828
 20
142.3945288075513
 11
140.08086770386828
 21
140.14987845651666
  0
LINE
  8
_1-c_アンカ__類②
  6
CONTINUOUS
 62
    4
 10
138.79832111919768
 20
142.3945288075513
 11
140.08086770386828
 21
140.14987845651666
  0
LINE
  8
_1-c_アンカ__類②
  6
CONTINUOUS
 62
    4
 10
140.08086770386828
 20
134.6613002787295
 11
139.74762399873737
 21
134.6613002787295
  0
LINE
  8
_1-c_アンカ__類②
  6
CONTINUOUS
 62
    4
 10
140.08086770386828
 20
135.66132007391531
 11
139.74762399873737
 21
135.66132007391531
  0
LINE
  8
_1-c_アンカ__類②
  6
CONTINUOUS
 62
    4
 10
140.24758440836575
 20
135.49460336941786
 11
140.24758440836575
 21
134.82801698322697
  0
LINE
  8
_1-c_アンカ__類②
  6
CONTINUOUS
 62
    4
 10
142.08091554223398
 20
142.3945288075513
 11
142.41415924736489
 21
142.51080902820163
  0
LINE
  8
_1-c_アンカ__類②
  6
CONTINUOUS
 62
    4
 10
141.91419883773651
 20
136.49462316460364
 11
141.91419883773651
 21
135.82794605047781
  0
LINE
  8
_1-c_アンカ__類②
  6
CONTINUOUS
 62
    4
 10
140.24758440836575
 20
138.82791470810028
 11
140.24758440836575
 21
138.16132832190939
  0
LINE
  8
_1-c_アンカ__類②
  6
CONTINUOUS
 62
    4
 10
140.08086770386828
 20
138.99453243666869
 11
139.74762399873737
 21
138.99453243666869
  0
LINE
  8
_1-c_アンカ__類②
  6
CONTINUOUS
 62
    4
 10
142.08091554223398
 20
137.327926255292
 11
142.41415924736489
 21
137.327926255292
  0
LINE
  8
_1-c_アンカ__類②
  6
CONTINUOUS
 62
    4
 10
142.08091554223398
 20
136.66124914116614
 11
142.41415924736489
 21
136.66124914116614
  0
LINE
  8
_1-c_アンカ__類②
  6
CONTINUOUS
 62
    4
 10
140.08086770386828
 20
138.99453243666869
 11
140.24758440836575
 21
138.82791470810028
  0
LINE
  8
_1-c_アンカ__類②
  6
CONTINUOUS
 62
    4
 10
140.24758440836575
 20
138.16132832190939
 11
140.08086770386828
 21
137.99461161741192
  0
LINE
  8
_1-c_アンカ__類②
  6
CONTINUOUS
 62
    4
 10
140.08086770386828
 20
135.66132007391531
 11
140.24758440836575
 21
135.49460336941786
  0
LINE
  8
_1-c_アンカ__類②
  6
CONTINUOUS
 62
    4
 10
140.24758440836575
 20
134.82801698322697
 11
140.08086770386828
 21
134.6613002787295
  0
LINE
  8
_1-c_アンカ__類②
  6
CONTINUOUS
 62
    4
 10
143.74752172361067
 20
142.3945288075513
 11
142.41415924736489
 21
140.06114653611971
  0
LINE
  8
_1-c_アンカ__類②
  6
CONTINUOUS
 62
    4
 10
143.36346212690461
 20
142.3945288075513
 11
142.08091554223398
 21
140.14987845651666
  0
LINE
  8
_1-c_アンカ__類②
  6
CONTINUOUS
 62
    4
 10
142.41415924736489
 20
140.06114653611971
 11
142.41415924736489
 21
138.32794605047781
  0
LINE
  8
_1-c_アンカ__類②
  6
CONTINUOUS
 62
    4
 10
142.08091554223398
 20
142.3945288075513
 11
142.08091554223398
 21
140.14987845651666
  0
LINE
  8
_1-c_アンカ__類②
  6
CONTINUOUS
 62
    4
 10
138.41426152249159
 20
142.3945288075513
 11
139.74762399873737
 21
140.06114653611971
  0
LINE
  8
_1-c_アンカ__類②
  6
CONTINUOUS
 62
    4
 10
141.91419883773651
 20
134.82801698322697
 11
141.91419883773651
 21
134.16133986910111
  0
LINE
  8
_1-c_アンカ__類②
  6
CONTINUOUS
 62
    4
 10
141.91419883773651
 20
138.16132832190939
 11
141.91419883773651
 21
137.4945522318545
  0
LINE
  8
_1-c_アンカ__類②
  6
CONTINUOUS
 62
    4
 10
142.08091554223398
 20
136.66124914116614
 11
141.91419883773651
 21
136.49462316460364
  0
LINE
  8
_1-c_アンカ__類②
  6
CONTINUOUS
 62
    4
 10
142.08091554223398
 20
138.32794605047781
 11
142.41415924736489
 21
138.32794605047781
  0
LINE
  8
_1-c_アンカ__類②
  6
CONTINUOUS
 62
    4
 10
142.08091554223398
 20
134.99464295978947
 11
142.41415924736489
 21
134.99464295978947
  0
LINE
  8
_1-c_アンカ__類②
  6
CONTINUOUS
 62
    4
 10
142.08091554223398
 20
133.99471389253861
 11
142.41415924736489
 21
133.99471389253861
  0
LINE
  8
_1-c_アンカ__類②
  6
CONTINUOUS
 62
    4
 10
141.91419883773651
 20
137.4945522318545
 11
142.08091554223398
 21
137.327926255292
  0
LINE
  8
_1-c_アンカ__類②
  6
CONTINUOUS
 62
    4
 10
140.08086770386828
 20
136.32800543603526
 11
139.74762399873737
 21
136.32800543603526
  0
LINE
  8
_1-c_アンカ__類②
  6
CONTINUOUS
 62
    4
 10
140.24758440836575
 20
132.39461128749218
 11
141.91419883773651
 21
132.39461128749218
  0
LINE
  8
_1-c_アンカ__類②
  6
CONTINUOUS
 62
    4
 10
139.74762399873737
 20
145.13083383816786
 11
139.52038351362336
 21
145.72783189823963
  0
LINE
  8
_1-c_アンカ__類②
  6
CONTINUOUS
 62
    4
 10
142.41415924736489
 20
145.13083383816786
 11
142.64158118834885
 21
145.72783189823963
  0
LINE
  8
_1-c_アンカ__類②
  6
CONTINUOUS
 62
    4
 10
139.74762399873737
 20
140.06114653611971
 11
139.74762399873737
 21
138.99453243666869
  0
LINE
  8
_1-c_アンカ__類②
  6
CONTINUOUS
 62
    4
 10
142.41415924736489
 20
145.72783189823963
 11
142.41415924736489
 21
142.51080902820163
  0
LINE
  8
_1-c_アンカ__類②
  6
CONTINUOUS
 62
    4
 10
139.74762399873737
 20
137.99461161741192
 11
139.74762399873737
 21
137.327926255292
  0
LINE
  8
_1-c_アンカ__類②
  6
CONTINUOUS
 62
    4
 10
139.74762399873737
 20
136.32800543603526
 11
139.74762399873737
 21
135.66132007391531
  0
LINE
  8
_1-c_アンカ__類②
  6
CONTINUOUS
 62
    4
 10
139.74762399873737
 20
134.6613002787295
 11
139.74762399873737
 21
133.32793780248372
  0
LINE
  8
_1-c_アンカ__類②
  6
CONTINUOUS
 62
    4
 10
142.41415924736489
 20
137.327926255292
 11
142.41415924736489
 21
136.66124914116614
  0
LINE
  8
_1-c_アンカ__類②
  6
CONTINUOUS
 62
    4
 10
139.52038351362336
 20
145.72783189823963
 11
142.64158118834885
 21
145.72783189823963
  0
ENDSEC
  0
EOF
